  0
SECTION
  2
HEADER
  9
$ACADVER
  1
AC1009
  9
$INSBASE
 10
0.0
 20
0.0
 30
0.0
  9
$EXTMIN
 10
-0.0204638472032742
 20
-2.960436562073669
 30
0.0
  9
$EXTMAX
 10
240.68506026044221
 20
133.58535551791479
 30
0.0
  9
$LIMMIN
 10
0.0
 20
0.0
  9
$LIMMAX
 10
187.5
 20
135.0
  9
$ORTHOMODE
 70
     1
  9
$REGENMODE
 70
     1
  9
$FILLMODE
 70
     1
  9
$QTEXTMODE
 70
     0
  9
$MIRRTEXT
 70
     0
  9
$DRAGMODE
 70
     2
  9
$LTSCALE
 40
5.0
  9
$OSMODE
 70
    37
  9
$ATTMODE
 70
     1
  9
$TEXTSIZE
 40
0.2
  9
$TRACEWID
 40
0.05
  9
$TEXTSTYLE
  7
STANDARD
  9
$CLAYER
  8
0
  9
$CELTYPE
  6
BYLAYER
  9
$CECOLOR
 62
   256
  9
$DIMSCALE
 40
0.5
  9
$DIMASZ
 40
3.0
  9
$DIMEXO
 40
2.0
  9
$DIMDLI
 40
0.38
  9
$DIMRND
 40
0.0
  9
$DIMDLE
 40
0.0
  9
$DIMEXE
 40
2.0
  9
$DIMTP
 40
0.0
  9
$DIMTM
 40
0.0
  9
$DIMTXT
 40
3.2000000000000002
  9
$DIMCEN
 40
0.0
  9
$DIMTSZ
 40
0.0
  9
$DIMTOL
 70
     0
  9
$DIMLIM
 70
     0
  9
$DIMTIH
 70
     0
  9
$DIMTOH
 70
     0
  9
$DIMSE1
 70
     0
  9
$DIMSE2
 70
     0
  9
$DIMTAD
 70
     1
  9
$DIMZIN
 70
     0
  9
$DIMBLK
  1

  9
$DIMASO
 70
     0
  9
$DIMSHO
 70
     0
  9
$DIMPOST
  1

  9
$DIMAPOST
  1

  9
$DIMALT
 70
     0
  9
$DIMALTD
 70
     2
  9
$DIMALTF
 40
25.399999999999999
  9
$DIMLFAC
 40
1.0
  9
$DIMTOFL
 70
     1
  9
$DIMTVP
 40
1.6000000000000001
  9
$DIMTIX
 70
     1
  9
$DIMSOXD
 70
     0
  9
$DIMSAH
 70
     0
  9
$DIMBLK1
  1

  9
$DIMBLK2
  1

  9
$DIMSTYLE
  2
STANDARD
  9
$DIMCLRD
 70
   256
  9
$DIMCLRE
 70
   256
  9
$DIMCLRT
 70
   256
  9
$DIMTFAC
 40
1.0
  9
$DIMGAP
 40
0.09
  9
$LUNITS
 70
     2
  9
$LUPREC
 70
     1
  9
$SKETCHINC
 40
0.1
  9
$FILLETRAD
 40
0.0
  9
$AUNITS
 70
     0
  9
$AUPREC
 70
     1
  9
$MENU
  1
E:\r13\win\SUPPORT\ACAD
  9
$ELEVATION
 40
0.0
  9
$PELEVATION
 40
0.0
  9
$THICKNESS
 40
0.0
  9
$LIMCHECK
 70
     0
  9
$BLIPMODE
 70
     0
  9
$CHAMFERA
 40
0.0
  9
$CHAMFERB
 40
0.0
  9
$SKPOLY
 70
     0
  9
$TDCREATE
 40
2449839.7732986109
  9
$TDUPDATE
 40
2459941.5704763769
  9
$TDINDWG
 40
0.1877527894
  9
$TDUSRTIMER
 40
0.1877527894
  9
$USRTIMER
 70
     1
  9
$ANGBASE
 50
0.0
  9
$ANGDIR
 70
     0
  9
$PDMODE
 70
     0
  9
$PDSIZE
 40
0.0
  9
$PLINEWID
 40
0.0
  9
$COORDS
 70
     1
  9
$SPLFRAME
 70
     0
  9
$SPLINETYPE
 70
     6
  9
$SPLINESEGS
 70
     8
  9
$ATTDIA
 70
     0
  9
$ATTREQ
 70
     1
  9
$HANDLING
 70
     1
  9
$HANDSEED
  5
7A89
  9
$SURFTAB1
 70
     6
  9
$SURFTAB2
 70
     6
  9
$SURFTYPE
 70
     6
  9
$SURFU
 70
     6
  9
$SURFV
 70
     6
  9
$UCSNAME
  2

  9
$UCSORG
 10
0.0
 20
0.0
 30
0.0
  9
$UCSXDIR
 10
1.0
 20
0.0
 30
0.0
  9
$UCSYDIR
 10
0.0
 20
1.0
 30
0.0
  9
$PUCSNAME
  2

  9
$PUCSORG
 10
0.0
 20
0.0
 30
0.0
  9
$PUCSXDIR
 10
1.0
 20
0.0
 30
0.0
  9
$PUCSYDIR
 10
0.0
 20
1.0
 30
0.0
  9
$USERI1
 70
     0
  9
$USERI2
 70
     1
  9
$USERI3
 70
     1
  9
$USERI4
 70
     0
  9
$USERI5
 70
     0
  9
$USERR1
 40
0.0
  9
$USERR2
 40
0.0
  9
$USERR3
 40
0.0
  9
$USERR4
 40
0.0
  9
$USERR5
 40
0.0
  9
$WORLDVIEW
 70
     1
  9
$SHADEDGE
 70
     3
  9
$SHADEDIF
 70
    70
  9
$TILEMODE
 70
     1
  9
$MAXACTVP
 70
    16
  9
$PLIMCHECK
 70
     0
  9
$PEXTMIN
 10
1.0000000000000000E+020
 20
1.0000000000000000E+020
 30
1.0000000000000000E+020
  9
$PEXTMAX
 10
-1.0000000000000000E+020
 20
-1.0000000000000000E+020
 30
-1.0000000000000000E+020
  9
$PLIMMIN
 10
0.0
 20
0.0
  9
$PLIMMAX
 10
12.0
 20
9.0
  9
$UNITMODE
 70
     0
  9
$VISRETAIN
 70
     0
  9
$PLINEGEN
 70
     0
  9
$PSLTSCALE
 70
     0
  0
ENDSEC
  0
SECTION
  2
TABLES
  0
TABLE
  2
VPORT
 70
     1
  0
VPORT
  2
*ACTIVE
 70
     0
 10
0.0
 20
0.0
 11
1.0
 21
1.0
 12
284.70552884615392
 22
125.0
 13
0.0
 23
0.0
 14
5.0
 24
5.0
 15
5.0
 25
5.0
 16
0.0
 26
0.0
 36
1.0
 17
0.0
 27
0.0
 37
0.0
 40
250.0
 41
2.2776442307692299
 42
50.0
 43
0.0
 44
0.0
 50
0.0
 51
0.0
 71
     0
 72
   500
 73
     1
 74
     0
 75
     0
 76
     0
 77
     0
 78
     2
  0
ENDTAB
  0
TABLE
  2
LTYPE
 70
     3
  0
LTYPE
  2
CONTINUOUS
 70
     0
  3
Solid Line
 72
    65
 73
     0
 40
0.0
  0
LTYPE
  2
CENTER
 70
     0
  3
____ _ ____ _ ____ _ ____ _ ____ _ ____ _ ____
 72
    65
 73
     4
 40
2.0
 49
1.25
 49
-0.25
 49
0.25
 49
-0.25
  0
LTYPE
  2
PHANTOM2
 70
     0
  3
___ _ _ ___ _ _ ___ _ _ ___ _ _
 72
    65
 73
     6
 40
1.25
 49
0.625
 49
-0.125
 49
0.125
 49
-0.125
 49
0.125
 49
-0.125
  0
ENDTAB
  0
TABLE
  2
LAYER
 70
     4
  0
LAYER
  2
0
 70
     0
 62
     7
  6
CONTINUOUS
  0
LAYER
  2
1
 70
     0
 62
     1
  6
CENTER
  0
LAYER
  2
3
 70
     0
 62
     3
  6
CONTINUOUS
  0
LAYER
  2
DEFPOINTS
 70
     0
 62
     7
  6
CONTINUOUS
  0
ENDTAB
  0
TABLE
  2
STYLE
 70
     2
  0
STYLE
  2
STANDARD
 70
     0
 40
0.0
 41
1.0
 50
0.0
 71
     0
 42
0.2
  3
TXT
  4
BIGFONT
  0
STYLE
  2
STANDARD1
 70
     0
 40
0.0
 41
1.0
 50
0.0
 71
     0
 42
3.0
  3
txt
  4

  0
ENDTAB
  0
TABLE
  2
VIEW
 70
     1
  0
VIEW
  2
ALL
 70
     0
 40
270.0
 10
220.99159663865549
 20
135.0
 41
0.0
 11
0.0
 21
0.0
 31
1.0
 12
0.0
 22
0.0
 32
0.0
 42
0.0
 43
0.0
 44
0.0
 50
0.0
 71
     0
  0
ENDTAB
  0
TABLE
  2
UCS
 70
     0
  0
ENDTAB
  0
TABLE
  2
APPID
 70
     7
  0
APPID
  2
ACAD
 70
     0
  0
APPID
  2
ACAD_MLEADERVER
 70
     0
  0
APPID
  2
ACAD_NAV_VCDISPLAY
 70
     0
  0
APPID
  2
ACAD_EXEMPT_FROM_CAD_STANDARDS
 70
     0
  0
APPID
  2
ACAD_DSTYLE_DIMJAG
 70
     0
  0
APPID
  2
ACAD_DSTYLE_DIMTALN
 70
     0
  0
APPID
  2
ACAD_PSEXT
 70
     0
  0
ENDTAB
  0
TABLE
  2
DIMSTYLE
 70
     1
  0
DIMSTYLE
  2
STANDARD
 70
     0
  3

  4

  5

  6

  7

 40
1.0
 41
0.18
 42
0.0625
 43
0.38
 44
0.18
 45
0.0
 46
0.0
 47
0.0
 48
0.0
140
0.18
141
0.09
142
0.0
143
25.399999999999999
144
1.0
145
0.0
146
1.0
147
0.09
 71
     0
 72
     0
 73
     1
 74
     1
 75
     0
 76
     0
 77
     0
 78
     0
170
     0
171
     2
172
     0
173
     0
174
     0
175
     0
176
     0
177
     0
178
     0
  0
ENDTAB
  0
ENDSEC
  0
SECTION
  2
BLOCKS
  0
BLOCK
  8
0
  2
$MODEL_SPACE
 70
     0
 10
0.0
 20
0.0
 30
0.0
  3
$MODEL_SPACE
  1

  0
ENDBLK
  5
1D4
  8
0
  0
BLOCK
 67
     1
  8
0
  2
$PAPER_SPACE
 70
     0
 10
0.0
 20
0.0
 30
0.0
  3
$PAPER_SPACE
  1

  0
ENDBLK
  5
1D2
 67
     1
  8
0
  0
ENDSEC
  0
SECTION
  2
ENTITIES
  0
LINE
  5
41D8
  8
0
 10
125.3046773364741
 20
51.385354373505628
 30
0.0
 11
125.3046773364741
 21
26.9853548443823
 31
0.0
  0
LINE
  5
41DA
  8
0
 10
121.2850622124942
 20
51.685354795208468
 30
0.0
 11
121.2850622124943
 21
26.685354422679438
 31
0.0
  0
LINE
  5
41DC
  8
0
 10
124.7850620876971
 20
51.685354795208468
 30
0.0
 11
124.7850620876971
 21
26.685354422679438
 31
0.0
  0
LINE
  5
41DE
  8
0
 10
160.78506123646829
 20
50.358786803723831
 30
0.0
 11
160.78506123646829
 21
28.013781767240062
 31
0.0
  0
LINE
  5
421E
  8
0
 10
135.40141463651989
 20
34.115828696539893
 30
0.0
 11
135.40141463651989
 21
20.56657348935892
 31
0.0
  0
LINE
  5
421F
  8
0
 10
135.40141463651989
 20
57.804135728528991
 30
0.0
 11
135.40141463651989
 21
44.254880521348007
 31
0.0
  0
LINE
  5
4220
  8
0
 10
127.352367550132
 20
33.807819832017913
 30
0.0
 11
135.40141463651989
 21
34.115828696539893
 31
0.0
  0
LINE
  5
4221
  8
0
 10
135.40141463651989
 20
34.115828696539893
 30
0.0
 11
135.2850617133054
 21
35.887328332191601
 31
0.0
  0
LINE
  5
4222
  8
0
 10
135.2850617133054
 20
42.483380885696313
 30
0.0
 11
135.40141463651989
 21
44.254880521348007
 31
0.0
  0
LINE
  5
4223
  8
0
 10
127.352367550132
 20
44.562889385869987
 30
0.0
 11
135.40141463651989
 21
44.254880521348007
 31
0.0
  0
LINE
  5
4224
  8
0
 10
128.06390451639629
 20
42.716432252800359
 30
0.0
 11
135.2850617133054
 21
42.483380885696313
 31
0.0
  0
LINE
  5
4225
  8
0
 10
135.2850617133054
 20
35.887328332191601
 30
0.0
 11
128.06390451639629
 21
35.654276965087547
 31
0.0
  0
LINE
  5
4226
  8
0
 10
135.2850617133054
 20
42.483380885696313
 30
0.0
 11
135.2850617133054
 21
35.887328332191601
 31
0.0
  0
LINE
  5
4227
  8
0
 10
128.06390451639629
 20
35.654276965087547
 30
0.0
 11
128.06390451639629
 21
42.716432252800359
 31
0.0
  0
ARC
  5
4228
  8
0
 10
130.33251510854981
 20
44.650971990394787
 30
0.0
 40
2.9814489791313039
 50
181.6929674012321
 51
220.4556237973774
  0
LINE
  5
4229
  8
0
 10
127.352367550132
 20
58.835354608943959
 30
0.0
 11
127.352367550132
 21
44.562889385869987
 31
0.0
  0
LINE
  5
422A
  8
0
 10
127.352367550132
 20
33.807819832017913
 30
0.0
 11
127.352367550132
 21
19.535354608943969
 31
0.0
  0
ARC
  5
422B
  8
0
 10
130.40528510503779
 20
33.691695123721018
 30
0.0
 40
3.0551252911997828
 50
140.0297347886916
 51
177.82167401269211
  0
LINE
  5
422C
  8
0
 10
126.2850621007357
 20
58.835354608943959
 30
0.0
 11
126.2850621007356
 21
19.535354608943969
 31
0.0
  0
LINE
  5
4232
  8
0
 10
125.3046773364741
 20
26.9853548443823
 30
0.0
 11
126.2850621007358
 21
26.9853548443823
 31
0.0
  0
LINE
  5
4233
  8
0
 10
126.2850621007358
 20
51.385354373505614
 30
0.0
 11
125.3046773364741
 21
51.385354373505614
 31
0.0
  0
LINE
  5
4234
  8
0
 10
125.3046773364741
 20
51.385354373505614
 30
0.0
 11
124.7850620876971
 21
51.685354795208468
 31
0.0
  0
LINE
  5
4235
  8
0
 10
124.7850620876971
 20
26.685354422679438
 30
0.0
 11
125.3046773364741
 21
26.9853548443823
 31
0.0
  0
LINE
  5
4236
  8
0
 10
121.2850622124943
 20
26.685354422679438
 30
0.0
 11
124.7850620876971
 21
26.685354422679438
 31
0.0
  0
LINE
  5
4237
  8
0
 10
124.7850620876971
 20
51.685354795208468
 30
0.0
 11
121.2850622124943
 21
51.685354795208468
 31
0.0
  0
ARC
  5
4238
  8
0
 10
158.78506210073579
 20
28.013781733690141
 30
0.0
 40
2.0
 50
315.0000000000046
 51
0.0
  0
ARC
  5
4239
  8
0
 10
158.78506210073579
 20
50.356927484197683
 30
0.0
 40
2.0
 50
0.0
 51
45.00000000000464
  0
LINE
  5
423B
  8
0
 10
140.43440850002949
 20
25.185354608943872
 30
0.0
 11
148.56902409717179
 21
25.185354176810279
 31
0.0
  0
LINE
  5
423C
  8
0
 10
148.56902409717179
 20
53.185355041077628
 30
0.0
 11
140.43440821127649
 21
53.185354608943889
 31
0.0
  0
ARC
  5
423E
  8
0
 10
140.43440815078719
 20
24.185354608943928
 30
0.0
 40
1.000000000000004
 50
90.0
 51
135.0000000000046
  0
ARC
  5
423F
  8
0
 10
140.43440815078719
 20
54.185354608943889
 30
0.0
 40
1.0000000000000031
 50
224.9999999999954
 51
270.0
  0
ARC
  5
4240
  8
0
 10
148.5690238067925
 20
24.185354608943928
 30
0.0
 40
1.0000000000000051
 50
14.999999999994429
 51
90.0
  0
ARC
  5
4241
  8
0
 10
148.5690238067925
 20
54.185354608943889
 30
0.0
 40
1.0
 50
270.0
 51
345.00000000000563
  0
LINE
  5
4242
  8
0
 10
160.1992742381963
 20
51.771140780201449
 30
0.0
 11
155.9537788145218
 21
56.016638997843764
 31
0.0
  0
LINE
  5
4243
  8
0
 10
155.9537788145218
 20
22.35407022004415
 30
0.0
 11
160.1992742381963
 21
26.599568437686461
 31
0.0
  0
LINE
  5
4244
  8
0
 10
149.5349490307245
 20
24.44417321299602
 30
0.0
 11
150.30139398202039
 21
21.58376028006364
 31
0.0
  0
LINE
  5
4245
  8
0
 10
150.30139398202039
 20
56.786948937824263
 30
0.0
 11
149.5349490307245
 21
53.926536004891886
 31
0.0
  0
ARC
  5
4246
  8
0
 10
153.12535107597969
 20
25.18249783368034
 30
0.0
 40
4.0000000000000027
 50
274.99999999999949
 51
315.0000000000046
  0
ARC
  5
4247
  8
0
 10
153.12535107597969
 20
53.188211384207591
 30
0.0
 40
4.0
 50
45.00000000000464
 51
85.000000000000583
  0
LINE
  5
4248
  8
0
 10
153.4739741347704
 20
57.172989595582983
 30
0.0
 11
151.14386093243689
 21
57.376848656585707
 31
0.0
  0
LINE
  5
4249
  8
0
 10
151.14386093243689
 20
20.993860561302199
 30
0.0
 11
153.4739741347704
 21
21.19771962230493
 31
0.0
  0
ARC
  5
424A
  8
0
 10
151.07413555140511
 20
21.790816248692948
 30
0.0
 40
0.7999999999999992
 50
194.9999999999944
 51
274.99999999999949
  0
ARC
  5
424B
  8
0
 10
151.07413555140511
 20
56.579892969194873
 30
0.0
 40
0.7999999999999992
 50
85.000000000000583
 51
165.00000000000551
  0
LINE
  5
424C
  8
0
 10
139.72730182483531
 20
53.478247608891017
 30
0.0
 11
135.40141463651989
 21
57.804135728528991
 31
0.0
  0
LINE
  5
424D
  8
0
 10
135.40141463651989
 20
20.56657348935892
 30
0.0
 11
139.72730182483531
 21
24.892461608996879
 31
0.0
  0
LINE
  5
424E
  8
0
 10
127.352367550132
 20
19.535354608943969
 30
0.0
 11
135.40141463651989
 21
20.56657348935892
 31
0.0
  0
LINE
  5
424F
  8
0
 10
135.40141463651989
 20
57.804135728528991
 30
0.0
 11
127.352367550132
 21
58.835354608943959
 31
0.0
  0
LINE
  5
4250
  8
0
 10
126.2850621007356
 20
19.535354608943969
 30
0.0
 11
127.352367550132
 21
19.535354608943969
 31
0.0
  0
LINE
  5
4251
  8
0
 10
127.352367550132
 20
58.835354608943959
 30
0.0
 11
126.2850621007356
 21
58.835354608943959
 31
0.0
  0
LINE
  5
4439
  8
0
 10
128.06390451639629
 20
89.439413819363594
 30
0.0
 11
135.2850617133054
 21
90.441226337006569
 31
0.0
  0
LINE
  5
443A
  8
0
 10
135.2850617133054
 20
127.3779210931568
 30
0.0
 11
128.06390451639629
 21
128.3671328163652
 31
0.0
  0
LINE
  5
443B
  8
0
 10
121.2850622124943
 20
121.4353557041793
 30
0.0
 11
121.2850622124943
 21
96.435355331650285
 31
0.0
  0
LINE
  5
443C
  8
0
 10
124.7850620876971
 20
121.4353557041793
 30
0.0
 11
124.7850620876971
 21
96.435355331650285
 31
0.0
  0
LINE
  5
443D
  8
0
 10
125.3046773364741
 20
121.1353552824764
 30
0.0
 11
125.3046773364741
 21
96.735355753353133
 31
0.0
  0
LINE
  5
443E
  8
0
 10
160.78506123646829
 20
120.10692835961861
 30
0.0
 11
160.78506123646829
 21
97.763782676210894
 31
0.0
  0
LINE
  5
4569
  8
0
 10
135.2850617133054
 20
127.6704886293916
 30
0.0
 11
135.2850617133054
 21
127.3779210931568
 31
0.0
  0
LINE
  5
456A
  8
0
 10
135.40141463651989
 20
126.8506807572155
 30
0.0
 11
135.2850617133054
 21
127.3779210931568
 31
0.0
  0
LINE
  5
456B
  8
0
 10
135.2850617133054
 20
90.441226337006569
 30
0.0
 11
135.40141463651989
 21
90.556082624843597
 31
0.0
  0
LINE
  5
456C
  8
0
 10
135.2850617133054
 20
90.441226337006569
 30
0.0
 11
135.2850617133054
 21
90.200222406437874
 31
0.0
  0
LINE
  5
456D
  8
0
 10
128.06390451639629
 20
128.3671328163652
 30
0.0
 11
128.06390451639621
 21
128.58535551791471
 31
0.0
  0
LINE
  5
456E
  8
0
 10
128.06390451639629
 20
89.285355517914809
 30
0.0
 11
128.06390451639629
 21
89.439413819363594
 31
0.0
  0
LINE
  5
456F
  8
0
 10
128.06390451639629
 20
89.439413819363594
 30
0.0
 11
127.352367550132
 21
89.439413819363594
 31
0.0
  0
POLYLINE
  5
4570
  8
0
 66
     1
 10
0.0
 20
0.0
 30
0.0
 70
   128
  0
VERTEX
  5
7A4A
  8
0
 10
127.352367550132
 20
127.939160291007
 30
0.0
  0
VERTEX
  5
7A4B
  8
0
 10
127.3919061515454
 20
128.05593510334779
 30
0.0
  0
VERTEX
  5
7A4C
  8
0
 10
127.5105770202327
 20
128.16297573213859
 30
0.0
  0
VERTEX
  5
7A4D
  8
0
 10
127.7457122215975
 20
128.2742371148376
 30
0.0
  0
VERTEX
  5
7A4E
  8
0
 10
128.06390451639629
 20
128.3671328163652
 30
0.0
  0
SEQEND
  5
7A4F
  8
0
  0
LINE
  5
4571
  8
0
 10
126.2850621007357
 20
128.58535551791479
 30
0.0
 11
126.2850621007356
 21
89.285355517914795
 31
0.0
  0
LINE
  5
4572
  8
0
 10
127.352367550132
 20
89.439413819363594
 30
0.0
 11
135.40141463651989
 21
90.556082624843597
 31
0.0
  0
LINE
  5
4573
  8
0
 10
135.40141463651989
 20
126.8506807572155
 30
0.0
 11
135.40141463651989
 21
90.556082624843597
 31
0.0
  0
LINE
  5
4574
  8
0
 10
127.352367550132
 20
127.939160291007
 30
0.0
 11
135.40141463651989
 21
126.8506807572155
 31
0.0
  0
LINE
  5
4575
  8
0
 10
127.352367550132
 20
127.939160291007
 30
0.0
 11
127.352367550132
 21
89.439413819363594
 31
0.0
  0
LINE
  5
4576
  8
0
 10
128.06390451639629
 20
89.285355517914809
 30
0.0
 11
135.2850617133054
 21
90.200222406437874
 31
0.0
  0
LINE
  5
4577
  8
0
 10
135.2850617133054
 20
127.6704886293916
 30
0.0
 11
128.06390451639621
 21
128.58535551791471
 31
0.0
  0
LINE
  5
4578
  8
0
 10
125.3046773364741
 20
96.735355753353133
 30
0.0
 11
126.2850621007356
 21
96.735355753353133
 31
0.0
  0
LINE
  5
4579
  8
0
 10
126.2850621007356
 20
121.1353552824764
 30
0.0
 11
125.3046773364741
 21
121.1353552824764
 31
0.0
  0
LINE
  5
457A
  8
0
 10
121.2850622124943
 20
96.435355331650285
 30
0.0
 11
124.7850620876971
 21
96.435355331650285
 31
0.0
  0
LINE
  5
457B
  8
0
 10
124.7850620876971
 20
121.4353557041793
 30
0.0
 11
121.2850622124943
 21
121.4353557041793
 31
0.0
  0
LINE
  5
457C
  8
0
 10
125.3046773364741
 20
121.1353552824764
 30
0.0
 11
124.7850620876971
 21
121.4353557041793
 31
0.0
  0
LINE
  5
457D
  8
0
 10
124.7850620876971
 20
96.435355331650285
 30
0.0
 11
125.3046773364741
 21
96.735355753353133
 31
0.0
  0
ARC
  5
457E
  8
0
 10
158.78506210073579
 20
97.763782642660956
 30
0.0
 40
2.0
 50
315.0000000000046
 51
0.0
  0
ARC
  5
457F
  8
0
 10
158.78506210073579
 20
120.1069283931685
 30
0.0
 40
2.0
 50
0.0
 51
45.00000000000464
  0
LINE
  5
4580
  8
0
 10
140.43440848961211
 20
94.935355085781097
 30
0.0
 11
148.56902409717179
 21
94.935355085781097
 31
0.0
  0
LINE
  5
4581
  8
0
 10
148.56902409717179
 20
122.9353559500484
 30
0.0
 11
140.43440848961211
 21
122.9353559500484
 31
0.0
  0
ARC
  5
4582
  8
0
 10
140.43440815078719
 20
93.935355517914743
 30
0.0
 40
1.0000000000000031
 50
90.0
 51
135.0000000000046
  0
ARC
  5
4583
  8
0
 10
140.43440815078719
 20
123.9353555179147
 30
0.0
 40
1.0
 50
225.0000000000046
 51
270.0
  0
ARC
  5
4584
  8
0
 10
148.5690238067925
 20
93.935355517914743
 30
0.0
 40
1.0
 50
14.999999999994429
 51
90.0
  0
ARC
  5
4585
  8
0
 10
148.5690238067925
 20
123.9353555179147
 30
0.0
 40
1.0
 50
270.0
 51
345.00000000000563
  0
LINE
  5
4586
  8
0
 10
160.1992742381963
 20
121.5211416891722
 30
0.0
 11
155.9537788145218
 21
125.7666399068146
 31
0.0
  0
LINE
  5
4587
  8
0
 10
155.9537788145218
 20
92.104071129014969
 30
0.0
 11
160.1992742381963
 21
96.349569346657304
 31
0.0
  0
LINE
  5
4588
  8
0
 10
149.5349490307245
 20
94.194174121966839
 30
0.0
 11
150.30139398202039
 21
91.333761189034476
 31
0.0
  0
LINE
  5
4589
  8
0
 10
150.30139398202039
 20
126.5369498467951
 30
0.0
 11
149.5349490307245
 21
123.67653691386271
 31
0.0
  0
ARC
  5
458A
  8
0
 10
153.12535107597969
 20
94.932498742651148
 30
0.0
 40
4.0000000000000124
 50
274.99999999999949
 51
315.0000000000046
  0
ARC
  5
458B
  8
0
 10
153.12535107597969
 20
122.9382122931783
 30
0.0
 40
3.999999999999992
 50
45.00000000000464
 51
85.000000000000583
  0
LINE
  5
458C
  8
0
 10
153.4739741347704
 20
126.92299050455379
 30
0.0
 11
151.14386093243689
 21
127.1268495655565
 31
0.0
  0
LINE
  5
458D
  8
0
 10
151.14386093243689
 20
90.743861470273018
 30
0.0
 11
153.4739741347704
 21
90.947720531275749
 31
0.0
  0
ARC
  5
458E
  8
0
 10
151.07413555140511
 20
91.540817157663639
 30
0.0
 40
0.7999999999999992
 50
194.9999999999944
 51
274.99999999999949
  0
ARC
  5
458F
  8
0
 10
151.07413555140511
 20
126.32989387816561
 30
0.0
 40
0.8000000000000062
 50
85.000000000000583
 51
165.00000000000551
  0
LINE
  5
4590
  8
0
 10
139.72730182483531
 20
123.2282485178618
 30
0.0
 11
135.2850617133054
 21
127.6704886293916
 31
0.0
  0
LINE
  5
4591
  8
0
 10
135.2850617133054
 20
90.200222406437874
 30
0.0
 11
139.72730182483531
 21
94.642462517967715
 31
0.0
  0
LINE
  5
4592
  8
0
 10
126.2850621007356
 20
89.285355517914809
 30
0.0
 11
128.06390451639629
 21
89.285355517914809
 31
0.0
  0
LINE
  5
4593
  8
0
 10
128.06390451639629
 20
128.58535551791479
 30
0.0
 11
126.2850621007356
 21
128.58535551791479
 31
0.0
  0
LINE
  5
71A5
  8
1
 10
51.535062212494381
 20
133.58535551791479
 30
0.0
 11
51.535062212494381
 21
84.285355517914809
 31
0.0
  0
LINE
  5
71A6
  8
1
 10
26.88506221249439
 20
108.9353555179148
 30
0.0
 11
76.185062212494387
 21
108.9353555179148
 31
0.0
  0
CIRCLE
  5
71A7
  8
3
 10
51.535062212494381
 20
108.9353555179148
 30
0.0
 40
4.188000000000101
  0
CIRCLE
  5
71A8
  8
0
 10
51.535062212494381
 20
108.9353555179148
 30
0.0
 40
5.0000000000000284
  0
CIRCLE
  5
71A9
  8
0
 10
51.535062212494381
 20
108.9353555179148
 30
0.0
 40
12.5
  0
ARC
  5
71AC
  8
0
 10
51.535062212494381
 20
108.9353555179148
 30
0.0
 40
16.0
 50
185.55270136881509
 51
174.44729863118499
  0
ARC
  5
71AD
  8
0
 10
51.535062212494381
 20
108.9353555179148
 30
0.0
 40
15.13397459621555
 50
184.73456894281611
 51
175.26543105718389
  0
LINE
  5
7225
  8
0
 10
148.56902423055371
 20
53.185355041077599
 30
0.0
 11
148.56902423055371
 21
25.18535417681025
 31
0.0
  0
LINE
  5
7226
  8
0
 10
150.30139398202039
 20
56.786948937824242
 30
0.0
 11
150.30139398202039
 21
21.583760280063618
 31
0.0
  0
LINE
  5
7227
  8
0
 10
153.4739741347704
 20
57.172989595582948
 30
0.0
 11
153.4739741347704
 21
21.197719622304898
 31
0.0
  0
LINE
  5
7228
  8
0
 10
140.43440821127649
 20
53.185354608943889
 30
0.0
 11
140.43440821127649
 21
25.185353744676551
 31
0.0
  0
LINE
  5
7229
  8
0
 10
148.56902423055371
 20
122.9353559500484
 30
0.0
 11
148.56902423055371
 21
94.935355085781083
 31
0.0
  0
LINE
  5
722A
  8
0
 10
150.30139398202039
 20
126.536949846795
 30
0.0
 11
150.30139398202039
 21
91.333761189034448
 31
0.0
  0
LINE
  5
722B
  8
0
 10
153.4739741347704
 20
126.92299050455379
 30
0.0
 11
153.4739741347704
 21
90.947720531275735
 31
0.0
  0
LINE
  5
722C
  8
0
 10
140.43440848961211
 20
122.9353559500484
 30
0.0
 11
140.43440848961211
 21
94.935355085781097
 31
0.0
  0
LINE
  5
722D
  8
1
 10
101.2850612364676
 20
39.185354608943953
 30
0.0
 11
166.28506123646829
 21
39.185354608943982
 31
0.0
  0
LINE
  5
722E
  8
1
 10
101.28506123646829
 20
108.9353555179148
 30
0.0
 11
166.28506123646829
 21
108.9353555179148
 31
0.0
  0
TEXT
  5
7604
  8
0
 62
     3
 10
0.0
 20
0.0
 30
0.0
 40
10.0
  1
APS140-M12B
  7
STANDARD1
  0
CIRCLE
  5
7671
  8
0
 10
51.535062212494381
 20
108.9353555179148
 30
0.0
 40
19.649999999999999
  0
LINE
  5
768B
  8
0
 10
107.7850612364682
 20
103.9353555179148
 30
0.0
 11
107.78506123646839
 21
113.9353555179148
 31
0.0
  0
LINE
  5
768C
  8
0
 10
106.28506123646829
 20
112.4353555179148
 30
0.0
 11
107.78506123646839
 21
113.9353555179148
 31
0.0
  0
LINE
  5
768D
  8
0
 10
107.78506123646829
 20
103.9353555179148
 30
0.0
 11
106.28506123646829
 21
105.4353555179148
 31
0.0
  0
LINE
  5
768E
  8
0
 10
121.2850622124943
 20
103.9353555179148
 30
0.0
 11
107.78506123646829
 21
103.9353555179148
 31
0.0
  0
LINE
  5
768F
  8
3
 10
121.2850622124943
 20
104.7473555179147
 30
0.0
 11
106.9730612364684
 21
104.7473555179147
 31
0.0
  0
LINE
  5
7690
  8
3
 10
121.2850622124943
 20
113.1233555179149
 30
0.0
 11
106.9730612364684
 21
113.1233555179149
 31
0.0
  0
LINE
  5
7691
  8
0
 10
121.2850622124943
 20
113.9353555179148
 30
0.0
 11
107.78506123646839
 21
113.9353555179148
 31
0.0
  0
LINE
  5
7692
  8
0
 10
106.28506123646829
 20
105.4353555179148
 30
0.0
 11
106.28506123646829
 21
112.4353555179148
 31
0.0
  0
LINE
  5
7693
  8
0
 10
160.78506123646829
 20
116.762150437158
 30
0.0
 11
161.28506123646829
 21
115.89612503337349
 31
0.0
  0
LINE
  5
7694
  8
0
 10
160.78506123646829
 20
101.1085605986717
 30
0.0
 11
161.28506123646829
 21
101.97458600245611
 31
0.0
  0
LINE
  5
7695
  8
0
 10
161.28506123646829
 20
115.89612503337349
 30
0.0
 11
161.28506123646829
 21
101.97458600245611
 31
0.0
  0
LINE
  5
76A7
  8
0
 10
107.7850612364682
 20
34.186284285481968
 30
0.0
 11
107.78506123646839
 21
44.18628428548196
 31
0.0
  0
LINE
  5
76A8
  8
0
 10
106.28506123646829
 20
42.686284285481982
 30
0.0
 11
107.78506123646839
 21
44.186284285481982
 31
0.0
  0
LINE
  5
76A9
  8
0
 10
107.78506123646829
 20
34.186284285481982
 30
0.0
 11
106.28506123646829
 21
35.686284285481982
 31
0.0
  0
LINE
  5
76AA
  8
0
 10
121.2850622124943
 20
34.186284285481982
 30
0.0
 11
107.78506123646829
 21
34.186284285481982
 31
0.0
  0
LINE
  5
76AB
  8
3
 10
121.2850622124943
 20
34.99828428548188
 30
0.0
 11
106.9730612364684
 21
34.99828428548188
 31
0.0
  0
LINE
  5
76AC
  8
3
 10
121.2850622124943
 20
43.374284285482048
 30
0.0
 11
106.9730612364684
 21
43.374284285482048
 31
0.0
  0
LINE
  5
76AD
  8
0
 10
121.2850622124943
 20
44.186284285481982
 30
0.0
 11
107.78506123646839
 21
44.186284285481982
 31
0.0
  0
LINE
  5
76AE
  8
0
 10
106.28506123646829
 20
35.686284285481982
 30
0.0
 11
106.28506123646829
 21
42.686284285481982
 31
0.0
  0
LINE
  5
76AF
  8
0
 10
160.78506123646829
 20
47.013079204725138
 30
0.0
 11
161.28506123646829
 21
46.147053800940661
 31
0.0
  0
LINE
  5
76B0
  8
0
 10
160.78506123646829
 20
31.359489366238829
 30
0.0
 11
161.28506123646829
 21
32.225514770023231
 31
0.0
  0
LINE
  5
76B1
  8
0
 10
161.28506123646829
 20
46.147053800940661
 30
0.0
 11
161.28506123646829
 21
32.225514770023231
 31
0.0
  0
CIRCLE
  5
76C5
  8
0
 10
51.535062212494381
 20
108.9353555179148
 30
0.0
 40
5.1250000000000062
  0
CIRCLE
  5
76C6
  8
3
 10
51.535062212494381
 20
108.9353555179148
 30
0.0
 40
6.0000000521540917
  0
CIRCLE
  5
7717
  8
0
 10
51.535062212494381
 20
108.9353555179148
 30
0.0
 40
6.499999999999992
  0
CIRCLE
  5
7859
  8
0
 10
216.03506026044229
 20
108.9353555179148
 30
0.0
 40
18.1914941187244
  0
CIRCLE
  5
785B
  8
0
 10
216.03506026044229
 20
108.9353555179148
 30
0.0
 40
19.64999999999997
  0
CIRCLE
  5
785C
  8
0
 10
216.03506026044229
 20
108.9353555179148
 30
0.0
 40
11.17157284170389
  0
LINE
  5
785D
  8
1
 10
240.68506026044221
 20
108.9353555179148
 30
0.0
 11
191.38506026044229
 21
108.9353555179148
 31
0.0
  0
LINE
  5
785E
  8
1
 10
216.03506026044229
 20
133.58535551791471
 30
0.0
 11
216.03506026044229
 21
84.285355517914809
 31
0.0
  0
LINE
  5
785F
  8
0
 10
212.03506026044269
 20
106.62595444115659
 30
0.0
 11
216.03506026044269
 21
104.316553364398
 31
0.0
  0
LINE
  5
7860
  8
0
 10
216.03506026044269
 20
104.316553364398
 30
0.0
 11
220.03506026044229
 21
106.62595444115659
 31
0.0
  0
LINE
  5
7861
  8
0
 10
220.03506026044229
 20
106.62595444115659
 30
0.0
 11
220.03506026044229
 21
111.2447565946743
 31
0.0
  0
LINE
  5
7862
  8
0
 10
220.03506026044229
 20
111.2447565946743
 30
0.0
 11
216.03506026044229
 21
113.55415767143199
 31
0.0
  0
LINE
  5
7863
  8
0
 10
216.03506026044229
 20
113.55415767143199
 30
0.0
 11
212.03506026044181
 21
111.24475659467289
 31
0.0
  0
LINE
  5
7864
  8
0
 10
212.03506026044181
 20
111.24475659467289
 30
0.0
 11
212.03506026044269
 21
106.62595444115659
 31
0.0
  0
CIRCLE
  5
7865
  8
0
 10
216.03506026044229
 20
108.9353555179148
 30
0.0
 40
8.0
  0
LINE
  5
786B
  8
0
 10
212.79730126447711
 20
128.31677434211059
 30
0.0
 11
212.99485387466589
 21
127.4221700913219
 31
0.0
  0
LINE
  5
786C
  8
0
 10
211.21616529902121
 20
126.91971620218369
 30
0.0
 11
210.94926600530479
 21
127.9157971329002
 31
0.0
  0
LINE
  5
786D
  8
0
 10
221.12085451557971
 20
127.9157971329002
 30
0.0
 11
220.85395522186329
 21
126.91971620218369
 31
0.0
  0
LINE
  5
786E
  8
0
 10
219.07526664621869
 20
127.4221700913219
 30
0.0
 11
219.27281925640739
 21
128.31677434211059
 31
0.0
  0
LINE
  5
786F
  8
0
 10
219.27281925640739
 20
89.553936693718924
 30
0.0
 11
219.07526664621869
 21
90.448540944507613
 31
0.0
  0
LINE
  5
7870
  8
0
 10
220.85395522186329
 20
90.950994833645836
 30
0.0
 11
221.12085451557971
 21
89.954913902929334
 31
0.0
  0
LINE
  5
7871
  8
0
 10
210.94926600530479
 20
89.954913902929334
 30
0.0
 11
211.21616529902121
 21
90.950994833645836
 31
0.0
  0
LINE
  5
7872
  8
0
 10
212.99485387466589
 20
90.448540944507613
 30
0.0
 11
212.79730126447711
 21
89.553936693718924
 31
0.0
  0
ARC
  5
78BB
  8
0
 10
216.03506026044229
 20
108.9353555179148
 30
0.0
 40
18.618780246597481
 50
285.00000000000119
 51
75.000000000000469
  0
LINE
  5
78BC
  8
0
 10
219.07526664621869
 20
90.448540944507599
 30
0.0
 11
220.8539551608238
 21
90.950995061448097
 31
0.0
  0
LINE
  5
78BF
  8
0
 10
220.8539551608238
 20
126.9197159743814
 30
0.0
 11
219.07526664621869
 21
127.4221700913219
 31
0.0
  0
LINE
  5
78C0
  8
0
 10
211.2161653600607
 20
90.950995061448097
 30
0.0
 11
212.99485387466589
 21
90.448540944507599
 31
0.0
  0
ARC
  5
78C1
  8
0
 10
216.03506026044229
 20
108.9353555179148
 30
0.0
 40
18.618780246597471
 50
104.9999999999995
 51
255.00000000000051
  0
LINE
  5
78C2
  8
0
 10
212.99485387466589
 20
127.4221700913219
 30
0.0
 11
211.2161653600607
 21
126.9197159743814
 31
0.0
  0
ARC
  5
78C3
  8
0
 10
216.03506026044229
 20
108.9353555179148
 30
0.0
 40
18.73513248767863
 50
80.661144934135095
 51
99.338854625785302
  0
ARC
  5
78C4
  8
0
 10
216.03506026044229
 20
108.9353555179148
 30
0.0
 40
18.735132487678548
 50
260.66114537421299
 51
279.33885506586489
  0
CIRCLE
  5
7927
  8
0
 10
216.03506026044229
 20
108.9353555179148
 30
0.0
 40
8.25
  0
LINE
  5
79CB
  8
1
 10
35.535062212494381
 20
112.4853555179148
 30
0.0
 11
35.535062212494381
 21
105.3853555179148
 31
0.0
  0
CIRCLE
  5
79D2
  8
0
 10
35.535062212494381
 20
108.9353555179148
 30
0.0
 40
1.55
  0
ENDSEC
  0
EOF
