  0
SECTION
  2
HEADER
  9
$ACADVER
  1
AC1009
  9
$INSBASE
 10
0.0
 20
0.0
 30
0.0
  9
$EXTMIN
 10
-0.0204638472032742
 20
-2.960436562073669
 30
0.0
  9
$EXTMAX
 10
221.55321483020811
 20
83.840265868195416
 30
0.0
  9
$LIMMIN
 10
0.0
 20
0.0
  9
$LIMMAX
 10
187.5
 20
135.0
  9
$ORTHOMODE
 70
     1
  9
$REGENMODE
 70
     1
  9
$FILLMODE
 70
     1
  9
$QTEXTMODE
 70
     0
  9
$MIRRTEXT
 70
     0
  9
$DRAGMODE
 70
     2
  9
$LTSCALE
 40
5.0
  9
$OSMODE
 70
    37
  9
$ATTMODE
 70
     1
  9
$TEXTSIZE
 40
0.2
  9
$TRACEWID
 40
0.05
  9
$TEXTSTYLE
  7
STANDARD
  9
$CLAYER
  8
0
  9
$CELTYPE
  6
BYLAYER
  9
$CECOLOR
 62
   256
  9
$DIMSCALE
 40
0.5
  9
$DIMASZ
 40
3.0
  9
$DIMEXO
 40
2.0
  9
$DIMDLI
 40
0.38
  9
$DIMRND
 40
0.0
  9
$DIMDLE
 40
0.0
  9
$DIMEXE
 40
2.0
  9
$DIMTP
 40
0.0
  9
$DIMTM
 40
0.0
  9
$DIMTXT
 40
3.2000000000000002
  9
$DIMCEN
 40
0.0
  9
$DIMTSZ
 40
0.0
  9
$DIMTOL
 70
     0
  9
$DIMLIM
 70
     0
  9
$DIMTIH
 70
     0
  9
$DIMTOH
 70
     0
  9
$DIMSE1
 70
     0
  9
$DIMSE2
 70
     0
  9
$DIMTAD
 70
     1
  9
$DIMZIN
 70
     0
  9
$DIMBLK
  1

  9
$DIMASO
 70
     0
  9
$DIMSHO
 70
     0
  9
$DIMPOST
  1

  9
$DIMAPOST
  1

  9
$DIMALT
 70
     0
  9
$DIMALTD
 70
     2
  9
$DIMALTF
 40
25.399999999999999
  9
$DIMLFAC
 40
1.0
  9
$DIMTOFL
 70
     1
  9
$DIMTVP
 40
1.6000000000000001
  9
$DIMTIX
 70
     1
  9
$DIMSOXD
 70
     0
  9
$DIMSAH
 70
     0
  9
$DIMBLK1
  1

  9
$DIMBLK2
  1

  9
$DIMSTYLE
  2
STANDARD
  9
$DIMCLRD
 70
     0
  9
$DIMCLRE
 70
     0
  9
$DIMCLRT
 70
     0
  9
$DIMTFAC
 40
1.0
  9
$DIMGAP
 40
0.09
  9
$LUNITS
 70
     2
  9
$LUPREC
 70
     2
  9
$SKETCHINC
 40
0.1
  9
$FILLETRAD
 40
0.0
  9
$AUNITS
 70
     0
  9
$AUPREC
 70
     4
  9
$MENU
  1
E:\r13\win\SUPPORT\ACAD
  9
$ELEVATION
 40
0.0
  9
$PELEVATION
 40
0.0
  9
$THICKNESS
 40
0.0
  9
$LIMCHECK
 70
     0
  9
$BLIPMODE
 70
     0
  9
$CHAMFERA
 40
0.0
  9
$CHAMFERB
 40
0.0
  9
$SKPOLY
 70
     0
  9
$TDCREATE
 40
2449839.7732986109
  9
$TDUPDATE
 40
2457728.7205183338
  9
$TDINDWG
 40
0.23291
  9
$TDUSRTIMER
 40
2456598.398096771
  9
$USRTIMER
 70
     1
  9
$ANGBASE
 50
0.0
  9
$ANGDIR
 70
     0
  9
$PDMODE
 70
     0
  9
$PDSIZE
 40
0.0
  9
$PLINEWID
 40
0.0
  9
$COORDS
 70
     1
  9
$SPLFRAME
 70
     0
  9
$SPLINETYPE
 70
     6
  9
$SPLINESEGS
 70
     8
  9
$ATTDIA
 70
     0
  9
$ATTREQ
 70
     1
  9
$HANDLING
 70
     1
  9
$HANDSEED
  5
AFA7
  9
$SURFTAB1
 70
     6
  9
$SURFTAB2
 70
     6
  9
$SURFTYPE
 70
     6
  9
$SURFU
 70
     6
  9
$SURFV
 70
     6
  9
$UCSNAME
  2

  9
$UCSORG
 10
0.0
 20
0.0
 30
0.0
  9
$UCSXDIR
 10
1.0
 20
0.0
 30
0.0
  9
$UCSYDIR
 10
0.0
 20
1.0
 30
0.0
  9
$PUCSNAME
  2

  9
$PUCSORG
 10
0.0
 20
0.0
 30
0.0
  9
$PUCSXDIR
 10
1.0
 20
0.0
 30
0.0
  9
$PUCSYDIR
 10
0.0
 20
1.0
 30
0.0
  9
$USERI1
 70
     0
  9
$USERI2
 70
     1
  9
$USERI3
 70
     1
  9
$USERI4
 70
     0
  9
$USERI5
 70
     0
  9
$USERR1
 40
0.0
  9
$USERR2
 40
0.0
  9
$USERR3
 40
0.0
  9
$USERR4
 40
0.0
  9
$USERR5
 40
0.0
  9
$WORLDVIEW
 70
     1
  9
$SHADEDGE
 70
     3
  9
$SHADEDIF
 70
    70
  9
$TILEMODE
 70
     1
  9
$MAXACTVP
 70
    16
  9
$PLIMCHECK
 70
     0
  9
$PEXTMIN
 10
1.0000000000000000E+020
 20
1.0000000000000000E+020
 30
1.0000000000000000E+020
  9
$PEXTMAX
 10
-1.0000000000000000E+020
 20
-1.0000000000000000E+020
 30
-1.0000000000000000E+020
  9
$PLIMMIN
 10
0.0
 20
0.0
  9
$PLIMMAX
 10
12.0
 20
9.0
  9
$UNITMODE
 70
     0
  9
$VISRETAIN
 70
     0
  9
$PLINEGEN
 70
     0
  9
$PSLTSCALE
 70
     0
  0
ENDSEC
  0
SECTION
  2
TABLES
  0
TABLE
  2
VPORT
 70
     1
  0
VPORT
  2
*ACTIVE
 70
     0
 10
0.0
 20
0.0
 11
1.0
 21
1.0
 12
172.54273504273499
 22
95.0
 13
0.0
 23
0.0
 14
5.0
 24
5.0
 15
5.0
 25
5.0
 16
0.0
 26
0.0
 36
1.0
 17
0.0
 27
0.0
 37
0.0
 40
190.0
 41
1.816239316239316
 42
50.0
 43
0.0
 44
0.0
 50
0.0
 51
0.0
 71
     0
 72
   500
 73
     1
 74
     0
 75
     0
 76
     0
 77
     0
 78
     2
  0
ENDTAB
  0
TABLE
  2
LTYPE
 70
     3
  0
LTYPE
  2
CONTINUOUS
 70
     0
  3
Solid Line
 72
    65
 73
     0
 40
0.0
  0
LTYPE
  2
CENTER
 70
     0
  3
____ _ ____ _ ____ _ ____ _ ____ _ ____ _ ____
 72
    65
 73
     4
 40
2.0
 49
1.25
 49
-0.25
 49
0.25
 49
-0.25
  0
LTYPE
  2
PHANTOM2
 70
     0
  3
___ _ _ ___ _ _ ___ _ _ ___ _ _
 72
    65
 73
     6
 40
1.25
 49
0.625
 49
-0.125
 49
0.125
 49
-0.125
 49
0.125
 49
-0.125
  0
ENDTAB
  0
TABLE
  2
LAYER
 70
     4
  0
LAYER
  2
0
 70
     0
 62
     7
  6
CONTINUOUS
  0
LAYER
  2
1
 70
     0
 62
     1
  6
CENTER
  0
LAYER
  2
3
 70
     0
 62
     3
  6
CONTINUOUS
  0
LAYER
  2
DEFPOINTS
 70
     0
 62
     7
  6
CONTINUOUS
  0
ENDTAB
  0
TABLE
  2
STYLE
 70
     2
  0
STYLE
  2
STANDARD
 70
     0
 40
0.0
 41
1.0
 50
0.0
 71
     0
 42
0.2
  3
TXT
  4
BIGFONT
  0
STYLE
  2
STANDARD1
 70
     0
 40
0.0
 41
1.0
 50
0.0
 71
     0
 42
3.0
  3
txt
  4

  0
ENDTAB
  0
TABLE
  2
VIEW
 70
     1
  0
VIEW
  2
ALL
 70
     0
 40
270.0
 10
220.99159663865549
 20
135.0
 41
0.0
 11
0.0
 21
0.0
 31
1.0
 12
0.0
 22
0.0
 32
0.0
 42
50.0
 43
0.0
 44
0.0
 50
0.0
 71
     0
  0
ENDTAB
  0
TABLE
  2
UCS
 70
     0
  0
ENDTAB
  0
TABLE
  2
APPID
 70
     4
  0
APPID
  2
ACAD
 70
     0
  0
APPID
  2
ACAD_MLEADERVER
 70
     0
  0
APPID
  2
ACAD_NAV_VCDISPLAY
 70
     0
  0
APPID
  2
ACAD_EXEMPT_FROM_CAD_STANDARDS
 70
     0
  0
ENDTAB
  0
TABLE
  2
DIMSTYLE
 70
     1
  0
DIMSTYLE
  2
STANDARD
 70
     0
  3

  4

  5

  6

  7

 40
1.0
 41
0.18
 42
0.0625
 43
0.38
 44
0.18
 45
0.0
 46
0.0
 47
0.0
 48
0.0
140
0.18
141
0.09
142
0.0
143
25.399999999999999
144
1.0
145
0.0
146
1.0
147
0.09
 71
     0
 72
     0
 73
     1
 74
     1
 75
     0
 76
     0
 77
     0
 78
     0
170
     0
171
     2
172
     0
173
     0
174
     0
175
     0
176
     0
177
     0
178
     0
  0
ENDTAB
  0
ENDSEC
  0
SECTION
  2
BLOCKS
  0
BLOCK
  8
0
  2
$MODEL_SPACE
 70
     0
 10
0.0
 20
0.0
 30
0.0
  3
$MODEL_SPACE
  1

  0
ENDBLK
  5
1D4
  8
0
  0
BLOCK
 67
     1
  8
0
  2
$PAPER_SPACE
 70
     0
 10
0.0
 20
0.0
 30
0.0
  3
$PAPER_SPACE
  1

  0
ENDBLK
  5
1D2
 67
     1
  8
0
  0
ENDSEC
  0
SECTION
  2
ENTITIES
  0
LINE
  5
7AF7
  8
0
 10
125.29942245623
 20
73.190266300328972
 30
0.0
 11
125.29942245623
 21
45.190265436061722
 31
0.0
  0
LINE
  5
7AF9
  8
0
 10
133.4340380637897
 20
73.190266300329071
 30
0.0
 11
133.4340380637897
 21
45.190265436061722
 31
0.0
  0
LINE
  5
7AFD
  8
0
 10
138.33898810138831
 20
77.177900854834448
 30
0.0
 11
138.33898810138831
 21
41.202630881556367
 31
0.0
  0
LINE
  5
7AFE
  8
0
 10
135.16640794863829
 20
76.791860197075721
 30
0.0
 11
135.16640794863829
 21
41.588671539315101
 31
0.0
  0
LINE
  5
7B99
  8
0
 10
109.8232810984354
 20
71.39026563275695
 30
0.0
 11
109.8232810984354
 21
46.990266103633637
 31
0.0
  0
LINE
  5
7B9A
  8
0
 10
106.15007617911211
 20
71.690266054459812
 30
0.0
 11
106.15007617911211
 21
46.690265681930782
 31
0.0
  0
LINE
  5
7B9B
  8
0
 10
109.65007605431489
 20
71.690266054459812
 30
0.0
 11
109.65007605431489
 21
46.690265681930782
 31
0.0
  0
LINE
  5
7BA4
  8
0
 10
143.65007487526049
 20
72.777596386175219
 30
0.0
 11
143.65007487526049
 21
45.604479533025021
 31
0.0
  0
LINE
  5
7BAA
  8
0
 10
111.1500760673534
 20
39.540265868195412
 30
0.0
 11
111.1500760673534
 21
78.840265868195416
 31
0.0
  0
LINE
  5
7BAB
  8
0
 10
120.15007567992321
 20
77.92539897967221
 30
0.0
 11
120.15007567992321
 21
40.455132756718392
 31
0.0
  0
LINE
  5
7BAC
  8
0
 10
112.928918483014
 20
78.840265868195416
 30
0.0
 11
112.928918483014
 21
39.540265868195412
 31
0.0
  0
ARC
  5
7BAD
  8
0
 10
125.2994221174049
 20
44.190265868195411
 30
0.0
 40
1.000000000000022
 50
90.0
 51
135.0
  0
ARC
  5
7BAE
  8
0
 10
125.2994221174049
 20
74.190265868195411
 30
0.0
 40
1.000000000000022
 50
224.9999999999994
 51
269.99999999999682
  0
LINE
  5
7BAF
  8
0
 10
109.8232810984354
 20
46.990266103633637
 30
0.0
 11
111.1500760673533
 21
46.990266103633637
 31
0.0
  0
LINE
  5
7BB0
  8
0
 10
111.1500760673533
 20
71.39026563275695
 30
0.0
 11
109.8232810984354
 21
71.39026563275695
 31
0.0
  0
LINE
  5
7BB1
  8
0
 10
109.8232810984354
 20
71.39026563275695
 30
0.0
 11
109.65007605431489
 21
71.690266054459812
 31
0.0
  0
LINE
  5
7BB2
  8
0
 10
109.65007605431489
 20
46.690265681930782
 30
0.0
 11
109.8232810984354
 21
46.990266103633637
 31
0.0
  0
LINE
  5
7BB3
  8
0
 10
106.15007617911211
 20
46.690265681930782
 30
0.0
 11
109.65007605431489
 21
46.690265681930782
 31
0.0
  0
LINE
  5
7BB4
  8
0
 10
109.65007605431489
 20
71.690266054459812
 30
0.0
 11
106.15007617911211
 21
71.690266054459812
 31
0.0
  0
LINE
  5
7BB5
  8
0
 10
125.29942245622981
 20
45.190265436061622
 30
0.0
 11
133.4340380637895
 21
45.190265436061622
 31
0.0
  0
LINE
  5
7BB6
  8
0
 10
133.4340380637895
 20
73.190266300328972
 30
0.0
 11
125.29942245622981
 21
73.190266300328972
 31
0.0
  0
ARC
  5
7BB7
  8
0
 10
142.6500760673533
 20
72.77605230582229
 30
0.0
 40
1.0000000000000071
 50
0.0
 51
45.0
  0
ARC
  5
7BB8
  8
0
 10
142.6500760673533
 20
45.604479430568517
 30
0.0
 40
1.0000000000000071
 50
315.0
 51
0.0
  0
ARC
  5
7BB9
  8
0
 10
133.43403777341001
 20
44.190265868195411
 30
0.0
 40
0.9999999999999975
 50
15.00000000000156
 51
90.0
  0
ARC
  5
7BBA
  8
0
 10
133.43403777341001
 20
74.190265868195411
 30
0.0
 40
1.0
 50
269.99999999999682
 51
344.99999999999892
  0
LINE
  5
7BBB
  8
0
 10
143.35718137612449
 20
73.483158868142382
 30
0.0
 11
140.81879278113951
 21
76.0215502570951
 31
0.0
  0
LINE
  5
7BBC
  8
0
 10
140.81879278113951
 20
42.358981479295487
 30
0.0
 11
143.35718137612449
 21
44.897372868248212
 31
0.0
  0
LINE
  5
7BBD
  8
0
 10
134.3999629973423
 20
44.449084472247357
 30
0.0
 11
135.1664079486381
 21
41.588671539314973
 31
0.0
  0
LINE
  5
7BBE
  8
0
 10
135.1664079486381
 20
76.791860197075607
 30
0.0
 11
134.3999629973423
 21
73.931447264143245
 31
0.0
  0
ARC
  5
7BBF
  8
0
 10
137.9903650425974
 20
45.187409092931823
 30
0.0
 40
4.0000000000000062
 50
274.99999999999977
 51
314.99999999999989
  0
ARC
  5
7BC0
  8
0
 10
137.9903650425974
 20
73.193122643458992
 30
0.0
 40
4.0000000000000062
 50
45.0
 51
84.999999999999815
  0
LINE
  5
7BC1
  8
0
 10
138.33898810138811
 20
77.177900854834306
 30
0.0
 11
136.00887489905469
 21
77.381759915837051
 31
0.0
  0
LINE
  5
7BC2
  8
0
 10
136.00887489905469
 20
40.998771820553543
 30
0.0
 11
138.33898810138811
 21
41.202630881556267
 31
0.0
  0
ARC
  5
7BC3
  8
0
 10
135.9391495180227
 20
41.795727507944427
 30
0.0
 40
0.8000000000000319
 50
195.0000000000004
 51
275.0000000000004
  0
ARC
  5
7BC4
  8
0
 10
135.9391495180227
 20
76.584804228446387
 30
0.0
 40
0.8000000000000319
 50
85.000000000003666
 51
164.99999999999989
  0
LINE
  5
7BC5
  8
0
 10
124.592315791453
 20
73.483158868142382
 30
0.0
 11
120.15007567992321
 21
77.92539897967221
 31
0.0
  0
LINE
  5
7BC6
  8
0
 10
120.15007567992321
 20
40.455132756718392
 30
0.0
 11
124.592315791453
 21
44.897372868248212
 31
0.0
  0
LINE
  5
7BC7
  8
0
 10
112.928918483014
 20
78.840265868195416
 30
0.0
 11
111.1500760673534
 21
78.840265868195416
 31
0.0
  0
LINE
  5
7BC8
  8
0
 10
111.1500760673534
 20
39.540265868195412
 30
0.0
 11
112.928918483014
 21
39.540265868195412
 31
0.0
  0
LINE
  5
7BC9
  8
0
 10
120.15007567992321
 20
77.92539897967221
 30
0.0
 11
112.928918483014
 21
78.840265868195416
 31
0.0
  0
LINE
  5
7BCA
  8
0
 10
112.928918483014
 20
39.540265868195412
 30
0.0
 11
120.15007567992321
 21
40.455132756718392
 31
0.0
  0
CIRCLE
  5
7BCE
  8
0
 10
36.396936574341908
 20
59.190265868195411
 30
0.0
 40
15.13397459621555
  0
CIRCLE
  5
7BCF
  8
0
 10
36.396936574341908
 20
59.190265868195411
 30
0.0
 40
16.0
  0
CIRCLE
  5
7BD1
  8
0
 10
36.396936574341908
 20
59.190265868195411
 30
0.0
 40
7.0000000000000071
  0
CIRCLE
  5
7BD2
  8
3
 10
36.396936574341908
 20
59.190265868195411
 30
0.0
 40
7.9999999999999956
  0
CIRCLE
  5
7BD3
  8
0
 10
36.396936574341908
 20
59.190265868195411
 30
0.0
 40
12.5
  0
CIRCLE
  5
7BD4
  8
0
 10
36.396936574341908
 20
59.190265868195411
 30
0.0
 40
8.5
  0
LINE
  5
A0E4
  8
1
 10
11.746936574341911
 20
59.190265868195297
 30
0.0
 11
61.046936574341899
 21
59.190265868195297
 31
0.0
  0
LINE
  5
A0E5
  8
1
 10
36.396936574341908
 20
83.840265868195416
 30
0.0
 11
36.396936574341908
 21
34.540265868195412
 31
0.0
  0
LINE
  5
A0ED
  8
1
 10
84.150075702275004
 20
59.190265868195439
 30
0.0
 11
149.15007570227499
 21
59.190265868195297
 31
0.0
  0
TEXT
  5
AC9D
  8
0
 62
     3
 10
0.0
 20
0.0
 30
0.0
 40
10.0
  1
APS140-M16A
  7
STANDARD1
  0
CIRCLE
  5
AD8B
  8
0
 10
36.396936574341908
 20
59.190265868195411
 30
0.0
 40
19.649999999999999
  0
LINE
  5
ADAF
  8
0
 10
144.15007570227499
 20
71.191037959600166
 30
0.0
 11
144.15007570227499
 21
47.19103795960018
 31
0.0
  0
LINE
  5
ADB0
  8
0
 10
143.65007570227499
 20
71.19103795960018
 30
0.0
 11
144.15007570227499
 21
71.191037959600166
 31
0.0
  0
LINE
  5
ADB1
  8
0
 10
143.65007570227499
 20
47.19103795960018
 30
0.0
 11
143.65007570227499
 21
71.19103795960018
 31
0.0
  0
LINE
  5
ADB2
  8
0
 10
144.15007570227499
 20
47.19103795960018
 30
0.0
 11
143.65007570227499
 21
47.19103795960018
 31
0.0
  0
LINE
  5
ADB3
  8
0
 10
89.150075702274918
 20
55.191037959600223
 30
0.0
 11
89.150075702275032
 21
63.191037959600223
 31
0.0
  0
LINE
  5
ADB4
  8
0
 10
106.15007617911211
 20
65.191037959600195
 30
0.0
 11
91.150075702275061
 21
65.191037959600223
 31
0.0
  0
LINE
  5
ADB5
  8
3
 10
106.15007617911211
 20
64.24403795960022
 30
0.0
 11
90.203075702275058
 21
64.244037959600234
 31
0.0
  0
LINE
  5
ADB6
  8
3
 10
106.15007617911211
 20
54.138037959600169
 30
0.0
 11
90.203075702274987
 21
54.138037959600183
 31
0.0
  0
LINE
  5
ADB7
  8
0
 10
106.15007617911211
 20
53.191037959600209
 30
0.0
 11
91.150075702274918
 21
53.191037959600223
 31
0.0
  0
LINE
  5
ADB8
  8
0
 10
89.150075702274918
 20
55.191037959600223
 30
0.0
 11
91.150075702274918
 21
53.191037959600223
 31
0.0
  0
LINE
  5
ADB9
  8
0
 10
89.150075702275032
 20
63.191037959600223
 30
0.0
 11
91.150075702275061
 21
65.191037959600223
 31
0.0
  0
LINE
  5
ADBA
  8
0
 10
91.150075702274947
 20
53.191037959600209
 30
0.0
 11
91.150075702275061
 21
65.191037959600237
 31
0.0
  0
CIRCLE
  5
ADC9
  8
0
 10
36.396936574341908
 20
59.190265868195411
 30
0.0
 40
6.0007720914047971
  0
CIRCLE
  5
ADCA
  8
3
 10
36.396936574341908
 20
59.190265868195411
 30
0.0
 40
5.0537720914048228
  0
CIRCLE
  5
AE66
  8
0
 10
196.90321483020799
 20
59.190265868195411
 30
0.0
 40
18.735133111476799
  0
CIRCLE
  5
AE67
  8
0
 10
196.90321483020799
 20
59.190265868195411
 30
0.0
 40
13.585786437626879
  0
CIRCLE
  5
AE6A
  8
0
 10
196.90321483020799
 20
59.190265868195411
 30
0.0
 40
18.194538360250998
  0
LINE
  5
AE6C
  8
1
 10
221.55321483020811
 20
59.190265868195297
 30
0.0
 11
172.25321483020809
 21
59.190265868195297
 31
0.0
  0
LINE
  5
AE6D
  8
1
 10
196.90321483020799
 20
83.840265868195416
 30
0.0
 11
196.90321483020799
 21
34.540265868195412
 31
0.0
  0
CIRCLE
  5
AE6E
  8
0
 10
196.90321483020799
 20
59.190265868195411
 30
0.0
 40
19.649999999999999
  0
LINE
  5
AE7C
  8
0
 10
192.9032148302085
 20
56.880864791437261
 30
0.0
 11
196.9032148302085
 21
54.571463714678657
 31
0.0
  0
LINE
  5
AE7D
  8
0
 10
196.9032148302085
 20
54.571463714678657
 30
0.0
 11
200.9032148302081
 21
56.880864791437261
 31
0.0
  0
LINE
  5
AE7E
  8
0
 10
200.9032148302081
 20
56.880864791437261
 30
0.0
 11
200.9032148302081
 21
61.499666944954932
 31
0.0
  0
LINE
  5
AE7F
  8
0
 10
200.9032148302081
 20
61.499666944954932
 30
0.0
 11
196.90321483020799
 21
63.809068021712619
 31
0.0
  0
LINE
  5
AE80
  8
0
 10
196.90321483020799
 20
63.809068021712619
 30
0.0
 11
192.90321483020759
 21
61.49966694495356
 31
0.0
  0
LINE
  5
AE81
  8
0
 10
192.90321483020759
 20
61.49966694495356
 30
0.0
 11
192.9032148302085
 21
56.880864791437261
 31
0.0
  0
CIRCLE
  5
AE82
  8
0
 10
196.90321483020799
 20
59.190265868195411
 30
0.0
 40
12.0
  0
ENDSEC
  0
EOF
