  0
SECTION
  2
HEADER
  9
$ACADVER
  1
AC1009
  9
$INSBASE
 10
0.0
 20
0.0
 30
0.0
  9
$EXTMIN
 10
-0.0204638472032742
 20
-2.960436562073669
 30
0.0
  9
$EXTMAX
 10
230.701569445264
 20
133.84813975928441
 30
0.0
  9
$LIMMIN
 10
0.0
 20
0.0
  9
$LIMMAX
 10
187.5
 20
135.0
  9
$ORTHOMODE
 70
     1
  9
$REGENMODE
 70
     1
  9
$FILLMODE
 70
     1
  9
$QTEXTMODE
 70
     0
  9
$MIRRTEXT
 70
     0
  9
$DRAGMODE
 70
     2
  9
$LTSCALE
 40
5.0
  9
$OSMODE
 70
    37
  9
$ATTMODE
 70
     1
  9
$TEXTSIZE
 40
0.2
  9
$TRACEWID
 40
0.05
  9
$TEXTSTYLE
  7
STANDARD
  9
$CLAYER
  8
0
  9
$CELTYPE
  6
BYLAYER
  9
$CECOLOR
 62
   256
  9
$DIMSCALE
 40
0.5
  9
$DIMASZ
 40
3.0
  9
$DIMEXO
 40
2.0
  9
$DIMDLI
 40
0.38
  9
$DIMRND
 40
0.0
  9
$DIMDLE
 40
0.0
  9
$DIMEXE
 40
2.0
  9
$DIMTP
 40
0.0
  9
$DIMTM
 40
0.0
  9
$DIMTXT
 40
3.2000000000000002
  9
$DIMCEN
 40
0.0
  9
$DIMTSZ
 40
0.0
  9
$DIMTOL
 70
     0
  9
$DIMLIM
 70
     0
  9
$DIMTIH
 70
     0
  9
$DIMTOH
 70
     0
  9
$DIMSE1
 70
     0
  9
$DIMSE2
 70
     0
  9
$DIMTAD
 70
     1
  9
$DIMZIN
 70
     0
  9
$DIMBLK
  1

  9
$DIMASO
 70
     0
  9
$DIMSHO
 70
     0
  9
$DIMPOST
  1

  9
$DIMAPOST
  1

  9
$DIMALT
 70
     0
  9
$DIMALTD
 70
     2
  9
$DIMALTF
 40
25.399999999999999
  9
$DIMLFAC
 40
1.0
  9
$DIMTOFL
 70
     1
  9
$DIMTVP
 40
1.6000000000000001
  9
$DIMTIX
 70
     1
  9
$DIMSOXD
 70
     0
  9
$DIMSAH
 70
     0
  9
$DIMBLK1
  1

  9
$DIMBLK2
  1

  9
$DIMSTYLE
  2
STANDARD
  9
$DIMCLRD
 70
   256
  9
$DIMCLRE
 70
   256
  9
$DIMCLRT
 70
   256
  9
$DIMTFAC
 40
1.0
  9
$DIMGAP
 40
0.09
  9
$LUNITS
 70
     2
  9
$LUPREC
 70
     1
  9
$SKETCHINC
 40
0.1
  9
$FILLETRAD
 40
0.0
  9
$AUNITS
 70
     0
  9
$AUPREC
 70
     1
  9
$MENU
  1
E:\r13\win\SUPPORT\ACAD
  9
$ELEVATION
 40
0.0
  9
$PELEVATION
 40
0.0
  9
$THICKNESS
 40
0.0
  9
$LIMCHECK
 70
     0
  9
$BLIPMODE
 70
     0
  9
$CHAMFERA
 40
0.0
  9
$CHAMFERB
 40
0.0
  9
$SKPOLY
 70
     0
  9
$TDCREATE
 40
2449839.7732986109
  9
$TDUPDATE
 40
2459941.57048096
  9
$TDINDWG
 40
0.2492323148
  9
$TDUSRTIMER
 40
0.2492323148
  9
$USRTIMER
 70
     1
  9
$ANGBASE
 50
0.0
  9
$ANGDIR
 70
     0
  9
$PDMODE
 70
     0
  9
$PDSIZE
 40
0.0
  9
$PLINEWID
 40
0.0
  9
$COORDS
 70
     1
  9
$SPLFRAME
 70
     0
  9
$SPLINETYPE
 70
     6
  9
$SPLINESEGS
 70
     8
  9
$ATTDIA
 70
     0
  9
$ATTREQ
 70
     1
  9
$HANDLING
 70
     1
  9
$HANDSEED
  5
B15A
  9
$SURFTAB1
 70
     6
  9
$SURFTAB2
 70
     6
  9
$SURFTYPE
 70
     6
  9
$SURFU
 70
     6
  9
$SURFV
 70
     6
  9
$UCSNAME
  2

  9
$UCSORG
 10
0.0
 20
0.0
 30
0.0
  9
$UCSXDIR
 10
1.0
 20
0.0
 30
0.0
  9
$UCSYDIR
 10
0.0
 20
1.0
 30
0.0
  9
$PUCSNAME
  2

  9
$PUCSORG
 10
0.0
 20
0.0
 30
0.0
  9
$PUCSXDIR
 10
1.0
 20
0.0
 30
0.0
  9
$PUCSYDIR
 10
0.0
 20
1.0
 30
0.0
  9
$USERI1
 70
     0
  9
$USERI2
 70
     1
  9
$USERI3
 70
     1
  9
$USERI4
 70
     0
  9
$USERI5
 70
     0
  9
$USERR1
 40
0.0
  9
$USERR2
 40
0.0
  9
$USERR3
 40
0.0
  9
$USERR4
 40
0.0
  9
$USERR5
 40
0.0
  9
$WORLDVIEW
 70
     1
  9
$SHADEDGE
 70
     3
  9
$SHADEDIF
 70
    70
  9
$TILEMODE
 70
     1
  9
$MAXACTVP
 70
    16
  9
$PLIMCHECK
 70
     0
  9
$PEXTMIN
 10
1.0000000000000000E+020
 20
1.0000000000000000E+020
 30
1.0000000000000000E+020
  9
$PEXTMAX
 10
-1.0000000000000000E+020
 20
-1.0000000000000000E+020
 30
-1.0000000000000000E+020
  9
$PLIMMIN
 10
0.0
 20
0.0
  9
$PLIMMAX
 10
12.0
 20
9.0
  9
$UNITMODE
 70
     0
  9
$VISRETAIN
 70
     0
  9
$PLINEGEN
 70
     0
  9
$PSLTSCALE
 70
     0
  0
ENDSEC
  0
SECTION
  2
TABLES
  0
TABLE
  2
VPORT
 70
     1
  0
VPORT
  2
*ACTIVE
 70
     0
 10
0.0
 20
0.0
 11
1.0
 21
1.0
 12
284.70552884615392
 22
125.0
 13
0.0
 23
0.0
 14
5.0
 24
5.0
 15
5.0
 25
5.0
 16
0.0
 26
0.0
 36
1.0
 17
0.0
 27
0.0
 37
0.0
 40
250.0
 41
2.2776442307692299
 42
50.0
 43
0.0
 44
0.0
 50
0.0
 51
0.0
 71
     0
 72
   500
 73
     1
 74
     0
 75
     0
 76
     0
 77
     0
 78
     2
  0
ENDTAB
  0
TABLE
  2
LTYPE
 70
     3
  0
LTYPE
  2
CONTINUOUS
 70
     0
  3
Solid Line
 72
    65
 73
     0
 40
0.0
  0
LTYPE
  2
CENTER
 70
     0
  3
____ _ ____ _ ____ _ ____ _ ____ _ ____ _ ____
 72
    65
 73
     4
 40
2.0
 49
1.25
 49
-0.25
 49
0.25
 49
-0.25
  0
LTYPE
  2
PHANTOM2
 70
     0
  3
___ _ _ ___ _ _ ___ _ _ ___ _ _
 72
    65
 73
     6
 40
1.25
 49
0.625
 49
-0.125
 49
0.125
 49
-0.125
 49
0.125
 49
-0.125
  0
ENDTAB
  0
TABLE
  2
LAYER
 70
     4
  0
LAYER
  2
0
 70
     0
 62
     7
  6
CONTINUOUS
  0
LAYER
  2
1
 70
     0
 62
     1
  6
CENTER
  0
LAYER
  2
3
 70
     0
 62
     3
  6
CONTINUOUS
  0
LAYER
  2
DEFPOINTS
 70
     0
 62
     7
  6
CONTINUOUS
  0
ENDTAB
  0
TABLE
  2
STYLE
 70
     2
  0
STYLE
  2
STANDARD
 70
     0
 40
0.0
 41
1.0
 50
0.0
 71
     0
 42
0.2
  3
TXT
  4
BIGFONT
  0
STYLE
  2
STANDARD1
 70
     0
 40
0.0
 41
1.0
 50
0.0
 71
     0
 42
3.0
  3
txt
  4

  0
ENDTAB
  0
TABLE
  2
VIEW
 70
     1
  0
VIEW
  2
ALL
 70
     0
 40
270.0
 10
220.99159663865549
 20
135.0
 41
0.0
 11
0.0
 21
0.0
 31
1.0
 12
0.0
 22
0.0
 32
0.0
 42
0.0
 43
0.0
 44
0.0
 50
0.0
 71
     0
  0
ENDTAB
  0
TABLE
  2
UCS
 70
     0
  0
ENDTAB
  0
TABLE
  2
APPID
 70
     6
  0
APPID
  2
ACAD
 70
     0
  0
APPID
  2
ACAD_MLEADERVER
 70
     0
  0
APPID
  2
ACAD_NAV_VCDISPLAY
 70
     0
  0
APPID
  2
ACAD_EXEMPT_FROM_CAD_STANDARDS
 70
     0
  0
APPID
  2
ACAD_DSTYLE_DIMJAG
 70
     0
  0
APPID
  2
ACAD_DSTYLE_DIMTALN
 70
     0
  0
ENDTAB
  0
TABLE
  2
DIMSTYLE
 70
     1
  0
DIMSTYLE
  2
STANDARD
 70
     0
  3

  4

  5

  6

  7

 40
1.0
 41
0.18
 42
0.0625
 43
0.38
 44
0.18
 45
0.0
 46
0.0
 47
0.0
 48
0.0
140
0.18
141
0.09
142
0.0
143
25.399999999999999
144
1.0
145
0.0
146
1.0
147
0.09
 71
     0
 72
     0
 73
     1
 74
     1
 75
     0
 76
     0
 77
     0
 78
     0
170
     0
171
     2
172
     0
173
     0
174
     0
175
     0
176
     0
177
     0
178
     0
  0
ENDTAB
  0
ENDSEC
  0
SECTION
  2
BLOCKS
  0
BLOCK
  8
0
  2
$MODEL_SPACE
 70
     0
 10
0.0
 20
0.0
 30
0.0
  3
$MODEL_SPACE
  1

  0
ENDBLK
  5
1D4
  8
0
  0
BLOCK
 67
     1
  8
0
  2
$PAPER_SPACE
 70
     0
 10
0.0
 20
0.0
 30
0.0
  3
$PAPER_SPACE
  1

  0
ENDBLK
  5
1D2
 67
     1
  8
0
  0
ENDSEC
  0
SECTION
  2
ENTITIES
  0
LINE
  5
8A6C
  8
0
 10
142.58239267884539
 20
53.198140191417913
 30
0.0
 11
142.58239267884531
 21
25.19813932715067
 31
0.0
  0
LINE
  5
8A73
  8
0
 10
147.487342716444
 20
57.185774745923261
 30
0.0
 11
147.487342716444
 21
21.21050419933545
 31
0.0
  0
LINE
  5
8A75
  8
0
 10
144.31476256369399
 20
56.799734088164541
 30
0.0
 11
144.31476256369399
 21
21.596545430403811
 31
0.0
  0
LINE
  5
8A79
  8
0
 10
119.3180459181477
 20
51.398139523845892
 30
0.0
 11
119.3180459181476
 21
26.998139994722688
 31
0.0
  0
LINE
  5
8A7B
  8
0
 10
115.298430794168
 20
51.698139945548753
 30
0.0
 11
115.2984307941681
 21
26.69813957301983
 31
0.0
  0
LINE
  5
8A7D
  8
0
 10
118.7984306693707
 20
51.698139945548753
 30
0.0
 11
118.7984306693707
 21
26.69813957301983
 31
0.0
  0
LINE
  5
8A7F
  8
0
 10
140.7984312486534
 20
27.19813965497622
 30
0.0
 11
134.44777707128571
 21
27.19813965497622
 31
0.0
  0
ARC
  5
8A80
  8
0
 10
140.79843044035471
 20
26.19813868276486
 30
0.0
 40
1.0000009722117651
 50
0.000046312054911
 51
89.999953687943488
  0
LINE
  5
8A81
  8
0
 10
141.7984314125662
 20
25.19813932715067
 30
0.0
 11
141.7984314125662
 21
26.19813949106344
 31
0.0
  0
LINE
  5
8A82
  8
0
 10
141.7984314125662
 20
52.198140027505133
 30
0.0
 11
141.7984314125662
 21
53.198140191417913
 31
0.0
  0
ARC
  5
8A83
  8
0
 10
140.7996340654374
 20
52.196937210721103
 30
0.0
 40
0.9987980713836799
 50
269.93100072589118
 51
0.068999274107906
  0
LINE
  5
8A84
  8
0
 10
134.44777707128571
 20
51.19813986359236
 30
0.0
 11
140.7984312486534
 21
51.19813986359236
 31
0.0
  0
LINE
  5
8A85
  8
0
 10
152.79842949031641
 20
52.7839260944545
 30
0.0
 11
152.79842949031641
 21
25.61235342411408
 31
0.0
  0
LINE
  5
8A86
  8
0
 10
134.44777707128571
 20
27.19813965497622
 30
0.0
 11
133.74067040650891
 21
27.19813965497622
 31
0.0
  0
LINE
  5
8A87
  8
0
 10
134.44777707128571
 20
51.19813986359236
 30
0.0
 11
134.44777707128571
 21
27.19813965497622
 31
0.0
  0
LINE
  5
8A88
  8
0
 10
133.74067040650891
 20
51.19813986359236
 30
0.0
 11
134.44777707128571
 21
51.19813986359236
 31
0.0
  0
LINE
  5
8A89
  8
0
 10
129.7984303769355
 20
26.19813949106344
 30
0.0
 11
129.7984303769355
 21
20.963007661086412
 31
0.0
  0
ARC
  5
8A8A
  8
0
 10
130.79843117497879
 20
26.198138856932871
 30
0.0
 40
1.0000007980436589
 50
90.000036332983413
 51
179.9999636670174
  0
LINE
  5
8A8B
  8
0
 10
133.74067040650891
 20
27.19813965497622
 30
0.0
 11
130.79843054084819
 21
27.19813965497622
 31
0.0
  0
LINE
  5
8A8D
  8
0
 10
130.79843054084819
 20
51.19813986359236
 30
0.0
 11
133.74067040650891
 21
51.19813986359236
 31
0.0
  0
ARC
  5
8A8E
  8
0
 10
130.7984303454536
 20
52.198139832110542
 30
0.0
 40
0.9999999685181585
 50
179.99998880471449
 51
270.00001119528952
  0
LINE
  5
8A8F
  8
0
 10
129.7984303769355
 20
57.433271857482168
 30
0.0
 11
129.7984303769355
 21
52.198140027505133
 31
0.0
  0
LINE
  5
8A90
  8
0
 10
129.41478321819349
 20
34.128613846880228
 30
0.0
 11
129.41478321819349
 21
20.579358639699311
 31
0.0
  0
LINE
  5
8A91
  8
0
 10
129.41478321819349
 20
57.816920878869269
 30
0.0
 11
129.41478321819349
 21
44.267665671688349
 31
0.0
  0
LINE
  5
8A92
  8
0
 10
121.3657361318056
 20
33.820604982358248
 30
0.0
 11
129.41478321819349
 21
34.128613846880228
 31
0.0
  0
LINE
  5
8A93
  8
0
 10
129.41478321819349
 20
34.128613846880228
 30
0.0
 11
129.29843029497911
 21
35.900113482531943
 31
0.0
  0
LINE
  5
8A94
  8
0
 10
129.29843029497911
 20
42.496166036036641
 30
0.0
 11
129.41478321819349
 21
44.267665671688349
 31
0.0
  0
LINE
  5
8A95
  8
0
 10
121.3657361318056
 20
44.575674536210329
 30
0.0
 11
129.41478321819349
 21
44.267665671688349
 31
0.0
  0
LINE
  5
8A96
  8
0
 10
122.0772730980699
 20
42.729217403140687
 30
0.0
 11
129.29843029497911
 21
42.496166036036641
 31
0.0
  0
LINE
  5
8A97
  8
0
 10
129.29843029497911
 20
35.900113482531943
 30
0.0
 11
122.0772730980699
 21
35.667062115427882
 31
0.0
  0
LINE
  5
8A98
  8
0
 10
129.29843029497911
 20
42.496166036036641
 30
0.0
 11
129.29843029497911
 21
35.900113482531943
 31
0.0
  0
LINE
  5
8A99
  8
0
 10
120.2984306824093
 20
58.84813975928418
 30
0.0
 11
120.2984306824093
 21
19.548139759284169
 31
0.0
  0
LINE
  5
8A9A
  8
0
 10
122.0772730980699
 20
35.667062115427882
 30
0.0
 11
122.0772730980699
 21
42.729217403140687
 31
0.0
  0
ARC
  5
8A9B
  8
0
 10
124.3458836902234
 20
44.663757140735179
 30
0.0
 40
2.9814489791313048
 50
181.6929674012321
 51
220.4556237973803
  0
LINE
  5
8A9C
  8
0
 10
121.3657361318056
 20
58.84813975928418
 30
0.0
 11
121.3657361318056
 21
44.575674536210329
 31
0.0
  0
LINE
  5
8A9D
  8
0
 10
121.3657361318056
 20
33.820604982358248
 30
0.0
 11
121.3657361318056
 21
19.548139759284169
 31
0.0
  0
ARC
  5
8A9E
  8
0
 10
124.41865368671129
 20
33.704480274061503
 30
0.0
 40
3.0551252911997828
 50
140.0297347886906
 51
177.82167401269871
  0
LINE
  5
8A9F
  8
0
 10
119.3180459181477
 20
26.998139994722688
 30
0.0
 11
120.2984306824094
 21
26.998139994722688
 31
0.0
  0
LINE
  5
8AA0
  8
0
 10
120.2984306824094
 20
51.398139523845892
 30
0.0
 11
119.3180459181477
 21
51.398139523845892
 31
0.0
  0
LINE
  5
8AA1
  8
0
 10
119.3180459181477
 20
51.398139523845892
 30
0.0
 11
118.7984306693707
 21
51.698139945548753
 31
0.0
  0
LINE
  5
8AA2
  8
0
 10
118.7984306693707
 20
26.69813957301983
 30
0.0
 11
119.3180459181477
 21
26.998139994722688
 31
0.0
  0
LINE
  5
8AA3
  8
0
 10
115.298430794168
 20
26.69813957301983
 30
0.0
 11
118.7984306693707
 21
26.69813957301983
 31
0.0
  0
LINE
  5
8AA4
  8
0
 10
118.7984306693707
 20
51.698139945548753
 30
0.0
 11
115.298430794168
 21
51.698139945548753
 31
0.0
  0
LINE
  5
8AA5
  8
0
 10
141.7984314125662
 20
25.19813932715067
 30
0.0
 11
142.58239267884539
 21
25.19813932715067
 31
0.0
  0
LINE
  5
8AA6
  8
0
 10
142.58239267884539
 20
53.198140191417913
 30
0.0
 11
141.7984314125662
 21
53.198140191417913
 31
0.0
  0
ARC
  5
8AA7
  8
0
 10
151.79843068240939
 20
52.783926196911239
 30
0.0
 40
1.0
 50
0.0
 51
45.000000000001187
  0
ARC
  5
8AA8
  8
0
 10
151.7984306824093
 20
25.612353321657508
 30
0.0
 40
1.0
 50
314.99999999999937
 51
0.0
  0
ARC
  5
8AA9
  8
0
 10
142.58239238846599
 20
24.198139759284398
 30
0.0
 40
1.0000000000000031
 50
15.000000000001149
 51
90.0
  0
ARC
  5
8AAA
  8
0
 10
142.5823923884661
 20
54.198139759284338
 30
0.0
 40
1.0000000000000071
 50
269.9999999999992
 51
344.99999999999892
  0
LINE
  5
8AAB
  8
0
 10
152.50553599118041
 20
53.491032759231302
 30
0.0
 11
149.9671473961954
 21
56.029424148184042
 31
0.0
  0
LINE
  5
8AAC
  8
0
 10
149.9671473961954
 20
22.366855370384538
 30
0.0
 11
152.50553599118041
 21
24.90524675933727
 31
0.0
  0
LINE
  5
8AAD
  8
0
 10
143.54831761239811
 20
24.456958363336408
 30
0.0
 11
144.31476256369399
 21
21.596545430404031
 31
0.0
  0
LINE
  5
8AAE
  8
0
 10
144.31476256369399
 20
56.799734088164541
 30
0.0
 11
143.54831761239811
 21
53.939321155232172
 31
0.0
  0
ARC
  5
8AAF
  8
0
 10
147.13871965765321
 20
25.195282984020821
 30
0.0
 40
4.0000000000000053
 50
275.0000000000008
 51
315.0
  0
ARC
  5
8AB0
  8
0
 10
147.13871965765341
 20
53.200996534547933
 30
0.0
 40
4.0000000000000071
 50
45.000000000000547
 51
84.999999999999943
  0
LINE
  5
8AB1
  8
0
 10
147.487342716444
 20
57.185774745923261
 30
0.0
 11
145.1572295141105
 21
57.389633806925993
 31
0.0
  0
LINE
  5
8AB2
  8
0
 10
145.1572295141105
 20
21.006645711642591
 30
0.0
 11
147.487342716444
 21
21.210504772645319
 31
0.0
  0
ARC
  5
8AB3
  8
0
 10
145.0875041330786
 20
21.803601399033312
 30
0.0
 40
0.7999999999999974
 50
195.00000000000111
 51
275.00000000000159
  0
ARC
  5
8AB4
  8
0
 10
145.08750413307871
 20
56.592678119535208
 30
0.0
 40
0.7999999999999992
 50
84.999999999999943
 51
164.99999999999881
  0
LINE
  5
8AB5
  8
0
 10
129.7984303769355
 20
57.433271857482168
 30
0.0
 11
129.41478321819349
 21
57.816920878869269
 31
0.0
  0
LINE
  5
8AB6
  8
0
 10
129.41478321819349
 20
20.579358639699311
 30
0.0
 11
129.7984303769355
 21
20.963007661086412
 31
0.0
  0
LINE
  5
8AB7
  8
0
 10
121.3657361318056
 20
19.548139759284169
 30
0.0
 11
129.41478321819349
 21
20.579358639699311
 31
0.0
  0
LINE
  5
8AB8
  8
0
 10
129.41478321819349
 20
57.816920878869269
 30
0.0
 11
121.3657361318056
 21
58.84813975928418
 31
0.0
  0
LINE
  5
8AB9
  8
0
 10
120.2984306824093
 20
19.548139759284169
 30
0.0
 11
121.3657361318056
 21
19.548139759284169
 31
0.0
  0
LINE
  5
8ABA
  8
0
 10
121.3657361318056
 20
58.84813975928418
 30
0.0
 11
120.2984306824093
 21
58.84813975928418
 31
0.0
  0
LINE
  5
8CA4
  8
0
 10
134.44777707128571
 20
123.19814019141801
 30
0.0
 11
134.4477770712856
 21
95.198139759284345
 31
0.0
  0
LINE
  5
8CA5
  8
0
 10
142.58239267884539
 20
123.19814019141801
 30
0.0
 11
142.58239267884539
 21
95.19813932715067
 31
0.0
  0
LINE
  5
8CA9
  8
0
 10
147.48734271644409
 20
127.1857747459233
 30
0.0
 11
147.487342716444
 21
91.210504772645322
 31
0.0
  0
LINE
  5
8CAA
  8
0
 10
144.3147625636941
 20
126.7997340881646
 30
0.0
 11
144.31476256369399
 21
91.596545430404035
 31
0.0
  0
LINE
  5
8CAF
  8
0
 10
129.2984302949792
 20
127.6407053345264
 30
0.0
 11
122.07727309806999
 21
128.62991705773479
 31
0.0
  0
LINE
  5
8D4C
  8
0
 10
115.298430794168
 20
121.6981399455488
 30
0.0
 11
115.298430794168
 21
96.69813957301983
 31
0.0
  0
LINE
  5
8D4D
  8
0
 10
118.7984306693707
 20
121.6981399455488
 30
0.0
 11
118.7984306693707
 21
96.69813957301983
 31
0.0
  0
LINE
  5
8D4E
  8
0
 10
119.3180459181477
 20
121.398139523846
 30
0.0
 11
119.3180459181477
 21
96.998139994722692
 31
0.0
  0
LINE
  5
8D56
  8
0
 10
152.79842949031641
 20
122.7839260944546
 30
0.0
 11
152.79842949031641
 21
95.61080924113628
 31
0.0
  0
LINE
  5
8D5D
  8
0
 10
129.2984302949792
 20
127.9332728707612
 30
0.0
 11
129.2984302949792
 21
127.6407053345264
 31
0.0
  0
LINE
  5
8D5E
  8
0
 10
129.41478321819361
 20
127.113464998585
 30
0.0
 11
129.2984302949792
 21
127.6407053345264
 31
0.0
  0
LINE
  5
8D61
  8
0
 10
122.07727309806999
 20
128.62991705773479
 30
0.0
 11
122.07727309806999
 21
128.84813975928421
 31
0.0
  0
POLYLINE
  5
8D64
  8
0
 66
     1
 10
0.0
 20
0.0
 30
0.0
 70
   128
  0
VERTEX
  5
B115
  8
0
 10
121.3657361318057
 20
128.20194453237659
 30
0.0
  0
VERTEX
  5
B116
  8
0
 10
121.4052747332191
 20
128.31871934471729
 30
0.0
  0
VERTEX
  5
B117
  8
0
 10
121.52394560190641
 20
128.42575997350821
 30
0.0
  0
VERTEX
  5
B118
  8
0
 10
121.7590808032712
 20
128.53702135620719
 30
0.0
  0
VERTEX
  5
B119
  8
0
 10
122.07727309806999
 20
128.62991705773479
 30
0.0
  0
SEQEND
  5
B11A
  8
0
  0
LINE
  5
8D65
  8
0
 10
120.2984306824094
 20
128.84813975928421
 30
0.0
 11
120.2984306824093
 21
89.548139759284226
 31
0.0
  0
LINE
  5
8D67
  8
0
 10
129.41478321819361
 20
127.113464998585
 30
0.0
 11
129.41478321819349
 21
91.282814519983546
 31
0.0
  0
LINE
  5
8D68
  8
0
 10
121.3657361318057
 20
128.20194453237659
 30
0.0
 11
129.41478321819361
 21
127.113464998585
 31
0.0
  0
LINE
  5
8D69
  8
0
 10
121.3657361318057
 20
128.20194453237659
 30
0.0
 11
121.3657361318056
 21
90.194334986191976
 31
0.0
  0
LINE
  5
8D6B
  8
0
 10
129.2984302949792
 20
127.9332728707612
 30
0.0
 11
122.07727309806999
 21
128.84813975928421
 31
0.0
  0
ARC
  5
8D6C
  8
0
 10
134.4477767324608
 20
94.198139759284345
 30
0.0
 40
1.0000000000000031
 50
90.0
 51
134.99999999999989
  0
ARC
  5
8D6D
  8
0
 10
134.4477767324608
 20
124.1981397592843
 30
0.0
 40
1.0
 50
225.0000000000006
 51
269.9999999999992
  0
LINE
  5
8D6E
  8
0
 10
119.3180459181477
 20
96.998139994722692
 30
0.0
 11
120.2984306824093
 21
96.998139994722692
 31
0.0
  0
LINE
  5
8D6F
  8
0
 10
120.2984306824093
 20
121.398139523846
 30
0.0
 11
119.3180459181477
 21
121.398139523846
 31
0.0
  0
LINE
  5
8D70
  8
0
 10
115.298430794168
 20
96.69813957301983
 30
0.0
 11
118.7984306693707
 21
96.69813957301983
 31
0.0
  0
LINE
  5
8D71
  8
0
 10
118.7984306693707
 20
121.6981399455488
 30
0.0
 11
115.298430794168
 21
121.6981399455488
 31
0.0
  0
LINE
  5
8D72
  8
0
 10
119.3180459181477
 20
121.398139523846
 30
0.0
 11
118.7984306693707
 21
121.6981399455488
 31
0.0
  0
LINE
  5
8D73
  8
0
 10
118.7984306693707
 20
96.69813957301983
 30
0.0
 11
119.3180459181477
 21
96.998139994722692
 31
0.0
  0
LINE
  5
8D74
  8
0
 10
134.44777707128571
 20
95.19813932715067
 30
0.0
 11
142.58239267884539
 21
95.19813932715067
 31
0.0
  0
LINE
  5
8D75
  8
0
 10
142.58239267884539
 20
123.19814019141801
 30
0.0
 11
134.44777707128571
 21
123.19814019141801
 31
0.0
  0
ARC
  5
8D76
  8
0
 10
151.79843068240939
 20
122.7839261969111
 30
0.0
 40
1.0
 50
0.0
 51
45.000000000001748
  0
ARC
  5
8D77
  8
0
 10
151.79843068240939
 20
95.612353321657451
 30
0.0
 40
1.0
 50
314.99999999999937
 51
0.0
  0
ARC
  5
8D78
  8
0
 10
142.5823923884661
 20
94.198139759284345
 30
0.0
 40
1.0
 50
15.000000000001149
 51
90.0
  0
ARC
  5
8D79
  8
0
 10
142.5823923884661
 20
124.1981397592843
 30
0.0
 40
1.0
 50
269.9999999999992
 51
344.99999999999898
  0
LINE
  5
8D7A
  8
0
 10
152.50553599118041
 20
123.4910327592314
 30
0.0
 11
149.96714739619549
 21
126.02942414818411
 31
0.0
  0
LINE
  5
8D7B
  8
0
 10
149.9671473961954
 20
92.366855370384542
 30
0.0
 11
152.50553599118041
 21
94.905246759337274
 31
0.0
  0
LINE
  5
8D7C
  8
0
 10
143.54831761239811
 20
94.456958363336412
 30
0.0
 11
144.31476256369399
 21
91.596545430404035
 31
0.0
  0
LINE
  5
8D7D
  8
0
 10
144.3147625636941
 20
126.7997340881646
 30
0.0
 11
143.54831761239811
 21
123.93932115523219
 31
0.0
  0
ARC
  5
8D7E
  8
0
 10
147.13871965765341
 20
95.195282984020764
 30
0.0
 40
4.0000000000000124
 50
275.0000000000008
 51
315.0
  0
ARC
  5
8D7F
  8
0
 10
147.13871965765341
 20
123.2009965345479
 30
0.0
 40
4.0000000000000124
 50
45.000000000000547
 51
84.999999999999943
  0
LINE
  5
8D80
  8
0
 10
147.48734271644409
 20
127.1857747459233
 30
0.0
 11
145.15722951411061
 21
127.3896338069261
 31
0.0
  0
LINE
  5
8D81
  8
0
 10
145.1572295141105
 20
91.006645711642591
 30
0.0
 11
147.487342716444
 21
91.210504772645322
 31
0.0
  0
ARC
  5
8D82
  8
0
 10
145.08750413307871
 20
91.803601399033255
 30
0.0
 40
0.7999999999999992
 50
195.00000000000111
 51
275.00000000000159
  0
ARC
  5
8D83
  8
0
 10
145.08750413307871
 20
126.59267811953519
 30
0.0
 40
0.8000000000000087
 50
84.999999999997542
 51
164.99999999999881
  0
LINE
  5
8D84
  8
0
 10
133.74067040650891
 20
123.4910327592314
 30
0.0
 11
129.2984302949792
 21
127.9332728707612
 31
0.0
  0
LINE
  5
8D85
  8
0
 10
129.29843029497911
 20
90.463006647807447
 30
0.0
 11
133.74067040650891
 21
94.905246759337274
 31
0.0
  0
LINE
  5
8D87
  8
0
 10
122.07727309806999
 20
128.84813975928421
 30
0.0
 11
120.2984306824094
 21
128.84813975928421
 31
0.0
  0
CIRCLE
  5
A1A6
  8
0
 10
45.545291189397851
 20
109.1981397592842
 30
0.0
 40
8.5
  0
CIRCLE
  5
A1A7
  8
0
 10
45.545291189397851
 20
109.1981397592842
 30
0.0
 40
12.5
  0
CIRCLE
  5
A1A8
  8
3
 10
45.545291189397851
 20
109.1981397592842
 30
0.0
 40
7.9999999999999956
  0
CIRCLE
  5
A1A9
  8
0
 10
45.545291189397851
 20
109.1981397592842
 30
0.0
 40
7.0000000000000071
  0
ARC
  5
A1AB
  8
0
 10
45.545291189397851
 20
109.1981397592842
 30
0.0
 40
16.0
 50
185.55270136881509
 51
174.44729863118491
  0
ARC
  5
A1AC
  8
0
 10
45.545291189397851
 20
109.1981397592842
 30
0.0
 40
15.13397459621555
 50
184.73456894281611
 51
175.26543105718389
  0
LINE
  5
A1FC
  8
0
 10
129.7984303769355
 20
127.4332727888049
 30
0.0
 11
129.7984303769355
 21
90.963006729763833
 31
0.0
  0
LINE
  5
A1FD
  8
0
 10
141.7984314125662
 20
95.19813932715067
 30
0.0
 11
141.7984314125662
 21
123.19814019141801
 31
0.0
  0
TEXT
  5
ADD7
  8
0
 62
     3
 10
0.0
 20
0.0
 30
0.0
 40
10.0
  1
APS140-M16B
  7
STANDARD1
  0
LINE
  5
AE2B
  8
1
 10
20.895291189397859
 20
109.1981397592841
 30
0.0
 11
70.195291189397864
 21
109.1981397592841
 31
0.0
  0
LINE
  5
AE2C
  8
1
 10
45.545291189397851
 20
133.84813975928421
 30
0.0
 11
45.545291189397851
 21
84.548139759284226
 31
0.0
  0
CIRCLE
  5
AE2D
  8
0
 10
45.545291189397851
 20
109.1981397592842
 30
0.0
 40
19.649999999999999
  0
CIRCLE
  5
AE38
  8
0
 10
45.545291189397851
 20
109.1981397592842
 30
0.0
 40
6.0007720914047971
  0
CIRCLE
  5
AE39
  8
3
 10
45.545291189397851
 20
109.1981397592842
 30
0.0
 40
5.0537720914048228
  0
LINE
  5
AE4D
  8
1
 10
93.298430317330883
 20
109.1981397592844
 30
0.0
 11
158.29843031733091
 21
109.1981397592842
 31
0.0
  0
LINE
  5
AE4E
  8
0
 10
153.29843031733091
 20
121.1989118506891
 30
0.0
 11
153.29843031733091
 21
97.198911850689129
 31
0.0
  0
LINE
  5
AE4F
  8
0
 10
152.79843031733091
 20
121.1989118506891
 30
0.0
 11
153.29843031733091
 21
121.1989118506891
 31
0.0
  0
LINE
  5
AE50
  8
0
 10
152.79843031733091
 20
97.198911850689129
 30
0.0
 11
152.79843031733091
 21
121.1989118506891
 31
0.0
  0
LINE
  5
AE51
  8
0
 10
153.29843031733091
 20
97.198911850689129
 30
0.0
 11
152.79843031733091
 21
97.198911850689129
 31
0.0
  0
LINE
  5
AE52
  8
0
 10
98.29843031733084
 20
105.1989118506891
 30
0.0
 11
98.298430317330926
 21
113.1989118506891
 31
0.0
  0
LINE
  5
AE53
  8
0
 10
115.298430794168
 20
115.1989118506891
 30
0.0
 11
100.2984303173309
 21
115.1989118506892
 31
0.0
  0
LINE
  5
AE54
  8
3
 10
115.298430794168
 20
114.2519118506891
 30
0.0
 11
99.351430317330966
 21
114.2519118506892
 31
0.0
  0
LINE
  5
AE55
  8
3
 10
115.298430794168
 20
104.1459118506891
 30
0.0
 11
99.351430317330895
 21
104.1459118506891
 31
0.0
  0
LINE
  5
AE56
  8
0
 10
115.298430794168
 20
103.1989118506891
 30
0.0
 11
100.2984303173308
 21
103.1989118506891
 31
0.0
  0
LINE
  5
AE57
  8
0
 10
98.29843031733084
 20
105.1989118506891
 30
0.0
 11
100.2984303173308
 21
103.1989118506891
 31
0.0
  0
LINE
  5
AE58
  8
0
 10
98.298430317330926
 20
113.1989118506891
 30
0.0
 11
100.2984303173309
 21
115.1989118506892
 31
0.0
  0
LINE
  5
AE59
  8
0
 10
100.2984303173308
 20
103.1989118506891
 30
0.0
 11
100.2984303173309
 21
115.1989118506892
 31
0.0
  0
LINE
  5
AE6D
  8
1
 10
93.29843031733094
 20
39.198139759284338
 30
0.0
 11
158.29843031733091
 21
39.198139759284189
 31
0.0
  0
LINE
  5
AE6E
  8
0
 10
153.29843031733091
 20
51.198911850689051
 30
0.0
 11
153.29843031733091
 21
27.198911850689068
 31
0.0
  0
LINE
  5
AE6F
  8
0
 10
152.79843031733091
 20
51.198911850689072
 30
0.0
 11
153.29843031733091
 21
51.198911850689051
 31
0.0
  0
LINE
  5
AE70
  8
0
 10
152.79843031733091
 20
27.198911850689068
 30
0.0
 11
152.79843031733091
 21
51.198911850689072
 31
0.0
  0
LINE
  5
AE71
  8
0
 10
153.29843031733091
 20
27.198911850689068
 30
0.0
 11
152.79843031733091
 21
27.198911850689068
 31
0.0
  0
LINE
  5
AE72
  8
0
 10
98.298430317330883
 20
35.198911850689122
 30
0.0
 11
98.298430317330983
 21
43.198911850689107
 31
0.0
  0
LINE
  5
AE73
  8
0
 10
115.298430794168
 20
45.198911850689093
 30
0.0
 11
100.298430317331
 21
45.198911850689107
 31
0.0
  0
LINE
  5
AE74
  8
3
 10
115.298430794168
 20
44.251911850689112
 30
0.0
 11
99.351430317331037
 21
44.251911850689119
 31
0.0
  0
LINE
  5
AE75
  8
3
 10
115.298430794168
 20
34.14591185068906
 30
0.0
 11
99.351430317330937
 21
34.145911850689068
 31
0.0
  0
LINE
  5
AE76
  8
0
 10
115.298430794168
 20
33.1989118506891
 30
0.0
 11
100.2984303173308
 21
33.198911850689107
 31
0.0
  0
LINE
  5
AE77
  8
0
 10
98.298430317330883
 20
35.198911850689122
 30
0.0
 11
100.2984303173308
 21
33.198911850689107
 31
0.0
  0
LINE
  5
AE78
  8
0
 10
98.298430317330983
 20
43.198911850689107
 30
0.0
 11
100.298430317331
 21
45.198911850689107
 31
0.0
  0
LINE
  5
AE79
  8
0
 10
100.2984303173309
 20
33.1989118506891
 30
0.0
 11
100.298430317331
 21
45.198911850689129
 31
0.0
  0
CIRCLE
  5
AF30
  8
0
 10
206.05156944526391
 20
109.1981397592843
 30
0.0
 40
13.585786437626879
  0
CIRCLE
  5
AF31
  8
0
 10
206.05156944526391
 20
109.1981397592843
 30
0.0
 40
18.194538360250998
  0
LINE
  5
AF32
  8
1
 10
230.701569445264
 20
109.1981397592842
 30
0.0
 11
181.4015694452639
 21
109.1981397592842
 31
0.0
  0
LINE
  5
AF33
  8
1
 10
206.05156944526391
 20
133.84813975928441
 30
0.0
 11
206.05156944526391
 21
84.548139759284354
 31
0.0
  0
CIRCLE
  5
AF34
  8
0
 10
206.05156944526391
 20
109.1981397592843
 30
0.0
 40
19.649999999999999
  0
LINE
  5
AF35
  8
0
 10
202.05156944526439
 20
106.8887386825262
 30
0.0
 11
206.05156944526439
 21
104.57933760576761
 31
0.0
  0
LINE
  5
AF36
  8
0
 10
206.05156944526439
 20
104.57933760576761
 30
0.0
 11
210.05156944526391
 21
106.8887386825262
 31
0.0
  0
LINE
  5
AF37
  8
0
 10
210.05156944526391
 20
106.8887386825262
 30
0.0
 11
210.05156944526391
 21
111.5075408360439
 31
0.0
  0
LINE
  5
AF38
  8
0
 10
210.05156944526391
 20
111.5075408360439
 30
0.0
 11
206.05156944526391
 21
113.8169419128015
 31
0.0
  0
LINE
  5
AF39
  8
0
 10
206.05156944526391
 20
113.8169419128015
 30
0.0
 11
202.05156944526351
 21
111.50754083604249
 31
0.0
  0
LINE
  5
AF3A
  8
0
 10
202.05156944526351
 20
111.50754083604249
 30
0.0
 11
202.05156944526439
 21
106.8887386825262
 31
0.0
  0
CIRCLE
  5
AF3B
  8
0
 10
206.05156944526391
 20
109.1981397592843
 30
0.0
 40
12.0
  0
ARC
  5
AF9E
  8
0
 10
206.05156944526391
 20
109.1981397592842
 30
0.0
 40
18.618780246597449
 50
105.8000000000022
 51
254.2000000000186
  0
LINE
  5
AF9F
  8
0
 10
202.75354317823221
 20
127.64070498413371
 30
0.0
 11
200.98204336012631
 21
127.11346513012791
 31
0.0
  0
ARC
  5
AFA2
  8
0
 10
206.05156944526391
 20
109.1981397592842
 30
0.0
 40
18.61878024659746
 50
285.79999999999092
 51
74.199999999997758
  0
ARC
  5
AFA8
  8
0
 10
206.05156944526391
 20
109.1981397592842
 30
0.0
 40
18.735132487678481
 50
79.861145374208988
 51
100.13885462579179
  0
LINE
  5
AFA9
  8
0
 10
211.1210955304017
 20
127.11346513012791
 30
0.0
 11
209.34959571229581
 21
127.64070498413371
 31
0.0
  0
LINE
  5
AFAA
  8
0
 10
202.54351926968431
 20
128.53246374450839
 30
0.0
 11
202.75354317823329
 21
127.6407049841341
 31
0.0
  0
LINE
  5
AFAB
  8
0
 10
200.9820433601262
 20
127.11346513012791
 30
0.0
 11
200.70126259091671
 21
128.10572333213469
 31
0.0
  0
LINE
  5
AFAD
  8
0
 10
211.4018762996113
 20
128.10572333213469
 30
0.0
 11
211.1210955304017
 21
127.11346513012791
 31
0.0
  0
LINE
  5
AFAE
  8
0
 10
209.3495957122945
 20
127.6407049841341
 30
0.0
 11
209.55961962084331
 21
128.5324637445085
 31
0.0
  0
LINE
  5
AFC7
  8
0
 10
129.2984302949792
 20
90.755574184042246
 30
0.0
 11
122.07727309806999
 21
89.766362460833818
 31
0.0
  0
LINE
  5
AFC8
  8
0
 10
129.2984302949792
 20
90.46300664780739
 30
0.0
 11
129.2984302949792
 21
90.755574184042246
 31
0.0
  0
LINE
  5
AFC9
  8
0
 10
129.41478321819361
 20
91.28281451998356
 30
0.0
 11
129.2984302949792
 21
90.755574184042246
 31
0.0
  0
LINE
  5
AFCA
  8
0
 10
122.07727309806999
 20
89.766362460833818
 30
0.0
 11
122.07727309806999
 21
89.548139759284396
 31
0.0
  0
POLYLINE
  5
AFCB
  8
0
 66
     1
 10
0.0
 20
0.0
 30
0.0
 70
   128
  0
VERTEX
  5
B154
  8
0
 10
121.3657361318057
 20
90.194334986192018
 30
0.0
  0
VERTEX
  5
B155
  8
0
 10
121.4052747332191
 20
90.077560173851282
 30
0.0
  0
VERTEX
  5
B156
  8
0
 10
121.52394560190641
 20
89.970519545060426
 30
0.0
  0
VERTEX
  5
B157
  8
0
 10
121.7590808032712
 20
89.859258162361414
 30
0.0
  0
VERTEX
  5
B158
  8
0
 10
122.07727309806999
 20
89.766362460833818
 30
0.0
  0
SEQEND
  5
B159
  8
0
  0
LINE
  5
AFCC
  8
0
 10
121.3657361318057
 20
90.194334986192018
 30
0.0
 11
129.41478321819361
 21
91.28281451998356
 31
0.0
  0
LINE
  5
AFCD
  8
0
 10
129.2984302949792
 20
90.46300664780739
 30
0.0
 11
122.07727309806999
 21
89.548139759284396
 31
0.0
  0
LINE
  5
AFCE
  8
0
 10
122.07727309806999
 20
89.548139759284396
 30
0.0
 11
120.2984306824094
 21
89.548139759284396
 31
0.0
  0
LINE
  5
AFCF
  8
0
 10
202.75354317823229
 20
90.755574534434786
 30
0.0
 11
200.98204336012631
 21
91.282814388440613
 31
0.0
  0
ARC
  5
AFD0
  8
0
 10
206.05156944526391
 20
109.1981397592842
 30
0.0
 40
18.735132487678481
 50
259.86114537420821
 51
280.13885462579128
  0
LINE
  5
AFD1
  8
0
 10
211.1210955304017
 20
91.282814388440585
 30
0.0
 11
209.34959571229581
 21
90.755574534434786
 31
0.0
  0
LINE
  5
AFD2
  8
0
 10
202.54351926968431
 20
89.863815774060072
 30
0.0
 11
202.7535431782334
 21
90.755574534434416
 31
0.0
  0
LINE
  5
AFD3
  8
0
 10
200.9820433601262
 20
91.282814388440613
 30
0.0
 11
200.70126259091671
 21
90.290556186433832
 31
0.0
  0
LINE
  5
AFD4
  8
0
 10
211.4018762996113
 20
90.290556186433832
 30
0.0
 11
211.1210955304017
 21
91.282814388440585
 31
0.0
  0
LINE
  5
AFD5
  8
0
 10
209.34959571229459
 20
90.755574534434416
 30
0.0
 11
209.55961962084331
 21
89.863815774060015
 31
0.0
  0
LINE
  5
B09E
  8
1
 10
29.545291189397862
 20
112.7481397592842
 30
0.0
 11
29.545291189397862
 21
105.64813975928421
 31
0.0
  0
CIRCLE
  5
B0A2
  8
0
 10
29.545291189397862
 20
109.1981397592842
 30
0.0
 40
1.55
  0
ENDSEC
  0
EOF
