  0
SECTION
  2
HEADER
  9
$ACADVER
  1
AC1009
  9
$INSBASE
 10
0.0
 20
0.0
 30
0.0
  9
$EXTMIN
 10
-0.0204638472032742
 20
-2.960436562073669
 30
0.0
  9
$EXTMAX
 10
582.73272054746826
 20
263.09297501789388
 30
0.0
  9
$LIMMIN
 10
0.0
 20
0.0
  9
$LIMMAX
 10
187.5
 20
135.0
  9
$ORTHOMODE
 70
     1
  9
$REGENMODE
 70
     1
  9
$FILLMODE
 70
     1
  9
$QTEXTMODE
 70
     0
  9
$MIRRTEXT
 70
     0
  9
$DRAGMODE
 70
     2
  9
$LTSCALE
 40
5.0
  9
$OSMODE
 70
  3071
  9
$ATTMODE
 70
     1
  9
$TEXTSIZE
 40
2.5
  9
$TRACEWID
 40
0.05
  9
$TEXTSTYLE
  7
STANDARD
  9
$CLAYER
  8
0
  9
$CELTYPE
  6
BYLAYER
  9
$CECOLOR
 62
   256
  9
$DIMSCALE
 40
0.5
  9
$DIMASZ
 40
3.0
  9
$DIMEXO
 40
2.0
  9
$DIMDLI
 40
10.0
  9
$DIMRND
 40
0.0
  9
$DIMDLE
 40
0.0
  9
$DIMEXE
 40
2.0
  9
$DIMTP
 40
0.0
  9
$DIMTM
 40
0.0
  9
$DIMTXT
 40
3.0
  9
$DIMCEN
 40
0.09
  9
$DIMTSZ
 40
0.0
  9
$DIMTOL
 70
     0
  9
$DIMLIM
 70
     0
  9
$DIMTIH
 70
     0
  9
$DIMTOH
 70
     0
  9
$DIMSE1
 70
     0
  9
$DIMSE2
 70
     0
  9
$DIMTAD
 70
     1
  9
$DIMZIN
 70
     0
  9
$DIMBLK
  1

  9
$DIMASO
 70
     0
  9
$DIMSHO
 70
     0
  9
$DIMPOST
  1

  9
$DIMAPOST
  1

  9
$DIMALT
 70
     0
  9
$DIMALTD
 70
     2
  9
$DIMALTF
 40
25.399999999999999
  9
$DIMLFAC
 40
1.0
  9
$DIMTOFL
 70
     1
  9
$DIMTVP
 40
1.6000000000000001
  9
$DIMTIX
 70
     1
  9
$DIMSOXD
 70
     0
  9
$DIMSAH
 70
     0
  9
$DIMBLK1
  1

  9
$DIMBLK2
  1

  9
$DIMSTYLE
  2
STANDARD
  9
$DIMCLRD
 70
     0
  9
$DIMCLRE
 70
     0
  9
$DIMCLRT
 70
     0
  9
$DIMTFAC
 40
1.0
  9
$DIMGAP
 40
0.09
  9
$LUNITS
 70
     2
  9
$LUPREC
 70
     4
  9
$SKETCHINC
 40
0.1
  9
$FILLETRAD
 40
0.0
  9
$AUNITS
 70
     0
  9
$AUPREC
 70
     0
  9
$MENU
  1
E:\r13\win\SUPPORT\ACAD
  9
$ELEVATION
 40
0.0
  9
$PELEVATION
 40
0.0
  9
$THICKNESS
 40
0.0
  9
$LIMCHECK
 70
     0
  9
$BLIPMODE
 70
     0
  9
$CHAMFERA
 40
1.6000000000000001
  9
$CHAMFERB
 40
1.6000000000000001
  9
$SKPOLY
 70
     0
  9
$TDCREATE
 40
2449840.5944097228
  9
$TDUPDATE
 40
2456597.5624759379
  9
$TDINDWG
 40
0.2299825926
  9
$TDUSRTIMER
 40
0.2299825926
  9
$USRTIMER
 70
     1
  9
$ANGBASE
 50
0.0
  9
$ANGDIR
 70
     0
  9
$PDMODE
 70
     0
  9
$PDSIZE
 40
0.0
  9
$PLINEWID
 40
0.0
  9
$COORDS
 70
     1
  9
$SPLFRAME
 70
     0
  9
$SPLINETYPE
 70
     6
  9
$SPLINESEGS
 70
     8
  9
$ATTDIA
 70
     0
  9
$ATTREQ
 70
     1
  9
$HANDLING
 70
     1
  9
$HANDSEED
  5
3808
  9
$SURFTAB1
 70
     6
  9
$SURFTAB2
 70
     6
  9
$SURFTYPE
 70
     6
  9
$SURFU
 70
     6
  9
$SURFV
 70
     6
  9
$UCSNAME
  2

  9
$UCSORG
 10
0.0
 20
0.0
 30
0.0
  9
$UCSXDIR
 10
1.0
 20
0.0
 30
0.0
  9
$UCSYDIR
 10
0.0
 20
1.0
 30
0.0
  9
$PUCSNAME
  2

  9
$PUCSORG
 10
0.0
 20
0.0
 30
0.0
  9
$PUCSXDIR
 10
1.0
 20
0.0
 30
0.0
  9
$PUCSYDIR
 10
0.0
 20
1.0
 30
0.0
  9
$USERI1
 70
     0
  9
$USERI2
 70
     1
  9
$USERI3
 70
     1
  9
$USERI4
 70
     0
  9
$USERI5
 70
     0
  9
$USERR1
 40
0.0
  9
$USERR2
 40
0.0
  9
$USERR3
 40
0.0
  9
$USERR4
 40
0.0
  9
$USERR5
 40
0.0
  9
$WORLDVIEW
 70
     1
  9
$SHADEDGE
 70
     3
  9
$SHADEDIF
 70
    70
  9
$TILEMODE
 70
     1
  9
$MAXACTVP
 70
    16
  9
$PLIMCHECK
 70
     0
  9
$PEXTMIN
 10
1.0000000000000000E+020
 20
1.0000000000000000E+020
 30
1.0000000000000000E+020
  9
$PEXTMAX
 10
-1.0000000000000000E+020
 20
-1.0000000000000000E+020
 30
-1.0000000000000000E+020
  9
$PLIMMIN
 10
0.0
 20
0.0
  9
$PLIMMAX
 10
12.0
 20
9.0
  9
$UNITMODE
 70
     0
  9
$VISRETAIN
 70
     0
  9
$PLINEGEN
 70
     0
  9
$PSLTSCALE
 70
     0
  0
ENDSEC
  0
SECTION
  2
TABLES
  0
TABLE
  2
VPORT
 70
     1
  0
VPORT
  2
*ACTIVE
 70
     0
 10
0.0
 20
0.0
 11
1.0
 21
1.0
 12
300.39693766623458
 22
130.061130442218
 13
0.0
 23
0.0
 14
5.0
 24
5.0
 15
5.0
 25
5.0
 16
0.0
 26
0.0
 36
1.0
 17
0.0
 27
0.0
 37
0.0
 40
329.64101673527603
 41
1.831871345029239
 42
50.0
 43
0.0
 44
0.0
 50
0.0
 51
0.0
 71
     0
 72
   100
 73
     1
 74
     0
 75
     0
 76
     0
 77
     0
 78
     0
  0
ENDTAB
  0
TABLE
  2
LTYPE
 70
     4
  0
LTYPE
  2
CONTINUOUS
 70
     0
  3
Solid Line
 72
    65
 73
     0
 40
0.0
  0
LTYPE
  2
CENTER
 70
     0
  3
____ _ ____ _ ____ _ ____ _ ____ _ ____ _ ____
 72
    65
 73
     4
 40
2.0
 49
1.25
 49
-0.25
 49
0.25
 49
-0.25
  0
LTYPE
  2
HIDDEN
 70
     0
  3
_ _ _ _ _ _ _ _ _ _ _ _ _ _ _ _ _ _ _ _ _ _ _
 72
    65
 73
     2
 40
0.375
 49
0.25
 49
-0.125
  0
LTYPE
  2
PHANTOM2
 70
     0
  3
___ _ _ ___ _ _ ___ _ _ ___ _ _
 72
    65
 73
     6
 40
1.25
 49
0.625
 49
-0.125
 49
0.125
 49
-0.125
 49
0.125
 49
-0.125
  0
ENDTAB
  0
TABLE
  2
LAYER
 70
     4
  0
LAYER
  2
0
 70
     0
 62
     7
  6
CONTINUOUS
  0
LAYER
  2
1
 70
     0
 62
     1
  6
CENTER
  0
LAYER
  2
2
 70
     0
 62
     2
  6
HIDDEN
  0
LAYER
  2
4
 70
     0
 62
     1
  6
CONTINUOUS
  0
ENDTAB
  0
TABLE
  2
STYLE
 70
     5
  0
STYLE
  2
STANDARD
 70
     0
 40
0.0
 41
1.0
 50
0.0
 71
     0
 42
2.5
  3
TXT
  4
BIGFONT
  0
STYLE
  2
KANJI
 70
     0
 40
0.0
 41
1.0
 50
0.0
 71
     0
 42
5.0
  3
TXT.SHX
  4
bigfont
  0
STYLE
  2
STYLE2
 70
     0
 40
13.0
 41
1.0
 50
0.0
 71
     0
 42
2.5
  3
C:\Program Files\AutoCAD LT\txt.shx
  4
C:\Program Files\AutoCAD LT\bigfont.shx
  0
STYLE
  2
STANDARD2
 70
     0
 40
8.0
 41
1.0
 50
0.0
 71
     0
 42
0.2
  3
C:\Program Files\AutoCAD LT\txt.shx
  4
C:\Program Files\AutoCAD LT\bigfont.shx
  0
STYLE
  2
STANDARD1
 70
     0
 40
0.0
 41
1.0
 50
0.0
 71
     0
 42
3.0
  3
txt
  4

  0
ENDTAB
  0
TABLE
  2
VIEW
 70
     1
  0
VIEW
  2
ALL
 70
     0
 40
135.0
 10
110.49579799999999
 20
67.5
 41
0.0
 11
0.0
 21
0.0
 31
1.0
 12
0.0
 22
0.0
 32
0.0
 42
0.0
 43
0.0
 44
0.0
 50
0.0
 71
     0
  0
ENDTAB
  0
TABLE
  2
UCS
 70
     0
  0
ENDTAB
  0
TABLE
  2
APPID
 70
     4
  0
APPID
  2
ACAD
 70
     0
  0
APPID
  2
DCO15
 70
     0
  0
APPID
  2
ACAD_MLEADERVER
 70
     0
  0
APPID
  2
ACAD_NAV_VCDISPLAY
 70
     0
  0
ENDTAB
  0
TABLE
  2
DIMSTYLE
 70
     1
  0
DIMSTYLE
  2
STANDARD
 70
     0
  3

  4

  5

  6

  7

 40
1.0
 41
0.18
 42
0.0625
 43
0.38
 44
0.18
 45
0.0
 46
0.0
 47
0.0
 48
0.0
140
0.18
141
0.09
142
0.0
143
25.399999999999999
144
1.0
145
0.0
146
1.0
147
0.09
 71
     0
 72
     0
 73
     1
 74
     1
 75
     0
 76
     0
 77
     0
 78
     0
170
     0
171
     2
172
     0
173
     0
174
     0
175
     0
176
     0
177
     0
178
     0
  0
ENDTAB
  0
ENDSEC
  0
SECTION
  2
BLOCKS
  0
BLOCK
  8
0
  2
$MODEL_SPACE
 70
     0
 10
0.0
 20
0.0
 30
0.0
  3
$MODEL_SPACE
  1

  0
ENDBLK
  5
15D
  8
0
  0
BLOCK
 67
     1
  8
0
  2
$PAPER_SPACE
 70
     0
 10
0.0
 20
0.0
 30
0.0
  3
$PAPER_SPACE
  1

  0
ENDBLK
  5
15B
 67
     1
  8
0
  0
BLOCK
  8
0
  2
STDGX5
 70
     0
 10
0.0
 20
0.0
 30
0.0
  3
STDGX5
  1

  0
ENDBLK
  5
41
  8
0
  0
ENDSEC
  0
SECTION
  2
ENTITIES
  0
INSERT
  5
CA
  8
0
  2
STDGX5
 10
0.0
 20
0.0
 30
0.0
  0
INSERT
  5
69A
  8
0
  2
STDGX5
 10
194.3272563481562
 20
13.52129245667936
 30
0.0
  0
INSERT
  5
1343
  8
0
  2
STDGX5
 10
563.10080863610574
 20
-59.557035590067017
 30
0.0
  0
INSERT
  5
1345
  8
0
  2
STDGX5
 10
757.42806498426194
 20
-46.035743133387648
 30
0.0
  0
CIRCLE
  5
2CED
  8
0
 10
100.23272054746801
 20
259.7429750178938
 30
0.0
 40
1.9839999999999991
  0
LINE
  5
2CEF
  8
0
 10
103.132720547468
 20
260.49297501789391
 30
0.0
 11
103.132720547468
 21
245.69297501789379
 31
0.0
  0
CIRCLE
  5
2CF1
  8
0
 10
93.232720547468034
 20
259.7429750178938
 30
0.0
 40
1.9839999999999991
  0
LINE
  5
2CF3
  8
0
 10
90.332720547468057
 20
260.49297501789391
 30
0.0
 11
90.332720547468057
 21
245.69297501789379
 31
0.0
  0
LINE
  5
2CF4
  8
0
 10
88.732720547468034
 20
262.39297501789378
 30
0.0
 11
88.732720547468034
 21
243.79297501789381
 31
0.0
  0
LINE
  5
2CF5
  8
0
 10
104.73272054746801
 20
262.39297501789378
 30
0.0
 11
104.73272054746801
 21
243.79297501789381
 31
0.0
  0
LINE
  5
2CF6
  8
1
 10
83.732720547468034
 20
253.09297501789391
 30
0.0
 11
109.73272054746801
 21
253.09297501789391
 31
0.0
  0
LINE
  5
2CF9
  8
0
 10
92.243708547467918
 20
255.58897501789389
 30
0.0
 11
94.732720547468034
 21
255.58897501789389
 31
0.0
  0
ARC
  5
2CFA
  8
0
 10
93.232720547468034
 20
246.43897501789391
 30
0.0
 40
1.98
 50
19.287169223236241
 51
160.57338146313541
  0
LINE
  5
2CFB
  8
0
 10
92.243708547467918
 20
250.58897501789389
 30
0.0
 11
94.732720547468034
 21
250.58897501789389
 31
0.0
  0
LINE
  5
2CFC
  8
0
 10
89.43272054746808
 20
243.09297501789391
 30
0.0
 11
95.232720547468034
 21
243.09297501789391
 31
0.0
  0
CIRCLE
  5
2CFD
  8
0
 10
93.232720547468034
 20
246.44297501789379
 30
0.0
 40
1.9839999999999991
  0
ARC
  5
2CFE
  8
0
 10
93.232720547468034
 20
246.44297501789379
 30
0.0
 40
2.0
 50
202.0243130000033
 51
337.97568699999658
  0
LINE
  5
2D00
  8
0
 10
90.332720547468057
 20
245.69297501789379
 30
0.0
 11
91.378671047467947
 21
245.69297501789379
 31
0.0
  0
ARC
  5
2D01
  8
0
 10
87.232720547468034
 20
253.08897501789389
 30
0.0
 40
5.5999999999999988
 50
311.35437099999427
 51
333.48522500000348
  0
LINE
  5
2D02
  8
0
 10
90.93272054746808
 20
248.88540510649719
 30
0.0
 11
90.93272054746808
 21
247.59297501789391
 31
0.0
  0
ARC
  5
2D04
  8
0
 10
91.432720547468065
 20
247.59297501789391
 30
0.0
 40
0.5
 50
180.0
 51
262.26738720959389
  0
ARC
  5
2D05
  8
0
 10
87.232720547468034
 20
253.08897501789389
 30
0.0
 40
5.5999999999999988
 50
26.514774999996462
 51
48.645629000005648
  0
ARC
  5
2D06
  8
0
 10
89.43272054746808
 20
243.79297501789381
 30
0.0
 40
0.7
 50
180.0
 51
270.0
  0
LINE
  5
2D08
  8
0
 10
101.22173254746789
 20
255.58897501789389
 30
0.0
 11
98.732720547468034
 21
255.58897501789389
 31
0.0
  0
LINE
  5
2D09
  8
0
 10
103.132720547468
 20
245.69297501789379
 30
0.0
 11
102.08677004746799
 21
245.69297501789379
 31
0.0
  0
LINE
  5
2D0A
  8
0
 10
102.532720547468
 20
248.88540510649719
 30
0.0
 11
102.532720547468
 21
247.59297501789391
 31
0.0
  0
LINE
  5
2D0B
  8
0
 10
101.22173254746789
 20
250.58897501789389
 30
0.0
 11
98.732720547468034
 21
250.58897501789389
 31
0.0
  0
ARC
  5
2D0C
  8
0
 10
100.23272054746801
 20
246.43897501789391
 30
0.0
 40
1.98
 50
19.42661853686446
 51
160.7128307767637
  0
ARC
  5
2D0E
  8
0
 10
102.032720547468
 20
247.59297501789391
 30
0.0
 40
0.5
 50
277.7326127904069
 51
0.0
  0
ARC
  5
2D0F
  8
0
 10
106.23272054746801
 20
253.08897501789389
 30
0.0
 40
5.5999999999999988
 50
206.5147749999964
 51
228.64562900000499
  0
LINE
  5
2D10
  8
0
 10
98.732720547468034
 20
255.58897501789389
 30
0.0
 11
98.732720547468034
 21
250.58897501789389
 31
0.0
  0
ARC
  5
2D11
  8
0
 10
106.23272054746801
 20
253.08897501789389
 30
0.0
 40
5.5999999999999988
 50
131.3543709999943
 51
153.48522500000351
  0
LINE
  5
2D12
  8
0
 10
95.086770047467994
 20
245.69297501789379
 30
0.0
 11
95.93272054746808
 21
245.69297501789379
 31
0.0
  0
LINE
  5
2D13
  8
0
 10
94.732720547468034
 20
255.58897501789389
 30
0.0
 11
94.732720547468034
 21
250.58897501789389
 31
0.0
  0
LINE
  5
2D14
  8
0
 10
98.378671047467947
 20
245.69297501789379
 30
0.0
 11
97.532720547467989
 21
245.69297501789379
 31
0.0
  0
LINE
  5
2D15
  8
0
 10
98.363848160171372
 20
247.09297501789391
 30
0.0
 11
95.10159293476471
 21
247.09297501789391
 31
0.0
  0
ARC
  5
2D16
  8
0
 10
104.032720547468
 20
243.79297501789381
 30
0.0
 40
0.7
 50
270.0
 51
0.0
  0
LINE
  5
2D17
  8
0
 10
104.032720547468
 20
243.09297501789391
 30
0.0
 11
98.232720547468034
 21
243.09297501789391
 31
0.0
  0
ARC
  5
2D18
  8
0
 10
95.232720547468034
 20
243.79297501789381
 30
0.0
 40
0.7
 50
270.0
 51
0.0
  0
ARC
  5
2D19
  8
0
 10
98.232720547468034
 20
243.79297501789381
 30
0.0
 40
0.7
 50
180.0
 51
270.0
  0
CIRCLE
  5
2D1A
  8
0
 10
100.23272054746801
 20
246.44297501789379
 30
0.0
 40
1.9839999999999991
  0
ARC
  5
2D1B
  8
0
 10
100.23272054746801
 20
246.44297501789379
 30
0.0
 40
2.0
 50
202.0243130000033
 51
337.97568699999658
  0
LINE
  5
2D1C
  8
0
 10
95.93272054746808
 20
245.69297501789379
 30
0.0
 11
95.93272054746808
 21
243.79297501789381
 31
0.0
  0
LINE
  5
2D1D
  8
0
 10
97.532720547467989
 20
245.69297501789379
 30
0.0
 11
97.532720547467989
 21
243.79297501789381
 31
0.0
  0
ARC
  5
2D1F
  8
0
 10
93.232720547468034
 20
259.7429750178938
 30
0.0
 40
2.0
 50
22.024313000003371
 51
157.97568699999661
  0
LINE
  5
2D20
  8
0
 10
89.43272054746808
 20
263.09297501789388
 30
0.0
 11
95.232720547468034
 21
263.09297501789388
 31
0.0
  0
LINE
  5
2D21
  8
0
 10
90.332720547468057
 20
260.49297501789391
 30
0.0
 11
91.378671047467947
 21
260.49297501789391
 31
0.0
  0
ARC
  5
2D23
  8
0
 10
89.43272054746808
 20
262.39297501789378
 30
0.0
 40
0.7
 50
90.0
 51
180.0
  0
LINE
  5
2D24
  8
0
 10
104.032720547468
 20
263.09297501789388
 30
0.0
 11
98.232720547468034
 21
263.09297501789388
 31
0.0
  0
LINE
  5
2D25
  8
0
 10
103.132720547468
 20
260.49297501789391
 30
0.0
 11
102.08677004746799
 21
260.49297501789391
 31
0.0
  0
ARC
  5
2D27
  8
0
 10
100.23272054746801
 20
259.7429750178938
 30
0.0
 40
2.0
 50
22.024313000003371
 51
157.97568699999661
  0
ARC
  5
2D28
  8
0
 10
104.032720547468
 20
262.39297501789378
 30
0.0
 40
0.7
 50
0.0
 51
90.0
  0
LINE
  5
2D29
  8
0
 10
95.086770047467994
 20
260.49297501789391
 30
0.0
 11
95.93272054746808
 21
260.49297501789391
 31
0.0
  0
LINE
  5
2D2A
  8
0
 10
95.93272054746808
 20
262.39297501789378
 30
0.0
 11
95.93272054746808
 21
260.49297501789391
 31
0.0
  0
LINE
  5
2D2B
  8
0
 10
97.532720547467989
 20
262.39297501789378
 30
0.0
 11
97.532720547467989
 21
260.49297501789391
 31
0.0
  0
ARC
  5
2D2C
  8
0
 10
95.232720547468034
 20
262.39297501789378
 30
0.0
 40
0.7
 50
0.0
 51
90.0
  0
ARC
  5
2D2D
  8
0
 10
98.232720547468034
 20
262.39297501789378
 30
0.0
 40
0.7
 50
90.0
 51
180.0
  0
LINE
  5
2D2E
  8
0
 10
98.378671047467947
 20
260.49297501789391
 30
0.0
 11
97.532720547467989
 21
260.49297501789391
 31
0.0
  0
ARC
  5
2DAD
  8
0
 10
100.23272054746801
 20
259.74697501789387
 30
0.0
 40
1.98
 50
199.28716922323619
 51
340.57338146313549
  0
ARC
  5
2DAE
  8
0
 10
93.232720547468034
 20
259.74697501789387
 30
0.0
 40
1.98
 50
199.42661853686451
 51
340.71283077676372
  0
LINE
  5
2DAF
  8
0
 10
90.93272054746808
 20
257.3005449292906
 30
0.0
 11
90.93272054746808
 21
258.59297501789388
 31
0.0
  0
LINE
  5
2DB0
  8
0
 10
102.532720547468
 20
257.3005449292906
 30
0.0
 11
102.532720547468
 21
258.59297501789388
 31
0.0
  0
LINE
  5
2DB1
  8
0
 10
98.363848160171372
 20
259.09297501789388
 30
0.0
 11
95.10159293476471
 21
259.09297501789388
 31
0.0
  0
ARC
  5
2DB2
  8
0
 10
91.432720547468065
 20
258.59297501789388
 30
0.0
 40
0.5
 50
97.732612790406165
 51
180.0
  0
ARC
  5
2DB3
  8
0
 10
102.032720547468
 20
258.59297501789388
 30
0.0
 40
0.5
 50
0.0
 51
82.267387209593068
  0
LINE
  5
3485
  8
1
 10
557.73272054746815
 20
259.09297501789388
 30
0.0
 11
557.73272054746815
 21
247.09297501789391
 31
0.0
  0
CIRCLE
  5
3486
  8
0
 10
557.73272054746815
 20
253.09297501789391
 30
0.0
 40
1.5
  0
CIRCLE
  5
3487
  8
0
 10
557.73272054746815
 20
253.09297501789391
 30
0.0
 40
3.0
  0
LINE
  5
3558
  8
0
 10
349.73272054746798
 20
263.09297501789388
 30
0.0
 11
149.73272054746801
 21
263.09297501789388
 31
0.0
  0
LINE
  5
3559
  8
2
 10
349.73272054746798
 20
261.74297501789403
 30
0.0
 11
149.73272054746801
 21
261.74297501789403
 31
0.0
  0
LINE
  5
355A
  8
0
 10
349.73272054746798
 20
243.09297501789391
 30
0.0
 11
149.73272054746801
 21
243.09297501789391
 31
0.0
  0
LINE
  5
355B
  8
2
 10
349.73272054746798
 20
245.69297501789401
 30
0.0
 11
149.73272054746801
 21
245.69297501789401
 31
0.0
  0
LINE
  5
355C
  8
2
 10
349.73272054746798
 20
260.49297501789403
 30
0.0
 11
149.73272054746801
 21
260.49297501789403
 31
0.0
  0
LINE
  5
355D
  8
2
 10
349.73272054746798
 20
244.44297501789401
 30
0.0
 11
149.73272054746801
 21
244.44297501789401
 31
0.0
  0
LINE
  5
355E
  8
1
 10
139.73272054746801
 20
253.09297501789391
 30
0.0
 11
582.73272054746826
 21
253.09297501789391
 31
0.0
  0
LINE
  5
3566
  8
0
 10
149.73272054746801
 20
263.09297501789388
 30
0.0
 11
149.73272054746801
 21
253.09297501789391
 31
0.0
  0
LINE
  5
3567
  8
0
 10
149.73272054746801
 20
243.09297501789391
 30
0.0
 11
149.73272054746801
 21
263.09297501789388
 31
0.0
  0
LINE
  5
356D
  8
0
 10
349.73272054746798
 20
248.42697501789391
 30
0.0
 11
461.23272054746832
 21
248.42697501789391
 31
0.0
  0
LINE
  5
356E
  8
0
 10
349.73272054746798
 20
257.74297501789403
 30
0.0
 11
461.23272054746832
 21
257.74297501789403
 31
0.0
  0
LINE
  5
3570
  8
0
 10
349.73272054746798
 20
247.09297501789391
 30
0.0
 11
461.23272054746832
 21
247.09297501789391
 31
0.0
  0
LINE
  5
3571
  8
0
 10
349.73272054746798
 20
259.09297501789388
 30
0.0
 11
461.23272054746832
 21
259.09297501789388
 31
0.0
  0
LINE
  5
3572
  8
0
 10
372.73272054746798
 20
263.09297501789388
 30
0.0
 11
572.73272054746815
 21
263.09297501789388
 31
0.0
  0
LINE
  5
3573
  8
0
 10
372.73272054746798
 20
243.09297501789391
 30
0.0
 11
572.73272054746815
 21
243.09297501789391
 31
0.0
  0
LINE
  5
3574
  8
0
 10
372.73272054746798
 20
260.49297501789403
 30
0.0
 11
572.73272054746815
 21
260.49297501789403
 31
0.0
  0
LINE
  5
3575
  8
0
 10
372.73272054746798
 20
245.69297501789401
 30
0.0
 11
572.73272054746815
 21
245.69297501789401
 31
0.0
  0
LINE
  5
3576
  8
2
 10
372.73272054746798
 20
261.74297501789403
 30
0.0
 11
572.73272054746815
 21
261.74297501789403
 31
0.0
  0
LINE
  5
3577
  8
2
 10
372.73272054746798
 20
244.44297501789401
 30
0.0
 11
572.73272054746815
 21
244.44297501789401
 31
0.0
  0
LINE
  5
3578
  8
2
 10
349.73272054746798
 20
259.09297501789388
 30
0.0
 11
261.23272054746798
 21
259.09297501789388
 31
0.0
  0
LINE
  5
3579
  8
2
 10
349.73272054746798
 20
247.09297501789391
 30
0.0
 11
261.23272054746798
 21
247.09297501789391
 31
0.0
  0
LINE
  5
3582
  8
2
 10
261.23272054746798
 20
259.09297501789388
 30
0.0
 11
261.23272054746798
 21
247.09297501789391
 31
0.0
  0
LINE
  5
3587
  8
0
 10
349.73272054746798
 20
263.09297501789388
 30
0.0
 11
349.73272054746798
 21
243.09297501789391
 31
0.0
  0
LINE
  5
3588
  8
0
 10
372.73272054746798
 20
259.09297501789388
 30
0.0
 11
372.73272054746798
 21
263.09297501789388
 31
0.0
  0
LINE
  5
3589
  8
0
 10
372.73272054746798
 20
247.09297501789391
 30
0.0
 11
372.73272054746798
 21
243.09297501789391
 31
0.0
  0
LINE
  5
358E
  8
0
 10
372.73272054746798
 20
263.09297501789388
 30
0.0
 11
372.73272054746798
 21
259.09297501789388
 31
0.0
  0
LINE
  5
358F
  8
0
 10
372.73272054746798
 20
259.09297501789388
 30
0.0
 11
372.73272054746798
 21
263.09297501789388
 31
0.0
  0
LINE
  5
3590
  8
0
 10
372.73272054746798
 20
259.09297501789388
 30
0.0
 11
372.73272054746798
 21
263.09297501789388
 31
0.0
  0
LINE
  5
3591
  8
0
 10
372.73272054746798
 20
243.09297501789391
 30
0.0
 11
372.73272054746798
 21
247.09297501789391
 31
0.0
  0
LINE
  5
3592
  8
0
 10
372.73272054746798
 20
247.09297501789391
 30
0.0
 11
372.73272054746798
 21
243.09297501789391
 31
0.0
  0
LINE
  5
3593
  8
0
 10
372.73272054746798
 20
247.09297501789391
 30
0.0
 11
372.73272054746798
 21
243.09297501789391
 31
0.0
  0
LINE
  5
3599
  8
0
 10
461.23272054746832
 20
247.09297501789391
 30
0.0
 11
461.23272054746832
 21
259.09297501789388
 31
0.0
  0
LINE
  5
359B
  8
0
 10
572.73272054746815
 20
263.09297501789388
 30
0.0
 11
572.73272054746815
 21
243.09297501789391
 31
0.0
  0
CIRCLE
  5
366D
  8
2
 10
164.73272054746801
 20
253.09297501789391
 30
0.0
 40
3.0
  0
LINE
  5
366E
  8
1
 10
164.73272054746801
 20
259.09297501789388
 30
0.0
 11
164.73272054746801
 21
247.09297501789391
 31
0.0
  0
CIRCLE
  5
366F
  8
0
 10
164.73272054746801
 20
253.09297501789391
 30
0.0
 40
1.5
  0
LINE
  5
3671
  8
1
 10
249.73272054746801
 20
259.09297501789388
 30
0.0
 11
249.73272054746801
 21
247.09297501789391
 31
0.0
  0
CIRCLE
  5
3672
  8
2
 10
249.73272054746801
 20
253.09297501789391
 30
0.0
 40
3.0
  0
CIRCLE
  5
3673
  8
0
 10
249.73272054746801
 20
253.09297501789391
 30
0.0
 40
1.5
  0
CIRCLE
  5
3674
  8
2
 10
334.73272054746798
 20
253.09297501789391
 30
0.0
 40
3.0
  0
LINE
  5
3675
  8
1
 10
334.73272054746798
 20
259.09297501789388
 30
0.0
 11
334.73272054746798
 21
247.09297501789391
 31
0.0
  0
CIRCLE
  5
3676
  8
0
 10
334.73272054746798
 20
253.09297501789391
 30
0.0
 40
1.5
  0
CIRCLE
  5
3677
  8
0
 10
472.7327205474682
 20
253.09297501789391
 30
0.0
 40
3.0
  0
LINE
  5
3678
  8
1
 10
472.7327205474682
 20
259.09297501789388
 30
0.0
 11
472.7327205474682
 21
247.09297501789391
 31
0.0
  0
CIRCLE
  5
3679
  8
0
 10
472.7327205474682
 20
253.09297501789391
 30
0.0
 40
1.5
  0
CIRCLE
  5
367A
  8
2
 10
387.73272054746832
 20
253.09297501789391
 30
0.0
 40
3.0
  0
LINE
  5
367B
  8
1
 10
387.73272054746832
 20
259.09297501789388
 30
0.0
 11
387.73272054746832
 21
247.09297501789391
 31
0.0
  0
CIRCLE
  5
367C
  8
2
 10
387.73272054746832
 20
253.09297501789391
 30
0.0
 40
1.5
  0
LINE
  5
367E
  8
0
 10
349.73272054746798
 20
255.58897501789389
 30
0.0
 11
461.2327205474682
 21
255.58897501789389
 31
0.0
  0
LINE
  5
367F
  8
0
 10
349.73272054746798
 20
250.58897501789389
 30
0.0
 11
461.23272054746832
 21
250.58897501789389
 31
0.0
  0
TEXT
  5
3775
  8
0
 62
     3
 10
0.0
 20
0.0
 30
0.0
 40
10.0
  1
ARS20D-200
  7
STANDARD1
  0
ENDSEC
  0
EOF
