  0
SECTION
  2
HEADER
  9
$ACADVER
  1
AC1009
  9
$INSBASE
 10
0.0
 20
0.0
 30
0.0
  9
$EXTMIN
 10
-0.0204638472032742
 20
-2.9604365620736979
 30
0.0
  9
$EXTMAX
 10
222.0
 20
195.99999999999989
 30
0.0
  9
$LIMMIN
 10
0.0
 20
0.0
  9
$LIMMAX
 10
385.0
 20
270.0
  9
$ORTHOMODE
 70
     1
  9
$REGENMODE
 70
     1
  9
$FILLMODE
 70
     1
  9
$QTEXTMODE
 70
     0
  9
$MIRRTEXT
 70
     0
  9
$DRAGMODE
 70
     2
  9
$LTSCALE
 40
5.0
  9
$OSMODE
 70
    37
  9
$ATTMODE
 70
     1
  9
$TEXTSIZE
 40
4.0
  9
$TRACEWID
 40
0.05
  9
$TEXTSTYLE
  7
STANDARD
  9
$CLAYER
  8
0
  9
$CELTYPE
  6
BYLAYER
  9
$CECOLOR
 62
   256
  9
$DIMSCALE
 40
1.0
  9
$DIMASZ
 40
3.0
  9
$DIMEXO
 40
1.0
  9
$DIMDLI
 40
6.0
  9
$DIMRND
 40
0.0
  9
$DIMDLE
 40
0.0
  9
$DIMEXE
 40
1.0
  9
$DIMTP
 40
495.0
  9
$DIMTM
 40
0.0
  9
$DIMTXT
 40
3.0
  9
$DIMCEN
 40
0.0
  9
$DIMTSZ
 40
0.0
  9
$DIMTOL
 70
     0
  9
$DIMLIM
 70
     0
  9
$DIMTIH
 70
     0
  9
$DIMTOH
 70
     0
  9
$DIMSE1
 70
     0
  9
$DIMSE2
 70
     0
  9
$DIMTAD
 70
     1
  9
$DIMZIN
 70
     8
  9
$DIMBLK
  1

  9
$DIMASO
 70
     1
  9
$DIMSHO
 70
     0
  9
$DIMPOST
  1

  9
$DIMAPOST
  1

  9
$DIMALT
 70
     0
  9
$DIMALTD
 70
     2
  9
$DIMALTF
 40
25.399999999999999
  9
$DIMLFAC
 40
1.0
  9
$DIMTOFL
 70
     1
  9
$DIMTVP
 40
0.0
  9
$DIMTIX
 70
     0
  9
$DIMSOXD
 70
     0
  9
$DIMSAH
 70
     0
  9
$DIMBLK1
  1

  9
$DIMBLK2
  1

  9
$DIMSTYLE
  2
STANDARD
  9
$DIMCLRD
 70
     0
  9
$DIMCLRE
 70
     0
  9
$DIMCLRT
 70
     0
  9
$DIMTFAC
 40
1.0
  9
$DIMGAP
 40
1.0
  9
$LUNITS
 70
     2
  9
$LUPREC
 70
     1
  9
$SKETCHINC
 40
0.1
  9
$FILLETRAD
 40
2.0
  9
$AUNITS
 70
     0
  9
$AUPREC
 70
     1
  9
$MENU
  1
E:\r13\win\SUPPORT\ACAD
  9
$ELEVATION
 40
0.0
  9
$PELEVATION
 40
0.0
  9
$THICKNESS
 40
0.0
  9
$LIMCHECK
 70
     0
  9
$BLIPMODE
 70
     0
  9
$CHAMFERA
 40
0.0
  9
$CHAMFERB
 40
0.0
  9
$SKPOLY
 70
     0
  9
$TDCREATE
 40
2450541.3939600689
  9
$TDUPDATE
 40
2458232.6387119791
  9
$TDINDWG
 40
1.9569639004999999
  9
$TDUSRTIMER
 40
1.9569639004999999
  9
$USRTIMER
 70
     1
  9
$ANGBASE
 50
0.0
  9
$ANGDIR
 70
     0
  9
$PDMODE
 70
     0
  9
$PDSIZE
 40
0.0
  9
$PLINEWID
 40
0.0
  9
$COORDS
 70
     1
  9
$SPLFRAME
 70
     0
  9
$SPLINETYPE
 70
     6
  9
$SPLINESEGS
 70
     8
  9
$ATTDIA
 70
     0
  9
$ATTREQ
 70
     1
  9
$HANDLING
 70
     1
  9
$HANDSEED
  5
1DB45
  9
$SURFTAB1
 70
     6
  9
$SURFTAB2
 70
     6
  9
$SURFTYPE
 70
     6
  9
$SURFU
 70
     6
  9
$SURFV
 70
     6
  9
$UCSNAME
  2

  9
$UCSORG
 10
0.0
 20
0.0
 30
0.0
  9
$UCSXDIR
 10
1.0
 20
0.0
 30
0.0
  9
$UCSYDIR
 10
0.0
 20
1.0
 30
0.0
  9
$PUCSNAME
  2

  9
$PUCSORG
 10
0.0
 20
0.0
 30
0.0
  9
$PUCSXDIR
 10
1.0
 20
0.0
 30
0.0
  9
$PUCSYDIR
 10
0.0
 20
1.0
 30
0.0
  9
$USERI1
 70
     3
  9
$USERI2
 70
     1
  9
$USERI3
 70
     1
  9
$USERI4
 70
     0
  9
$USERI5
 70
     0
  9
$USERR1
 40
1.0
  9
$USERR2
 40
3.0
  9
$USERR3
 40
3.0
  9
$USERR4
 40
3.0
  9
$USERR5
 40
10.0
  9
$WORLDVIEW
 70
     1
  9
$SHADEDGE
 70
     3
  9
$SHADEDIF
 70
    70
  9
$TILEMODE
 70
     1
  9
$MAXACTVP
 70
    16
  9
$PLIMCHECK
 70
     0
  9
$PEXTMIN
 10
1.0000000000000000E+020
 20
1.0000000000000000E+020
 30
1.0000000000000000E+020
  9
$PEXTMAX
 10
-1.0000000000000000E+020
 20
-1.0000000000000000E+020
 30
-1.0000000000000000E+020
  9
$PLIMMIN
 10
0.0
 20
0.0
  9
$PLIMMAX
 10
12.0
 20
9.0
  9
$UNITMODE
 70
     0
  9
$VISRETAIN
 70
     0
  9
$PLINEGEN
 70
     0
  9
$PSLTSCALE
 70
     0
  0
ENDSEC
  0
SECTION
  2
TABLES
  0
TABLE
  2
VPORT
 70
     1
  0
VPORT
  2
*ACTIVE
 70
     0
 10
0.0
 20
0.0
 11
1.0
 21
1.0
 12
227.02991452991449
 22
125.0
 13
0.0
 23
0.0
 14
5.0
 24
5.0
 15
10.0
 25
10.0
 16
0.0
 26
0.0
 36
1.0
 17
0.0
 27
0.0
 37
0.0
 40
250.0
 41
1.816239316239316
 42
50.0
 43
0.0
 44
0.0
 50
0.0
 51
0.0
 71
     0
 72
   100
 73
     1
 74
     0
 75
     0
 76
     0
 77
     0
 78
     0
  0
ENDTAB
  0
TABLE
  2
LTYPE
 70
     4
  0
LTYPE
  2
CONTINUOUS
 70
     0
  3
Solid Line
 72
    65
 73
     0
 40
0.0
  0
LTYPE
  2
CENTER
 70
     0
  3
____ _ ____ _ ____ _ ____ _ ____ _ ____ _ ____
 72
    65
 73
     4
 40
2.0
 49
1.25
 49
-0.25
 49
0.25
 49
-0.25
  0
LTYPE
  2
HIDDEN
 70
     0
  3
_ _ _ _ _ _ _ _ _ _ _ _ _ _ _ _ _ _ _ _ _ _ _
 72
    65
 73
     2
 40
0.375
 49
0.25
 49
-0.125
  0
LTYPE
  2
PHANTOM2
 70
     0
  3
___ _ _ ___ _ _ ___ _ _ ___ _ _
 72
    65
 73
     6
 40
1.25
 49
0.625
 49
-0.125
 49
0.125
 49
-0.125
 49
0.125
 49
-0.125
  0
ENDTAB
  0
TABLE
  2
LAYER
 70
     6
  0
LAYER
  2
0
 70
     0
 62
     7
  6
CONTINUOUS
  0
LAYER
  2
1
 70
     0
 62
     1
  6
CENTER
  0
LAYER
  2
2
 70
     0
 62
     2
  6
HIDDEN
  0
LAYER
  2
DEFPOINTS
 70
     0
 62
     7
  6
CONTINUOUS
  0
LAYER
  2
4
 70
     0
 62
     4
  6
CONTINUOUS
  0
LAYER
  2
3
 70
     0
 62
     3
  6
CONTINUOUS
  0
ENDTAB
  0
TABLE
  2
STYLE
 70
     2
  0
STYLE
  2
STANDARD
 70
     0
 40
0.0
 41
1.0
 50
0.0
 71
     0
 42
4.0
  3
SIMPLEX
  4
BIGFONT
  0
STYLE
  2
STANDARD1
 70
     0
 40
0.0
 41
1.0
 50
0.0
 71
     0
 42
3.0
  3
txt
  4

  0
ENDTAB
  0
TABLE
  2
VIEW
 70
     0
  0
ENDTAB
  0
TABLE
  2
UCS
 70
     0
  0
ENDTAB
  0
TABLE
  2
APPID
 70
   135
  0
APPID
  2
ACAD
 70
     0
  0
APPID
  2
ASM_BASE
 70
     0
  0
APPID
  2
ASM_EXPLO_VER_2_00
 70
     0
  0
APPID
  2
ASM_CADM_VER_12_00
 70
     0
  0
APPID
  2
ASM_BASEFORO
 70
     0
  0
APPID
  2
ASM_BASETRAVI
 70
     0
  0
APPID
  2
ASM_BASETRAVI1
 70
     0
  0
APPID
  2
ASM_GRUPPI
 70
     0
  0
APPID
  2
ASM_CADM_ALBERO
 70
     0
  0
APPID
  2
ASM_GOLE
 70
     0
  0
APPID
  2
ACAD_EXEMPT_FROM_CAD_STANDARDS
 70
     0
  0
APPID
  2
ACAD_DSTYLE_DIMJAG
 70
     0
  0
APPID
  2
ACAD_DSTYLE_DIMTALN
 70
     0
  0
APPID
  2
ACAD_MLEADERVER
 70
     0
  0
APPID
  2
ACAD_NAV_VCDISPLAY
 70
     0
  0
APPID
  2
ACAD_DSTYLE_DIMRADIAL_EXTENSION
 70
     0
  0
APPID
  2
DCO15
 70
     0
  0
APPID
  2
ACADANNOTATIVE
 70
     0
  0
APPID
  2
GENIUS_GENODEF_13
 70
     0
  0
APPID
  2
GENIUS_GENFIL_13
 70
     0
  0
APPID
  2
GENIUS_GENOBJ-N-CHA_13
 70
     0
  0
APPID
  2
GENIUS_GENOREF_13
 70
     0
  0
APPID
  2
GENIUS_GENOENT_13
 70
     0
  0
APPID
  2
GENIUS_GENBH_13
 70
     0
  0
APPID
  2
GENIUS_GENOBJ_13
 70
     0
  0
APPID
  2
GENIUS_GENOLIS_13
 70
     0
  0
APPID
  2
GENIUS_GENOBJ-NBEHI-BHF_13
 70
     0
  0
APPID
  2
GENIUS_GENOBJ-NBEHI-BHB_13
 70
     0
  0
APPID
  2
GENIUS_GENOBJ-F-PART_13
 70
     0
  0
APPID
  2
GENIUS_GEFSTDP_13
 70
     0
  0
APPID
  2
GENIUS_GENOBJ-N-RSSYM_13
 70
     0
  0
APPID
  2
GENIUS_GENSYMENT_13
 70
     0
  0
APPID
  2
GENIUS_GENOBJ-N-TIT_13
 70
     0
  0
APPID
  2
GENIUS_GENTITLE_13
 70
     0
  0
APPID
  2
GENIUS_GENZVEED_13
 70
     0
  0
APPID
  2
GENIUS_GENOBJ-N-LEADER_13
 70
     0
  0
APPID
  2
GENIUS_GENOBJ-N-FIL_13
 70
     0
  0
APPID
  2
GENIUS_GENOBJ-N-SEC_13
 70
     0
  0
APPID
  2
GENIUS_GENOBJ-N-CRS_13
 70
     0
  0
APPID
  2
GENIUS_GENOBJ-N-ZOO_13
 70
     0
  0
APPID
  2
GENIUS_GENZOO_13
 70
     0
  0
APPID
  2
GENIUS_GENOBJ-F-TOL_13
 70
     0
  0
APPID
  2
_CALL_MAC$
 70
     0
  0
APPID
  2
_FTCNV
 70
     0
  0
APPID
  2
_PHO
 70
     0
  0
APPID
  2
_CLP
 70
     0
  0
APPID
  2
MOJIGUMI_PARTS
 70
     0
  0
APPID
  2
_DBL
 70
     0
  0
APPID
  2
_PWH
 70
     0
  0
APPID
  2
_G9P
 70
     0
  0
APPID
  2
AME_SOL
 70
     0
  0
APPID
  2
HAKO_DEF
 70
     0
  0
APPID
  2
HAKO_TXT
 70
     0
  0
APPID
  2
HAKO_OVR
 70
     0
  0
APPID
  2
GENIUS_GENCFG_13
 70
     0
  0
APPID
  2
GENIUS_GENCFG0_13
 70
     0
  0
APPID
  2
GENIUS_GENCFG1_13
 70
     0
  0
APPID
  2
GENIUS_GENCFG2_13
 70
     0
  0
APPID
  2
GENIUS_GENCFG3_13
 70
     0
  0
APPID
  2
GENIUS_GENCFG4_13
 70
     0
  0
APPID
  2
GENIUS_GEVCFG0_13
 70
     0
  0
APPID
  2
GENIUS_GENHATCH_13
 70
     0
  0
APPID
  2
GENIUS_GEFCFG0_13
 70
     0
  0
APPID
  2
GENIUS_GENOBJ-N-HTC_13
 70
     0
  0
APPID
  2
AVE_RENDER
 70
     0
  0
APPID
  2
AVE_ENTITY_MATERIAL
 70
     0
  0
APPID
  2
AVE_FINISH
 70
     0
  0
APPID
  2
AVE_MATERIAL
 70
     0
  0
APPID
  2
AVE_GLOBAL
 70
     0
  0
APPID
  2
_NUM
 70
     0
  0
APPID
  2
HAKO_FNM
 70
     0
  0
APPID
  2
ACA_CADIMENU
 70
     0
  0
APPID
  2
AUTOCAD_POSTSCRIPT_FIGURE
 70
     0
  0
APPID
  2
GEV_VCCNULL_SWITCH_OFF
 70
     0
  0
APPID
  2
GENIUS_GENDTOL_13
 70
     0
  0
APPID
  2
GENIUS_GEFWELD_13
 70
     0
  0
APPID
  2
GENIUS_GENOBJ-F-WELS_13
 70
     0
  0
APPID
  2
GEVID961514679
 70
     0
  0
APPID
  2
GEVDC
 70
     0
  0
APPID
  2
GEVPT
 70
     0
  0
APPID
  2
GEVIT
 70
     0
  0
APPID
  2
VCC
 70
     0
  0
APPID
  2
GENBH
 70
     0
  0
APPID
  2
GEVMK
 70
     0
  0
APPID
  2
GENIUS_GENOBJ-F-DESC_13
 70
     0
  0
APPID
  2
GENIUS_GEFDESC_14
 70
     0
  0
APPID
  2
GENIUS_GEFPARTINS_13
 70
     0
  0
APPID
  2
GEVID961514680
 70
     0
  0
APPID
  2
GENIUS_GENTRA_14
 70
     0
  0
APPID
  2
GENIUS_GENINF13_13
 70
     0
  0
APPID
  2
GENIUS_GENOBJ-N-INFOPT_13
 70
     0
  0
APPID
  2
GENIUS_GENSCSYM_13
 70
     0
  0
APPID
  2
GENIUS_GEFINFNAM_13
 70
     0
  0
APPID
  2
GENIUS_GENREC_14
 70
     0
  0
APPID
  2
GENIUS_GENOBJ-N-REC_13
 70
     0
  0
APPID
  2
GEVID962097543
 70
     0
  0
APPID
  2
GEVID962097544
 70
     0
  0
APPID
  2
GEVID962097545
 70
     0
  0
APPID
  2
GENIUS_DUMCFG0_13
 70
     0
  0
APPID
  2
GEVID962352965
 70
     0
  0
APPID
  2
GEVID962352966
 70
     0
  0
APPID
  2
GEVID962352968
 70
     0
  0
APPID
  2
GEVRADREF
 70
     0
  0
APPID
  2
GEVID963230099
 70
     0
  0
APPID
  2
GENIUS_GENOBJ-F-FEAT_13
 70
     0
  0
APPID
  2
GENIUS_GEFFEAT_14
 70
     0
  0
APPID
  2
GEVID963230100
 70
     0
  0
APPID
  2
GEVID963230101
 70
     0
  0
APPID
  2
GENIUS_GENHINW_13
 70
     0
  0
APPID
  2
GENIUS_FIRSTVISTXT_14
 70
     0
  0
APPID
  2
GEVID971698136
 70
     0
  0
APPID
  2
GEVID972029070
 70
     0
  0
APPID
  2
MCAD_NO_VIS
 70
     0
  0
APPID
  2
ACAD_TEMP_GRAPHIC
 70
     0
  0
APPID
  2
ACATTRIBSERVICES
 70
     0
  0
APPID
  2
GENIUS_GENDIMSH_14
 70
     0
  0
APPID
  2
CONTENTTABDATA
 70
     0
  0
APPID
  2
CONTENTCURRENTTAB
 70
     0
  0
APPID
  2
GENIUS_GENBLKED_14
 70
     0
  0
APPID
  2
GENIUS_GEFINERT_13
 70
     0
  0
APPID
  2
GENIUS_GENOBJ-F-INER_13
 70
     0
  0
APPID
  2
GENIUS_GENOBJ-N-REV_13
 70
     0
  0
APPID
  2
GENIUS_GENREC_13
 70
     0
  0
APPID
  2
GENIUS_GENOBJ-N-CEN_13
 70
     0
  0
APPID
  2
_KTH
 70
     0
  0
APPID
  2
GENIUS_GENOBJ-F-ROD_13
 70
     0
  0
APPID
  2
GENIUS_GENOBJ-F-SPR_13
 70
     0
  0
APPID
  2
GENIUS_GEFSPRING_13
 70
     0
  0
APPID
  2
GENIUS_GENOBJ-F-FEM_13
 70
     0
  0
APPID
  2
GENIUS_GEFFEM_13
 70
     0
  0
APPID
  2
GENIUS_GENSCREG_13
 70
     0
  0
APPID
  2
GENIUS_GENOBJ-N-SDF_13
 70
     0
  0
APPID
  2
ACAD_DIMASSOC_DIMLFAC
 70
     0
  0
APPID
  2
ACAD_DIMASSOC_CALC_DIMLFAC
 70
     0
  0
APPID
  2
ACAD_DIMASSOC_OVERRIDDEN_D
 70
     0
  0
ENDTAB
  0
TABLE
  2
DIMSTYLE
 70
     1
  0
DIMSTYLE
  2
STANDARD
 70
     0
  3

  4

  5

  6

  7

 40
1.0
 41
0.18
 42
0.0625
 43
0.38
 44
0.18
 45
0.0
 46
0.0
 47
0.0
 48
0.0
140
0.18
141
0.09
142
0.0
143
25.399999999999999
144
1.0
145
0.0
146
1.0
147
0.09
 71
     0
 72
     0
 73
     1
 74
     1
 75
     0
 76
     0
 77
     0
 78
     0
170
     0
171
     2
172
     0
173
     0
174
     0
175
     0
176
     0
177
     0
178
     0
  0
ENDTAB
  0
ENDSEC
  0
SECTION
  2
BLOCKS
  0
BLOCK
  8
0
  2
$MODEL_SPACE
 70
     0
 10
0.0
 20
0.0
 30
0.0
  3
$MODEL_SPACE
  1

  0
ENDBLK
  5
1CD3
  8
0
  0
BLOCK
 67
     1
  8
0
  2
$PAPER_SPACE
 70
     0
 10
0.0
 20
0.0
 30
0.0
  3
$PAPER_SPACE
  1

  0
ENDBLK
  5
1CD1
 67
     1
  8
0
  0
ENDSEC
  0
SECTION
  2
ENTITIES
  0
TEXT
  5
16702
  8
0
 62
     3
 10
0.0
 20
-0.0000000000000284
 30
0.0
 40
10.0
  1
ARSH5567-F070
  7
STANDARD1
  0
LINE
  5
1D493
  8
0
 10
66.0
 20
51.453519955924953
 30
0.0
 11
66.0
 21
59.000000052154071
 31
0.0
  0
ARC
  5
1D494
  8
0
 10
65.0
 20
51.453519955924953
 30
0.0
 40
1.0000000000000231
 50
330.1820100666481
 51
0.0
  0
ARC
  5
1D495
  8
0
 10
66.873257874984574
 20
41.006968500061532
 30
0.0
 40
10.00000000000002
 50
95.771698004292929
 51
115.9333799431957
  0
LINE
  5
1D496
  8
0
 10
50.0
 20
50.0
 30
0.0
 11
62.5
 21
50.0
 31
0.0
  0
LINE
  5
1D497
  8
0
 10
50.0
 20
58.482050807568903
 30
0.0
 11
50.0
 21
50.0
 31
0.0
  0
ARC
  5
1D498
  8
0
 10
51.0
 20
58.482050807568903
 30
0.0
 40
1.000000000000004
 50
150.0
 51
180.0
  0
LINE
  5
1D499
  8
0
 10
51.876388374866337
 20
62.0
 30
0.0
 11
50.13397459621558
 21
58.982050807568889
 31
0.0
  0
ARC
  5
1D49A
  8
0
 10
52.7424137786507
 20
61.5
 30
0.0
 40
1.0000000000000071
 50
90.0
 51
149.99999999999631
  0
LINE
  5
1D49B
  8
0
 10
62.525020868128081
 20
62.5
 30
0.0
 11
52.7424137786507
 21
62.5
 31
0.0
  0
ARC
  5
1D49C
  8
0
 10
62.5
 20
59.0
 30
0.0
 40
3.5000000000000071
 50
0.0000008537736463
 51
90.0
  0
CIRCLE
  5
1D49D
  8
0
 10
77.5
 20
62.5
 30
0.0
 40
9.5
  0
ARC
  5
1D49E
  8
0
 10
62.525020868128081
 20
66.5
 30
0.0
 40
4.000000000000016
 50
270.0
 51
345.04475168335711
  0
LINE
  5
1D49F
  8
0
 10
66.5
 20
51.0
 30
0.0
 11
88.499999999999744
 21
51.0
 31
0.0
  0
ARC
  5
1D4A0
  8
0
 10
66.873257874984574
 20
41.006968500061532
 30
0.0
 40
10.00000000000002
 50
92.139106992658867
 51
95.771698004292929
  0
ARC
  5
1D4A1
  8
0
 10
88.126742125015369
 20
41.006968500061532
 30
0.0
 40
10.000000000000011
 50
64.066620056804325
 51
87.860893007341105
  0
LINE
  5
1D4A2
  8
0
 10
92.474979131871919
 20
62.5
 30
0.0
 11
102.2575862213493
 21
62.5
 31
0.0
  0
ARC
  5
1D4A3
  8
0
 10
104.0
 20
58.482050807568903
 30
0.0
 40
1.0
 50
0.0
 51
29.999999999999929
  0
LINE
  5
1D4A4
  8
0
 10
105.0
 20
58.482050807568903
 30
0.0
 11
105.0
 21
50.0
 31
0.0
  0
ARC
  5
1D4A5
  8
0
 10
92.474979131871919
 20
66.5
 30
0.0
 40
3.999999999999992
 50
194.95524831664289
 51
270.0
  0
LINE
  5
1D4A6
  8
0
 10
103.12361162513361
 20
62.0
 30
0.0
 11
104.86602540378441
 21
58.982050807568889
 31
0.0
  0
LINE
  5
1D4A7
  8
0
 10
105.0
 20
50.0
 30
0.0
 11
92.5
 21
50.0
 31
0.0
  0
ARC
  5
1D4A8
  8
0
 10
77.5
 20
62.5
 30
0.0
 40
11.500000000000011
 50
14.95524831664291
 51
270.0
  0
ARC
  5
1D4AA
  8
0
 10
102.2575862213493
 20
61.5
 30
0.0
 40
1.0000000000000071
 50
30.00000000000367
 51
90.0
  0
LINE
  5
1D4AB
  8
2
 10
63.5
 20
56.300000000000011
 30
0.0
 11
53.5
 21
56.300000000000011
 31
0.0
  0
LINE
  5
1D4AD
  8
2
 10
101.5
 20
56.300000000000011
 30
0.0
 11
91.5
 21
56.300000000000011
 31
0.0
  0
LINE
  5
1D4B2
  8
2
 10
63.5
 20
56.300000000000011
 30
0.0
 11
63.5
 21
62.355415235661731
 31
0.0
  0
LINE
  5
1D4B3
  8
2
 10
53.5
 20
62.5
 30
0.0
 11
53.5
 21
56.300000000000011
 31
0.0
  0
LINE
  5
1D4B4
  8
2
 10
61.75
 20
50.0
 30
0.0
 11
61.75
 21
56.300000000000011
 31
0.0
  0
LINE
  5
1D4B5
  8
2
 10
55.25
 20
56.300000000000011
 30
0.0
 11
55.25
 21
50.0
 31
0.0
  0
LINE
  5
1D4B6
  8
2
 10
101.5
 20
56.300000000000011
 30
0.0
 11
101.5
 21
62.5
 31
0.0
  0
LINE
  5
1D4B7
  8
2
 10
91.5
 20
62.62064236085223
 30
0.0
 11
91.5
 21
56.300000000000011
 31
0.0
  0
LINE
  5
1D4B8
  8
2
 10
99.750000000000014
 20
50.0
 30
0.0
 11
99.750000000000014
 21
56.300000000000011
 31
0.0
  0
LINE
  5
1D4B9
  8
2
 10
93.250000000000014
 20
56.300000000000011
 30
0.0
 11
93.250000000000014
 21
50.0
 31
0.0
  0
LINE
  5
1D4BB
  8
0
 10
89.0
 20
141.0
 30
0.0
 11
89.0
 21
173.99999999999989
 31
0.0
  0
LINE
  5
1D4BC
  8
0
 10
66.0
 20
190.99999999999989
 30
0.0
 11
66.0
 21
173.99999999999989
 31
0.0
  0
LINE
  5
1D4BD
  8
0
 10
66.0
 20
141.0
 30
0.0
 11
66.0
 21
124.0
 31
0.0
  0
LINE
  5
1D4BF
  8
0
 10
89.0
 20
141.0
 30
0.0
 11
66.0
 21
141.0
 31
0.0
  0
LINE
  5
1D4C0
  8
0
 10
89.0
 20
174.0
 30
0.0
 11
66.0
 21
173.99999999999989
 31
0.0
  0
LINE
  5
1D4D9
  8
0
 10
50.0
 20
124.0
 30
0.0
 11
50.0
 21
190.99999999999989
 31
0.0
  0
CIRCLE
  5
1D4DC
  8
0
 10
58.5
 20
181.49999999999989
 30
0.0
 40
3.25
  0
CIRCLE
  5
1D4DD
  8
0
 10
58.5
 20
133.49999999999989
 30
0.0
 40
3.25
  0
LINE
  5
1D4FA
  8
0
 10
105.0
 20
190.99999999999989
 30
0.0
 11
105.0
 21
124.0
 31
0.0
  0
LINE
  5
1D4FB
  8
0
 10
50.0
 20
124.0
 30
0.0
 11
105.0
 21
124.0
 31
0.0
  0
LINE
  5
1D4FC
  8
0
 10
50.0
 20
190.99999999999989
 30
0.0
 11
105.0
 21
190.99999999999989
 31
0.0
  0
CIRCLE
  5
1D4FD
  8
0
 10
96.5
 20
181.49999999999989
 30
0.0
 40
3.25
  0
CIRCLE
  5
1D4FE
  8
0
 10
96.5
 20
133.49999999999989
 30
0.0
 40
3.2499999999999849
  0
LINE
  5
1D50F
  8
0
 10
222.0
 20
74.0
 30
0.0
 11
155.0
 21
74.0
 31
0.0
  0
LINE
  5
1D511
  8
0
 10
222.0
 20
58.482050807568903
 30
0.0
 11
155.0
 21
58.482050807568903
 31
0.0
  0
LINE
  5
1D513
  8
0
 10
222.0
 20
50.0
 30
0.0
 11
155.0
 21
50.0
 31
0.0
  0
LINE
  5
1D51B
  8
0
 10
222.0
 20
62.5
 30
0.0
 11
155.0
 21
62.5
 31
0.0
  0
LINE
  5
1D521
  8
0
 10
205.0
 20
74.0
 30
0.0
 11
205.0
 21
62.5
 31
0.0
  0
LINE
  5
1D522
  8
0
 10
172.0
 20
74.0
 30
0.0
 11
172.0
 21
62.5
 31
0.0
  0
LINE
  5
1D523
  8
0
 10
155.0
 20
50.0
 30
0.0
 11
155.0
 21
74.0
 31
0.0
  0
LINE
  5
1D524
  8
0
 10
222.0
 20
50.0
 30
0.0
 11
222.0
 21
74.0
 31
0.0
  0
LINE
  5
1D526
  8
2
 10
169.5
 20
56.300000000000011
 30
0.0
 11
159.5
 21
56.300000000000011
 31
0.0
  0
LINE
  5
1D528
  8
2
 10
217.5
 20
56.300000000000011
 30
0.0
 11
207.5
 21
56.300000000000011
 31
0.0
  0
LINE
  5
1D542
  8
2
 10
169.5
 20
56.300000000000011
 30
0.0
 11
169.5
 21
62.5
 31
0.0
  0
LINE
  5
1D543
  8
2
 10
159.5
 20
62.5
 30
0.0
 11
159.5
 21
56.300000000000011
 31
0.0
  0
LINE
  5
1D544
  8
2
 10
217.5
 20
56.300000000000011
 30
0.0
 11
217.5
 21
62.5
 31
0.0
  0
LINE
  5
1D545
  8
2
 10
207.5
 20
62.5
 30
0.0
 11
207.5
 21
56.300000000000011
 31
0.0
  0
LINE
  5
1D546
  8
2
 10
167.75
 20
50.0
 30
0.0
 11
167.75
 21
56.300000000000011
 31
0.0
  0
LINE
  5
1D547
  8
2
 10
161.25
 20
56.300000000000011
 30
0.0
 11
161.25
 21
50.0
 31
0.0
  0
LINE
  5
1D548
  8
2
 10
215.75
 20
50.0
 30
0.0
 11
215.75
 21
56.300000000000011
 31
0.0
  0
LINE
  5
1D549
  8
2
 10
209.25000000000011
 20
56.300000000000011
 30
0.0
 11
209.25000000000011
 21
50.0
 31
0.0
  0
CIRCLE
  5
1D64E
  8
0
 10
96.5
 20
133.49999999999989
 30
0.0
 40
5.0
  0
CIRCLE
  5
1D64F
  8
0
 10
58.5
 20
181.49999999999989
 30
0.0
 40
5.0
  0
CIRCLE
  5
1D650
  8
0
 10
96.5
 20
181.49999999999989
 30
0.0
 40
5.0
  0
CIRCLE
  5
1D651
  8
0
 10
58.5
 20
133.49999999999989
 30
0.0
 40
5.0
  0
LINE
  5
1D7AC
  8
1
 10
77.5
 20
195.99999999999989
 30
0.0
 11
77.5
 21
119.0
 31
0.0
  0
LINE
  5
1D7AF
  8
1
 10
58.5
 20
188.49999999999989
 30
0.0
 11
58.5
 21
174.49999999999989
 31
0.0
  0
LINE
  5
1D7B0
  8
1
 10
96.5
 20
188.49999999999989
 30
0.0
 11
96.5
 21
174.49999999999989
 31
0.0
  0
LINE
  5
1D7B1
  8
1
 10
103.5
 20
181.49999999999989
 30
0.0
 11
89.500000000000014
 21
181.49999999999989
 31
0.0
  0
LINE
  5
1D7B2
  8
1
 10
103.5
 20
133.49999999999989
 30
0.0
 11
89.500000000000014
 21
133.49999999999989
 31
0.0
  0
LINE
  5
1D7BD
  8
1
 10
58.5
 20
140.49999999999989
 30
0.0
 11
58.5
 21
126.4999999999999
 31
0.0
  0
LINE
  5
1D7BE
  8
1
 10
65.5
 20
181.49999999999989
 30
0.0
 11
51.5
 21
181.49999999999989
 31
0.0
  0
LINE
  5
1D7BF
  8
1
 10
96.5
 20
140.49999999999989
 30
0.0
 11
96.5
 21
126.4999999999999
 31
0.0
  0
LINE
  5
1D7C0
  8
1
 10
65.5
 20
133.49999999999989
 30
0.0
 11
51.5
 21
133.49999999999989
 31
0.0
  0
LINE
  5
1D84B
  8
1
 10
58.5
 20
48.0
 30
0.0
 11
58.5
 21
64.5
 31
0.0
  0
LINE
  5
1D84C
  8
1
 10
77.5
 20
79.0
 30
0.0
 11
77.5
 21
46.0
 31
0.0
  0
LINE
  5
1D84D
  8
1
 10
96.5
 20
48.0
 30
0.0
 11
96.5
 21
64.5
 31
0.0
  0
LINE
  5
1D850
  8
1
 10
92.0
 20
62.5
 30
0.0
 11
63.0
 21
62.5
 31
0.0
  0
LINE
  5
1D8E9
  8
1
 10
164.5
 20
76.0
 30
0.0
 11
164.5
 21
48.0
 31
0.0
  0
LINE
  5
1D8EA
  8
1
 10
212.5
 20
76.0
 30
0.0
 11
212.5
 21
48.0
 31
0.0
  0
LINE
  5
1D8ED
  8
1
 10
188.5
 20
79.0
 30
0.0
 11
188.5
 21
45.0
 31
0.0
  0
ENDSEC
  0
EOF
