  0
SECTION
  2
HEADER
  9
$ACADVER
  1
AC1009
  9
$INSBASE
 10
0.0
 20
0.0
 30
0.0
  9
$EXTMIN
 10
-0.0204638472032742
 20
-2.960436562073669
 30
0.0
  9
$EXTMAX
 10
312.5
 20
208.74999999999989
 30
0.0
  9
$LIMMIN
 10
0.0
 20
0.0
  9
$LIMMAX
 10
375.0
 20
270.0
  9
$ORTHOMODE
 70
     1
  9
$REGENMODE
 70
     1
  9
$FILLMODE
 70
     1
  9
$QTEXTMODE
 70
     0
  9
$MIRRTEXT
 70
     0
  9
$DRAGMODE
 70
     2
  9
$LTSCALE
 40
10.0
  9
$OSMODE
 70
  3071
  9
$ATTMODE
 70
     1
  9
$TEXTSIZE
 40
5.0
  9
$TRACEWID
 40
0.05
  9
$TEXTSTYLE
  7
STANDARD
  9
$CLAYER
  8
0
  9
$CELTYPE
  6
BYLAYER
  9
$CECOLOR
 62
   256
  9
$DIMSCALE
 40
1.0
  9
$DIMASZ
 40
3.0
  9
$DIMEXO
 40
2.0
  9
$DIMDLI
 40
10.0
  9
$DIMRND
 40
0.0
  9
$DIMDLE
 40
0.0
  9
$DIMEXE
 40
2.0
  9
$DIMTP
 40
0.0
  9
$DIMTM
 40
0.0
  9
$DIMTXT
 40
3.2000000000000002
  9
$DIMCEN
 40
0.0
  9
$DIMTSZ
 40
0.0
  9
$DIMTOL
 70
     0
  9
$DIMLIM
 70
     0
  9
$DIMTIH
 70
     0
  9
$DIMTOH
 70
     0
  9
$DIMSE1
 70
     0
  9
$DIMSE2
 70
     0
  9
$DIMTAD
 70
     1
  9
$DIMZIN
 70
     0
  9
$DIMBLK
  1

  9
$DIMASO
 70
     0
  9
$DIMSHO
 70
     0
  9
$DIMPOST
  1

  9
$DIMAPOST
  1

  9
$DIMALT
 70
     0
  9
$DIMALTD
 70
     2
  9
$DIMALTF
 40
25.399999999999999
  9
$DIMLFAC
 40
1.0
  9
$DIMTOFL
 70
     1
  9
$DIMTVP
 40
1.6000000000000001
  9
$DIMTIX
 70
     1
  9
$DIMSOXD
 70
     0
  9
$DIMSAH
 70
     0
  9
$DIMBLK1
  1

  9
$DIMBLK2
  1

  9
$DIMSTYLE
  2
STANDARD
  9
$DIMCLRD
 70
     0
  9
$DIMCLRE
 70
     0
  9
$DIMCLRT
 70
     0
  9
$DIMTFAC
 40
1.0
  9
$DIMGAP
 40
0.09
  9
$LUNITS
 70
     2
  9
$LUPREC
 70
     4
  9
$SKETCHINC
 40
0.1
  9
$FILLETRAD
 40
0.0
  9
$AUNITS
 70
     0
  9
$AUPREC
 70
     4
  9
$MENU
  1
E:\r13\win\SUPPORT\ACAD
  9
$ELEVATION
 40
0.0
  9
$PELEVATION
 40
0.0
  9
$THICKNESS
 40
0.0
  9
$LIMCHECK
 70
     0
  9
$BLIPMODE
 70
     0
  9
$CHAMFERA
 40
0.0
  9
$CHAMFERB
 40
0.0
  9
$SKPOLY
 70
     0
  9
$TDCREATE
 40
2449839.779548611
  9
$TDUPDATE
 40
2456597.5632819911
  9
$TDINDWG
 40
0.0000943287
  9
$TDUSRTIMER
 40
0.0000943287
  9
$USRTIMER
 70
     1
  9
$ANGBASE
 50
0.0
  9
$ANGDIR
 70
     0
  9
$PDMODE
 70
    35
  9
$PDSIZE
 40
0.0
  9
$PLINEWID
 40
0.0
  9
$COORDS
 70
     1
  9
$SPLFRAME
 70
     0
  9
$SPLINETYPE
 70
     6
  9
$SPLINESEGS
 70
     8
  9
$ATTDIA
 70
     0
  9
$ATTREQ
 70
     1
  9
$HANDLING
 70
     1
  9
$HANDSEED
  5
2E8
  9
$SURFTAB1
 70
     6
  9
$SURFTAB2
 70
     6
  9
$SURFTYPE
 70
     6
  9
$SURFU
 70
     6
  9
$SURFV
 70
     6
  9
$UCSNAME
  2

  9
$UCSORG
 10
0.0
 20
0.0
 30
0.0
  9
$UCSXDIR
 10
1.0
 20
0.0
 30
0.0
  9
$UCSYDIR
 10
0.0
 20
1.0
 30
0.0
  9
$PUCSNAME
  2

  9
$PUCSORG
 10
0.0
 20
0.0
 30
0.0
  9
$PUCSXDIR
 10
1.0
 20
0.0
 30
0.0
  9
$PUCSYDIR
 10
0.0
 20
1.0
 30
0.0
  9
$USERI1
 70
     0
  9
$USERI2
 70
     1
  9
$USERI3
 70
     0
  9
$USERI4
 70
     0
  9
$USERI5
 70
     0
  9
$USERR1
 40
0.0
  9
$USERR2
 40
0.0
  9
$USERR3
 40
0.0
  9
$USERR4
 40
0.0
  9
$USERR5
 40
0.0
  9
$WORLDVIEW
 70
     1
  9
$SHADEDGE
 70
     3
  9
$SHADEDIF
 70
    70
  9
$TILEMODE
 70
     1
  9
$MAXACTVP
 70
    16
  9
$PLIMCHECK
 70
     0
  9
$PEXTMIN
 10
1.0000000000000000E+020
 20
1.0000000000000000E+020
 30
1.0000000000000000E+020
  9
$PEXTMAX
 10
-1.0000000000000000E+020
 20
-1.0000000000000000E+020
 30
-1.0000000000000000E+020
  9
$PLIMMIN
 10
0.0
 20
0.0
  9
$PLIMMAX
 10
12.0
 20
9.0
  9
$UNITMODE
 70
     0
  9
$VISRETAIN
 70
     0
  9
$PLINEGEN
 70
     0
  9
$PSLTSCALE
 70
     0
  0
ENDSEC
  0
SECTION
  2
TABLES
  0
TABLE
  2
VPORT
 70
     1
  0
VPORT
  2
*ACTIVE
 70
     0
 10
0.0
 20
0.0
 11
1.0
 21
1.0
 12
195.04380321732449
 22
133.5127261426681
 13
0.0
 23
0.0
 14
10.0
 24
10.0
 15
10.0
 25
10.0
 16
0.0
 26
0.0
 36
1.0
 17
0.0
 27
0.0
 37
0.0
 40
275.42274993631997
 41
1.831871345029239
 42
50.0
 43
0.0
 44
0.0
 50
0.0
 51
0.0
 71
     0
 72
   500
 73
     1
 74
     0
 75
     0
 76
     0
 77
     0
 78
     2
  0
ENDTAB
  0
TABLE
  2
LTYPE
 70
     4
  0
LTYPE
  2
CONTINUOUS
 70
     0
  3
Solid Line
 72
    65
 73
     0
 40
0.0
  0
LTYPE
  2
CENTER
 70
     0
  3
____ _ ____ _ ____ _ ____ _ ____ _ ____ _ ____
 72
    65
 73
     4
 40
2.0
 49
1.25
 49
-0.25
 49
0.25
 49
-0.25
  0
LTYPE
  2
HIDDEN
 70
     0
  3
_ _ _ _ _ _ _ _ _ _ _ _ _ _ _ _ _ _ _ _ _ _ _
 72
    65
 73
     2
 40
0.375
 49
0.25
 49
-0.125
  0
LTYPE
  2
PHANTOM2
 70
     0
  3
___ _ _ ___ _ _ ___ _ _ ___ _ _
 72
    65
 73
     6
 40
1.25
 49
0.625
 49
-0.125
 49
0.125
 49
-0.125
 49
0.125
 49
-0.125
  0
ENDTAB
  0
TABLE
  2
LAYER
 70
     4
  0
LAYER
  2
0
 70
     0
 62
     7
  6
CONTINUOUS
  0
LAYER
  2
1
 70
     0
 62
     1
  6
CENTER
  0
LAYER
  2
2
 70
     0
 62
     2
  6
HIDDEN
  0
LAYER
  2
3
 70
     0
 62
     3
  6
CONTINUOUS
  0
ENDTAB
  0
TABLE
  2
STYLE
 70
     2
  0
STYLE
  2
STANDARD
 70
     0
 40
0.0
 41
1.0
 50
0.0
 71
     0
 42
5.0
  3
TXT
  4
BIGFONT
  0
STYLE
  2
STANDARD1
 70
     0
 40
0.0
 41
1.0
 50
0.0
 71
     0
 42
3.0
  3
txt
  4

  0
ENDTAB
  0
TABLE
  2
VIEW
 70
     1
  0
VIEW
  2
ALL
 70
     0
 40
270.0
 10
220.99159663865549
 20
135.0
 41
0.0
 11
0.0
 21
0.0
 31
1.0
 12
0.0
 22
0.0
 32
0.0
 42
0.0
 43
0.0
 44
0.0
 50
0.0
 71
     0
  0
ENDTAB
  0
TABLE
  2
UCS
 70
     0
  0
ENDTAB
  0
TABLE
  2
APPID
 70
     3
  0
APPID
  2
ACAD
 70
     0
  0
APPID
  2
ACAD_MLEADERVER
 70
     0
  0
APPID
  2
ACAD_NAV_VCDISPLAY
 70
     0
  0
ENDTAB
  0
TABLE
  2
DIMSTYLE
 70
     1
  0
DIMSTYLE
  2
STANDARD
 70
     0
  3

  4

  5

  6

  7

 40
1.0
 41
0.18
 42
0.0625
 43
0.38
 44
0.18
 45
0.0
 46
0.0
 47
0.0
 48
0.0
140
0.18
141
0.09
142
0.0
143
25.399999999999999
144
1.0
145
0.0
146
1.0
147
0.09
 71
     0
 72
     0
 73
     1
 74
     1
 75
     0
 76
     0
 77
     0
 78
     0
170
     0
171
     2
172
     0
173
     0
174
     0
175
     0
176
     0
177
     0
178
     0
  0
ENDTAB
  0
ENDSEC
  0
SECTION
  2
BLOCKS
  0
BLOCK
  8
0
  2
$MODEL_SPACE
 70
     0
 10
0.0
 20
0.0
 30
0.0
  3
$MODEL_SPACE
  1

  0
ENDBLK
  5
163
  8
0
  0
BLOCK
 67
     1
  8
0
  2
$PAPER_SPACE
 70
     0
 10
0.0
 20
0.0
 30
0.0
  3
$PAPER_SPACE
  1

  0
ENDBLK
  5
161
 67
     1
  8
0
  0
ENDSEC
  0
SECTION
  2
ENTITIES
  0
LINE
  5
36
  8
0
 10
151.01081086435639
 20
87.0
 30
0.0
 11
176.01081086435639
 21
87.0
 31
0.0
  0
LINE
  5
37
  8
0
 10
253.5
 20
86.999999999999929
 30
0.0
 11
254.0
 21
87.499999999999943
 31
0.0
  0
LINE
  5
38
  8
0
 10
218.00000000000011
 20
87.499999999999943
 30
0.0
 11
218.5
 21
86.999999999999929
 31
0.0
  0
LINE
  5
39
  8
0
 10
218.5
 20
86.999999999999929
 30
0.0
 11
253.5
 21
86.999999999999929
 31
0.0
  0
LINE
  5
3A
  8
0
 10
253.50000000000011
 20
112.0
 30
0.0
 11
254.0
 21
111.5
 31
0.0
  0
LINE
  5
3B
  8
0
 10
218.50000000000011
 20
112.0
 30
0.0
 11
218.00000000000011
 21
111.5
 31
0.0
  0
LINE
  5
3C
  8
0
 10
175.51081086435639
 20
112.0
 30
0.0
 11
176.01081086435639
 21
111.5
 31
0.0
  0
LINE
  5
3D
  8
0
 10
151.51081086435639
 20
111.9999999999999
 30
0.0
 11
151.01081086435639
 21
111.4999999999999
 31
0.0
  0
LINE
  5
3E
  8
0
 10
151.51081086435639
 20
207.49999999999989
 30
0.0
 11
151.01081086435639
 21
206.99999999999989
 31
0.0
  0
LINE
  5
3F
  8
0
 10
175.5108108643565
 20
207.5
 30
0.0
 11
176.0108108643565
 21
207.0
 31
0.0
  0
LINE
  5
40
  8
0
 10
218.5000000000002
 20
192.50000000000031
 30
0.0
 11
218.0000000000002
 21
192.00000000000031
 31
0.0
  0
LINE
  5
41
  8
0
 10
237.0
 20
192.50000000000011
 30
0.0
 11
237.5
 21
192.00000000000011
 31
0.0
  0
LINE
  5
42
  8
0
 10
253.50000000000011
 20
186.59999999999991
 30
0.0
 11
254.00000000000011
 21
186.09999999999991
 31
0.0
  0
LINE
  5
43
  8
0
 10
253.50000000000011
 20
173.39999999999981
 30
0.0
 11
254.0
 21
173.89999999999981
 31
0.0
  0
LINE
  5
44
  8
0
 10
237.00000000000011
 20
167.50000000000011
 30
0.0
 11
237.50000000000011
 21
168.00000000000011
 31
0.0
  0
LINE
  5
45
  8
0
 10
218.0000000000002
 20
168.00000000000031
 30
0.0
 11
218.5000000000002
 21
167.50000000000031
 31
0.0
  0
LINE
  5
46
  8
0
 10
175.51081086435639
 20
152.49999999999989
 30
0.0
 11
176.01081086435639
 21
152.99999999999989
 31
0.0
  0
LINE
  5
47
  8
0
 10
151.01081086435639
 20
152.99999999999989
 30
0.0
 11
151.51081086435639
 21
152.49999999999989
 31
0.0
  0
ARC
  5
48
  8
0
 10
237.90000000000001
 20
172.99999999999989
 30
0.0
 40
0.4
 50
90.0
 51
179.99999999999989
  0
ARC
  5
49
  8
0
 10
237.90000000000001
 20
186.99999999999989
 30
0.0
 40
0.4
 50
180.0
 51
269.99999999999989
  0
LINE
  5
4A
  8
2
 10
249.15000000000001
 20
173.8999999999985
 30
0.0
 11
249.1500000000002
 21
186.09999999999849
 31
0.0
  0
LINE
  5
4B
  8
2
 10
243.84999999999991
 20
173.8999999999985
 30
0.0
 11
243.84999999999999
 21
186.09999999999849
 31
0.0
  0
LINE
  5
4C
  8
2
 10
243.84999999999999
 20
186.09999999999849
 30
0.0
 11
249.1500000000002
 21
186.09999999999849
 31
0.0
  0
LINE
  5
4D
  8
2
 10
243.85000000000011
 20
173.89999999999861
 30
0.0
 11
249.1500000000002
 21
173.89999999999861
 31
0.0
  0
LINE
  5
4E
  8
2
 10
243.34999999999991
 20
186.59999999999849
 30
0.0
 11
243.84999999999999
 21
186.09999999999849
 31
0.0
  0
LINE
  5
4F
  8
2
 10
243.84999999999991
 20
173.8999999999985
 30
0.0
 11
243.34999999999991
 21
173.3999999999985
 31
0.0
  0
LINE
  5
50
  8
2
 10
249.15000000000001
 20
173.8999999999985
 30
0.0
 11
249.65000000000009
 21
173.3999999999985
 31
0.0
  0
LINE
  5
51
  8
2
 10
249.1500000000002
 20
186.09999999999849
 30
0.0
 11
249.65000000000009
 21
186.59999999999849
 31
0.0
  0
LINE
  5
52
  8
0
 10
132.99999999999969
 20
174.99999999999989
 30
0.0
 11
143.01081086435639
 21
174.99999999999989
 31
0.0
  0
LINE
  5
53
  8
3
 10
132.99999999999969
 20
175.81199999999981
 30
0.0
 11
143.01081086435639
 21
175.81199999999981
 31
0.0
  0
LINE
  5
54
  8
3
 10
132.99999999999969
 20
184.1880000000001
 30
0.0
 11
143.01081086435639
 21
184.1880000000001
 31
0.0
  0
LINE
  5
55
  8
0
 10
132.99999999999969
 20
185.0
 30
0.0
 11
143.01081086435639
 21
185.0
 31
0.0
  0
LINE
  5
56
  8
0
 10
210.00000000000011
 20
174.99999999999989
 30
0.0
 11
184.0108108643563
 21
174.99999999999989
 31
0.0
  0
LINE
  5
57
  8
3
 10
210.00000000000011
 20
175.81199999999981
 30
0.0
 11
184.0108108643563
 21
175.81199999999981
 31
0.0
  0
LINE
  5
58
  8
3
 10
210.00000000000011
 20
184.1880000000001
 30
0.0
 11
184.0108108643563
 21
184.1880000000001
 31
0.0
  0
LINE
  5
59
  8
0
 10
210.00000000000011
 20
185.0
 30
0.0
 11
184.0108108643563
 21
185.0
 31
0.0
  0
ARC
  5
5A
  8
0
 10
222.41984420571461
 20
184.25
 30
0.0
 40
12.275506638416489
 50
159.7438419996065
 51
200.2561580003935
  0
LINE
  5
5B
  8
0
 10
210.14433756729809
 20
188.5
 30
0.0
 11
210.0
 21
188.24999999999889
 31
0.0
  0
LINE
  5
5C
  8
0
 10
210.14433756729809
 20
188.5
 30
0.0
 11
218.00000000000011
 21
188.5
 31
0.0
  0
LINE
  5
5D
  8
0
 10
210.90352694585241
 20
180.0
 30
0.0
 11
218.00000000000011
 21
179.99999999999989
 31
0.0
  0
LINE
  5
5E
  8
0
 10
210.14433756729809
 20
171.49999999999989
 30
0.0
 11
218.00000000000011
 21
171.5
 31
0.0
  0
LINE
  5
5F
  8
0
 10
210.14433756729809
 20
171.49999999999989
 30
0.0
 11
210.0
 21
171.75000000000099
 31
0.0
  0
ARC
  5
60
  8
0
 10
222.41984420571461
 20
175.75
 30
0.0
 40
12.275506638416489
 50
159.7438419996065
 51
200.2561580003935
  0
LINE
  5
61
  8
0
 10
210.0
 20
188.24999999999881
 30
0.0
 11
210.0
 21
171.75000000000099
 31
0.0
  0
LINE
  5
62
  8
0
 10
184.01081086435639
 20
188.24999999999881
 30
0.0
 11
184.01081086435639
 21
171.75000000000099
 31
0.0
  0
ARC
  5
63
  8
0
 10
171.59096665864189
 20
175.75
 30
0.0
 40
12.275506638416489
 50
339.74384199960662
 51
20.256158000393508
  0
LINE
  5
64
  8
0
 10
183.86647329705841
 20
171.49999999999989
 30
0.0
 11
184.01081086435639
 21
171.75000000000099
 31
0.0
  0
LINE
  5
65
  8
0
 10
183.86647329705841
 20
171.49999999999989
 30
0.0
 11
176.01081086435639
 21
171.5
 31
0.0
  0
LINE
  5
66
  8
0
 10
183.10728391850401
 20
180.0
 30
0.0
 11
176.01081086435639
 21
179.99999999999989
 31
0.0
  0
LINE
  5
67
  8
0
 10
183.86647329705841
 20
188.5
 30
0.0
 11
176.01081086435639
 21
188.5
 31
0.0
  0
LINE
  5
68
  8
0
 10
183.86647329705841
 20
188.5
 30
0.0
 11
184.01081086435639
 21
188.24999999999889
 31
0.0
  0
ARC
  5
69
  8
0
 10
171.59096665864189
 20
184.25
 30
0.0
 40
12.275506638416489
 50
339.7438419996065
 51
20.25615800039348
  0
LINE
  5
6A
  8
0
 10
132.99999999999989
 20
188.5000000000002
 30
0.0
 11
132.99999999999989
 21
171.5000000000002
 31
0.0
  0
LINE
  5
6B
  8
0
 10
125.9999999999999
 20
188.24999999999909
 30
0.0
 11
125.9999999999999
 21
171.75000000000119
 31
0.0
  0
ARC
  5
6C
  8
0
 10
138.41984420571441
 20
175.7500000000002
 30
0.0
 40
12.275506638416489
 50
159.7438419996065
 51
200.2561580003935
  0
LINE
  5
6D
  8
0
 10
126.1443375672979
 20
171.50000000000011
 30
0.0
 11
125.9999999999999
 21
171.75000000000119
 31
0.0
  0
LINE
  5
6E
  8
0
 10
126.1443375672979
 20
171.50000000000011
 30
0.0
 11
132.99999999999989
 21
171.5000000000002
 31
0.0
  0
LINE
  5
6F
  8
0
 10
126.90352694585231
 20
180.0000000000002
 30
0.0
 11
132.99999999999989
 21
180.0000000000002
 31
0.0
  0
LINE
  5
70
  8
0
 10
126.1443375672979
 20
188.5000000000002
 30
0.0
 11
132.99999999999989
 21
188.5000000000002
 31
0.0
  0
LINE
  5
71
  8
0
 10
126.1443375672979
 20
188.5000000000002
 30
0.0
 11
125.9999999999999
 21
188.2499999999992
 31
0.0
  0
ARC
  5
72
  8
0
 10
138.41984420571441
 20
184.2500000000002
 30
0.0
 40
12.275506638416489
 50
159.7438419996065
 51
200.2561580003935
  0
ARC
  5
73
  8
0
 10
155.43065507007091
 20
184.25
 30
0.0
 40
12.275506638416489
 50
159.7438419996065
 51
200.2561580003935
  0
LINE
  5
74
  8
0
 10
143.1551484316544
 20
188.5
 30
0.0
 11
143.01081086435639
 21
188.24999999999889
 31
0.0
  0
LINE
  5
75
  8
0
 10
143.1551484316544
 20
188.5
 30
0.0
 11
151.01081086435639
 21
188.5
 31
0.0
  0
LINE
  5
76
  8
0
 10
143.91433781020879
 20
180.0
 30
0.0
 11
151.01081086435639
 21
179.99999999999989
 31
0.0
  0
LINE
  5
77
  8
0
 10
143.1551484316544
 20
171.49999999999989
 30
0.0
 11
151.01081086435639
 21
171.5
 31
0.0
  0
LINE
  5
78
  8
0
 10
143.1551484316544
 20
171.49999999999989
 30
0.0
 11
143.01081086435639
 21
171.75000000000099
 31
0.0
  0
ARC
  5
79
  8
0
 10
155.43065507007091
 20
175.75
 30
0.0
 40
12.275506638416489
 50
159.7438419996065
 51
200.2561580003935
  0
LINE
  5
7A
  8
0
 10
143.01081086435639
 20
188.24999999999881
 30
0.0
 11
143.01081086435639
 21
171.75000000000099
 31
0.0
  0
LINE
  5
7B
  8
1
 10
120.9999999999999
 20
180.0
 30
0.0
 11
259.00000000000011
 21
180.0
 31
0.0
  0
LINE
  5
7C
  8
0
 10
175.5108108643565
 20
207.5
 30
0.0
 11
151.51081086435639
 21
207.49999999999989
 31
0.0
  0
CIRCLE
  5
7D
  8
0
 10
163.5108108643563
 20
194.99999999999989
 30
0.0
 40
5.5
  0
CIRCLE
  5
7E
  8
0
 10
163.5108108643563
 20
194.99999999999989
 30
0.0
 40
8.75
  0
LINE
  5
7F
  8
1
 10
163.5108108643563
 20
208.74999999999989
 30
0.0
 11
163.5108108643563
 21
181.24999999999989
 31
0.0
  0
LINE
  5
80
  8
1
 10
177.2608108643563
 20
194.99999999999989
 30
0.0
 11
149.7608108643563
 21
194.99999999999989
 31
0.0
  0
LINE
  5
81
  8
1
 10
177.2608108643563
 20
164.99999999999989
 30
0.0
 11
149.7608108643563
 21
164.99999999999989
 31
0.0
  0
LINE
  5
82
  8
1
 10
163.5108108643563
 20
151.24999999999989
 30
0.0
 11
163.5108108643563
 21
178.74999999999989
 31
0.0
  0
LINE
  5
83
  8
0
 10
218.5000000000002
 20
192.50000000000031
 30
0.0
 11
237.0
 21
192.50000000000011
 31
0.0
  0
LINE
  5
84
  8
0
 10
237.5
 20
192.00000000000011
 30
0.0
 11
237.5
 21
186.99999999999989
 31
0.0
  0
LINE
  5
85
  8
0
 10
254.00000000000011
 20
186.09999999999991
 30
0.0
 11
254.0
 21
173.89999999999981
 31
0.0
  0
LINE
  5
86
  8
0
 10
218.0000000000002
 20
192.00000000000031
 30
0.0
 11
218.0000000000002
 21
168.00000000000031
 31
0.0
  0
LINE
  5
87
  8
0
 10
237.00000000000011
 20
167.50000000000011
 30
0.0
 11
218.5000000000002
 21
167.50000000000031
 31
0.0
  0
LINE
  5
88
  8
0
 10
253.50000000000011
 20
173.39999999999981
 30
0.0
 11
237.90000000000001
 21
173.39999999999989
 31
0.0
  0
LINE
  5
89
  8
0
 10
253.50000000000011
 20
186.59999999999991
 30
0.0
 11
237.90000000000001
 21
186.59999999999991
 31
0.0
  0
LINE
  5
8A
  8
0
 10
237.5
 20
172.99999999999989
 30
0.0
 11
237.50000000000011
 21
168.00000000000011
 31
0.0
  0
LINE
  5
8B
  8
1
 10
246.50000000000011
 20
168.39999999999989
 30
0.0
 11
246.49999999999989
 21
191.59999999999999
 31
0.0
  0
LINE
  5
8C
  8
0
 10
132.99999999999969
 20
105.0
 30
0.0
 11
143.01081086435639
 21
105.0
 31
0.0
  0
LINE
  5
8D
  8
3
 10
132.99999999999969
 20
104.1880000000001
 30
0.0
 11
143.01081086435639
 21
104.1880000000001
 31
0.0
  0
LINE
  5
8E
  8
3
 10
132.99999999999969
 20
95.811999999999898
 30
0.0
 11
143.01081086435639
 21
95.811999999999898
 31
0.0
  0
LINE
  5
8F
  8
0
 10
132.99999999999969
 20
95.0
 30
0.0
 11
143.01081086435639
 21
95.0
 31
0.0
  0
LINE
  5
90
  8
0
 10
132.9999999999996
 20
90.185045423776444
 30
0.0
 11
132.9999999999998
 21
109.8149545762236
 31
0.0
  0
LINE
  5
91
  8
0
 10
125.9999999999996
 20
91.75
 30
0.0
 11
125.9999999999998
 21
108.2500000000003
 31
0.0
  0
ARC
  5
92
  8
0
 10
130.48923623962119
 20
107.3612159321677
 30
0.0
 40
4.3448986723233833
 50
154.38424746789141
 51
214.3842474680051
  0
LINE
  5
93
  8
0
 10
126.9035269458517
 20
109.8149545762236
 30
0.0
 11
125.9999999999996
 21
108.25
 31
0.0
  0
LINE
  5
94
  8
0
 10
126.90352694585179
 20
109.8149545762236
 30
0.0
 11
132.9999999999998
 21
109.8149545762236
 31
0.0
  0
LINE
  5
95
  8
0
 10
126.9035269458517
 20
104.9074772881129
 30
0.0
 11
132.9999999999998
 21
104.90747728811181
 31
0.0
  0
LINE
  5
96
  8
0
 10
126.9035269458517
 20
95.092522711887227
 30
0.0
 11
132.9999999999996
 21
95.092522711888265
 31
0.0
  0
LINE
  5
97
  8
0
 10
126.90352694585179
 20
90.185045423776501
 30
0.0
 11
132.9999999999996
 21
90.185045423776444
 31
0.0
  0
LINE
  5
98
  8
0
 10
126.9035269458517
 20
90.185045423776501
 30
0.0
 11
125.9999999999996
 21
91.75
 31
0.0
  0
ARC
  5
99
  8
0
 10
142.38514818876439
 20
99.999999999999545
 30
0.0
 40
16.24081062146659
 50
162.41204622602831
 51
197.58795377397161
  0
ARC
  5
9A
  8
0
 10
130.48923623962119
 20
92.638784067832248
 30
0.0
 40
4.3448986723233833
 50
145.6157525319949
 51
205.6157525321085
  0
LINE
  5
9B
  8
0
 10
143.0108108643563
 20
108.25
 30
0.0
 11
143.01081086435661
 21
91.749999999999716
 31
0.0
  0
ARC
  5
9C
  8
0
 10
147.50004710397789
 20
92.638784067832248
 30
0.0
 40
4.3448986723233833
 50
145.61575253199501
 51
205.61575253210859
  0
LINE
  5
9D
  8
0
 10
143.91433781020851
 20
90.185045423776444
 30
0.0
 11
143.0108108643563
 21
91.75
 31
0.0
  0
LINE
  5
9E
  8
0
 10
143.91433781020859
 20
90.185045423776444
 30
0.0
 11
151.01081086435661
 21
90.185045423776444
 31
0.0
  0
LINE
  5
9F
  8
0
 10
143.91433781020851
 20
95.09252271188717
 30
0.0
 11
151.0108108643565
 21
95.092522711888179
 31
0.0
  0
LINE
  5
A0
  8
0
 10
143.91433781020851
 20
104.9074772881128
 30
0.0
 11
151.0108108643563
 21
104.90747728811171
 31
0.0
  0
LINE
  5
A1
  8
0
 10
143.91433781020851
 20
109.8149545762235
 30
0.0
 11
151.0108108643563
 21
109.8149545762235
 31
0.0
  0
LINE
  5
A2
  8
0
 10
143.91433781020851
 20
109.8149545762235
 30
0.0
 11
143.0108108643563
 21
108.25
 31
0.0
  0
ARC
  5
A3
  8
0
 10
159.39595905312109
 20
100.0000000000005
 30
0.0
 40
16.24081062146659
 50
162.41204622602839
 51
197.58795377397169
  0
ARC
  5
A4
  8
0
 10
147.50004710397789
 20
107.3612159321677
 30
0.0
 40
4.3448986723233833
 50
154.3842474678915
 51
214.3842474680051
  0
ARC
  5
A5
  8
0
 10
179.52157462473491
 20
107.3612159321677
 30
0.0
 40
4.3448986723233833
 50
325.61575253199487
 51
25.615752532108552
  0
ARC
  5
A6
  8
0
 10
167.62566267559171
 20
100.0000000000005
 30
0.0
 40
16.24081062146659
 50
342.41204622602839
 51
17.587953773971631
  0
LINE
  5
A7
  8
0
 10
183.10728391850429
 20
109.8149545762235
 30
0.0
 11
184.0108108643565
 21
108.25
 31
0.0
  0
LINE
  5
A8
  8
0
 10
183.10728391850421
 20
109.8149545762235
 30
0.0
 11
176.0108108643565
 21
109.8149545762235
 31
0.0
  0
LINE
  5
A9
  8
0
 10
183.10728391850429
 20
104.9074772881128
 30
0.0
 11
176.0108108643565
 21
104.90747728811171
 31
0.0
  0
LINE
  5
AA
  8
0
 10
183.10728391850429
 20
95.09252271188717
 30
0.0
 11
176.0108108643563
 21
95.092522711888179
 31
0.0
  0
LINE
  5
AB
  8
0
 10
183.10728391850421
 20
90.185045423776444
 30
0.0
 11
176.01081086435619
 21
90.185045423776444
 31
0.0
  0
LINE
  5
AC
  8
0
 10
183.10728391850421
 20
90.185045423776444
 30
0.0
 11
184.01081086435639
 21
91.75
 31
0.0
  0
ARC
  5
AD
  8
0
 10
179.52157462473491
 20
92.638784067832248
 30
0.0
 40
4.3448986723233833
 50
334.38424746789138
 51
34.384247468005043
  0
LINE
  5
AE
  8
0
 10
184.0108108643565
 20
108.25
 30
0.0
 11
184.01081086435619
 21
91.749999999999716
 31
0.0
  0
ARC
  5
AF
  8
0
 10
214.48923623962159
 20
92.638784067832248
 30
0.0
 40
4.3448986723233833
 50
145.6157525319949
 51
205.6157525321085
  0
ARC
  5
B0
  8
0
 10
226.38514818876479
 20
99.999999999999503
 30
0.0
 40
16.24081062146659
 50
162.41204622602831
 51
197.58795377397161
  0
LINE
  5
B1
  8
0
 10
210.90352694585221
 20
90.185045423776444
 30
0.0
 11
210.0
 21
91.75
 31
0.0
  0
LINE
  5
B2
  8
0
 10
210.90352694585229
 20
90.185045423776444
 30
0.0
 11
218.0
 21
90.185045423776444
 31
0.0
  0
LINE
  5
B3
  8
0
 10
210.90352694585221
 20
95.09252271188717
 30
0.0
 11
218.00000000000011
 21
95.092522711888265
 31
0.0
  0
LINE
  5
B4
  8
0
 10
210.90352694585221
 20
104.9074772881128
 30
0.0
 11
218.0000000000002
 21
104.90747728811181
 31
0.0
  0
LINE
  5
B5
  8
0
 10
210.90352694585229
 20
109.8149545762235
 30
0.0
 11
218.00000000000031
 21
109.8149545762235
 31
0.0
  0
LINE
  5
B6
  8
0
 10
210.90352694585221
 20
109.8149545762235
 30
0.0
 11
210.0
 21
108.25
 31
0.0
  0
ARC
  5
B7
  8
0
 10
214.48923623962159
 20
107.3612159321677
 30
0.0
 40
4.3448986723233833
 50
154.38424746789141
 51
214.3842474680051
  0
LINE
  5
B8
  8
0
 10
210.0
 20
91.75
 30
0.0
 11
210.0000000000002
 21
108.2500000000003
 31
0.0
  0
LINE
  5
B9
  8
1
 10
120.9999999999997
 20
100.0
 30
0.0
 11
245.51640427248751
 21
100.0
 31
0.0
  0
LINE
  5
BA
  8
0
 10
218.50000000000011
 20
112.0
 30
0.0
 11
253.50000000000011
 21
112.0
 31
0.0
  0
CIRCLE
  5
BB
  8
0
 10
163.5108108643563
 20
164.99999999999989
 30
0.0
 40
8.75
  0
CIRCLE
  5
BC
  8
0
 10
163.5108108643563
 20
164.99999999999989
 30
0.0
 40
5.5
  0
LINE
  5
BD
  8
0
 10
151.01081086435639
 20
206.99999999999989
 30
0.0
 11
151.01081086435639
 21
152.99999999999989
 31
0.0
  0
LINE
  5
BE
  8
0
 10
176.0108108643565
 20
207.0
 30
0.0
 11
176.01081086435639
 21
152.99999999999989
 31
0.0
  0
LINE
  5
BF
  8
0
 10
175.51081086435639
 20
152.49999999999989
 30
0.0
 11
151.51081086435639
 21
152.49999999999989
 31
0.0
  0
LINE
  5
C0
  8
1
 10
246.5
 20
104.6499999999991
 30
0.0
 11
246.5
 21
89.349999999999895
 31
0.0
  0
LINE
  5
C1
  8
0
 10
151.01081086435639
 20
87.0
 30
0.0
 11
151.01081086435639
 21
111.4999999999999
 31
0.0
  0
LINE
  5
C2
  8
0
 10
254.0
 20
111.5
 30
0.0
 11
254.0
 21
87.499999999999943
 31
0.0
  0
LINE
  5
C3
  8
0
 10
218.00000000000011
 20
111.5
 30
0.0
 11
218.00000000000011
 21
87.499999999999943
 31
0.0
  0
LINE
  5
C4
  8
0
 10
210.00000000000011
 20
105.0
 30
0.0
 11
184.0108108643563
 21
105.0
 31
0.0
  0
LINE
  5
C5
  8
3
 10
210.00000000000011
 20
104.1880000000001
 30
0.0
 11
184.0108108643563
 21
104.1880000000001
 31
0.0
  0
LINE
  5
C6
  8
3
 10
210.00000000000011
 20
95.811999999999898
 30
0.0
 11
184.0108108643563
 21
95.811999999999898
 31
0.0
  0
LINE
  5
C7
  8
0
 10
210.00000000000011
 20
95.0
 30
0.0
 11
184.0108108643563
 21
95.0
 31
0.0
  0
LINE
  5
C8
  8
0
 10
237.5
 20
112.0
 30
0.0
 11
237.5
 21
87.0
 31
0.0
  0
LINE
  5
C9
  8
1
 10
238.84999999999999
 20
97.0
 30
0.0
 11
254.14999999999989
 21
97.0
 31
0.0
  0
LINE
  5
CA
  8
0
 10
176.01081086435639
 20
87.0
 30
0.0
 11
176.01081086435639
 21
111.5
 31
0.0
  0
LINE
  5
CB
  8
0
 10
151.51081086435639
 20
111.9999999999999
 30
0.0
 11
175.51081086435639
 21
112.0
 31
0.0
  0
LINE
  5
CC
  8
0
 10
43.000000000000028
 20
87.000000000000114
 30
0.0
 11
97.000000000000057
 21
87.000000000000057
 31
0.0
  0
LINE
  5
CD
  8
0
 10
43.000000000000028
 20
87.000000000000114
 30
0.0
 11
42.500000000000021
 21
87.500000000000114
 31
0.0
  0
LINE
  5
CE
  8
0
 10
97.000000000000057
 20
87.000000000000057
 30
0.0
 11
97.500000000000071
 21
87.500000000000057
 31
0.0
  0
LINE
  5
CF
  8
0
 10
97.000000000000057
 20
112.0
 30
0.0
 11
97.500000000000071
 21
111.5
 31
0.0
  0
LINE
  5
D0
  8
0
 10
43.000000000000028
 20
112.0
 30
0.0
 11
42.500000000000021
 21
111.5
 31
0.0
  0
LINE
  5
D1
  8
1
 10
70.0
 20
117.0
 30
0.0
 11
70.0
 21
82.000000000000085
 31
0.0
  0
LINE
  5
D2
  8
1
 10
82.314954576223556
 20
100.0
 30
0.0
 11
57.685045423776472
 21
100.0
 31
0.0
  0
LINE
  5
D3
  8
1
 10
55.000000000000028
 20
84.500000000000085
 30
0.0
 11
55.000000000000028
 21
114.5
 31
0.0
  0
LINE
  5
D4
  8
0
 10
42.500000000000021
 20
111.5
 30
0.0
 11
42.5
 21
87.500000000000171
 31
0.0
  0
LINE
  5
D5
  8
0
 10
97.500000000000071
 20
111.5
 30
0.0
 11
97.5
 21
87.5
 31
0.0
  0
LINE
  5
D6
  8
1
 10
85.0
 20
84.500000000000085
 30
0.0
 11
85.0
 21
114.5
 31
0.0
  0
LINE
  5
D7
  8
0
 10
43.000000000000028
 20
112.0
 30
0.0
 11
97.000000000000057
 21
112.0
 31
0.0
  0
LINE
  5
D8
  8
2
 10
172.26081086435639
 20
102.0000000000001
 30
0.0
 11
154.7608108643563
 21
102.0000000000001
 31
0.0
  0
LINE
  5
D9
  8
2
 10
158.01081086435639
 20
102.0000000000001
 30
0.0
 11
158.01081086435639
 21
86.999999999999943
 31
0.0
  0
LINE
  5
DA
  8
2
 10
169.01081086435639
 20
102.0000000000001
 30
0.0
 11
169.01081086435639
 21
86.999999999999943
 31
0.0
  0
LINE
  5
DB
  8
2
 10
154.7608108643563
 20
102.0000000000001
 30
0.0
 11
154.7608108643565
 21
112.0000000000001
 31
0.0
  0
LINE
  5
DC
  8
2
 10
172.26081086435619
 20
112.0000000000001
 30
0.0
 11
172.26081086435639
 21
102.0000000000001
 31
0.0
  0
LINE
  5
DD
  8
1
 10
163.51081086435639
 20
81.999999999999901
 30
0.0
 11
163.51081086435639
 21
117.0000000000001
 31
0.0
  0
CIRCLE
  5
DE
  8
0
 10
69.999999999999986
 20
100.0
 30
0.0
 40
8.25
  0
LINE
  5
DF
  8
0
 10
69.999999999999986
 20
109.8149545762235
 30
0.0
 11
61.500000000000043
 21
104.90747728811181
 31
0.0
  0
LINE
  5
E0
  8
0
 10
78.499999999999986
 20
104.90747728811171
 30
0.0
 11
69.999999999999986
 21
109.8149545762235
 31
0.0
  0
LINE
  5
E1
  8
0
 10
78.499999999999986
 20
95.092522711888137
 30
0.0
 11
78.499999999999986
 21
104.90747728811171
 31
0.0
  0
LINE
  5
E2
  8
0
 10
70.000000000000043
 20
90.185045423776316
 30
0.0
 11
78.499999999999986
 21
95.092522711888137
 31
0.0
  0
LINE
  5
E3
  8
0
 10
61.499999999999979
 20
95.092522711888137
 30
0.0
 11
70.000000000000043
 21
90.185045423776316
 31
0.0
  0
LINE
  5
E4
  8
0
 10
61.500000000000043
 20
104.90747728811181
 30
0.0
 11
61.499999999999979
 21
95.092522711888137
 31
0.0
  0
CIRCLE
  5
EC
  8
0
 10
246.5
 20
97.000000000000014
 30
0.0
 40
2.649999999999999
  0
LINE
  5
ED
  8
0
 10
287.5
 20
86.999999999999929
 30
0.0
 11
287.5
 21
111.4999999999999
 31
0.0
  0
LINE
  5
EE
  8
0
 10
288.0
 20
111.9999999999999
 30
0.0
 11
312.0
 21
111.9999999999999
 31
0.0
  0
LINE
  5
EF
  8
0
 10
312.5
 20
111.4999999999999
 30
0.0
 11
312.5
 21
86.999999999999929
 31
0.0
  0
LINE
  5
F0
  8
0
 10
312.5
 20
86.999999999999929
 30
0.0
 11
287.5
 21
86.999999999999929
 31
0.0
  0
LINE
  5
F1
  8
1
 10
300.0
 20
116.9999999999999
 30
0.0
 11
300.0
 21
81.999999999999929
 31
0.0
  0
LINE
  5
F2
  8
1
 10
288.39999999999992
 20
97.0
 30
0.0
 11
311.60000000000002
 21
97.000000000000114
 31
0.0
  0
LINE
  5
F3
  8
2
 10
306.0999999999986
 20
94.349999999999909
 30
0.0
 11
306.5999999999986
 21
93.849999999999895
 31
0.0
  0
LINE
  5
F4
  8
2
 10
293.8999999999985
 20
94.350000000000023
 30
0.0
 11
293.3999999999985
 21
93.850000000000037
 31
0.0
  0
LINE
  5
F5
  8
2
 10
293.89999999999861
 20
99.649999999999977
 30
0.0
 11
293.89999999999861
 21
94.349999999999909
 31
0.0
  0
LINE
  5
F6
  8
2
 10
306.0999999999986
 20
99.650000000000105
 30
0.0
 11
306.0999999999986
 21
94.349999999999909
 31
0.0
  0
LINE
  5
F7
  8
2
 10
293.8999999999985
 20
99.650000000000205
 30
0.0
 11
306.0999999999986
 21
99.650000000000105
 31
0.0
  0
LINE
  5
F8
  8
2
 10
293.8999999999985
 20
94.350000000000023
 30
0.0
 11
306.0999999999986
 21
94.349999999999909
 31
0.0
  0
LINE
  5
F9
  8
0
 10
288.0
 20
111.9999999999999
 30
0.0
 11
287.5
 21
111.4999999999999
 31
0.0
  0
LINE
  5
FA
  8
0
 10
312.0
 20
111.9999999999999
 30
0.0
 11
312.5
 21
111.4999999999999
 31
0.0
  0
LINE
  5
FB
  8
2
 10
293.8999999999985
 20
99.649999999999963
 30
0.0
 11
293.3999999999985
 21
100.14999999999991
 31
0.0
  0
LINE
  5
FC
  8
2
 10
306.0999999999986
 20
99.650000000000063
 30
0.0
 11
306.5999999999986
 21
100.15000000000001
 31
0.0
  0
LINE
  5
FD
  8
0
 10
293.39999999999992
 20
111.4999999999999
 30
0.0
 11
293.39999999999992
 21
86.999999999999929
 31
0.0
  0
LINE
  5
FE
  8
0
 10
293.89999999999992
 20
111.9999999999999
 30
0.0
 11
293.39999999999992
 21
111.4999999999999
 31
0.0
  0
LINE
  5
FF
  8
0
 10
306.10000000000008
 20
111.9999999999999
 30
0.0
 11
306.60000000000019
 21
111.4999999999999
 31
0.0
  0
LINE
  5
100
  8
0
 10
306.60000000000019
 20
111.4999999999999
 30
0.0
 11
306.60000000000019
 21
86.999999999999929
 31
0.0
  0
TEXT
  5
257
  8
0
 62
     3
 10
0.0
 20
0.0
 30
0.0
 40
10.0
  1
ATB50
  7
STANDARD1
  0
ENDSEC
  0
EOF
