  0
SECTION
  2
HEADER
  9
$ACADVER
  1
AC1009
  9
$INSBASE
 10
0.0
 20
0.0
 30
0.0
  9
$EXTMIN
 10
0.0
 20
-2.960436562073669
 30
0.0
  9
$EXTMAX
 10
285.09999999999991
 20
206.10000000000011
 30
0.0
  9
$LIMMIN
 10
0.0
 20
0.0
  9
$LIMMAX
 10
375.0
 20
270.0
  9
$ORTHOMODE
 70
     1
  9
$REGENMODE
 70
     1
  9
$FILLMODE
 70
     1
  9
$QTEXTMODE
 70
     0
  9
$MIRRTEXT
 70
     0
  9
$DRAGMODE
 70
     2
  9
$LTSCALE
 40
10.0
  9
$OSMODE
 70
    37
  9
$ATTMODE
 70
     1
  9
$TEXTSIZE
 40
0.2
  9
$TRACEWID
 40
0.05
  9
$TEXTSTYLE
  7
STANDARD
  9
$CLAYER
  8
0
  9
$CELTYPE
  6
BYLAYER
  9
$CECOLOR
 62
   256
  9
$DIMSCALE
 40
1.0
  9
$DIMASZ
 40
3.0
  9
$DIMEXO
 40
2.0
  9
$DIMDLI
 40
0.38
  9
$DIMRND
 40
0.0
  9
$DIMDLE
 40
0.0
  9
$DIMEXE
 40
2.0
  9
$DIMTP
 40
0.0
  9
$DIMTM
 40
0.0
  9
$DIMTXT
 40
3.2000000000000002
  9
$DIMCEN
 40
0.0
  9
$DIMTSZ
 40
0.0
  9
$DIMTOL
 70
     0
  9
$DIMLIM
 70
     0
  9
$DIMTIH
 70
     0
  9
$DIMTOH
 70
     0
  9
$DIMSE1
 70
     0
  9
$DIMSE2
 70
     0
  9
$DIMTAD
 70
     1
  9
$DIMZIN
 70
     0
  9
$DIMBLK
  1

  9
$DIMASO
 70
     0
  9
$DIMSHO
 70
     0
  9
$DIMPOST
  1

  9
$DIMAPOST
  1

  9
$DIMALT
 70
     0
  9
$DIMALTD
 70
     2
  9
$DIMALTF
 40
25.399999999999999
  9
$DIMLFAC
 40
1.0
  9
$DIMTOFL
 70
     0
  9
$DIMTVP
 40
1.6000000000000001
  9
$DIMTIX
 70
     1
  9
$DIMSOXD
 70
     0
  9
$DIMSAH
 70
     0
  9
$DIMBLK1
  1

  9
$DIMBLK2
  1

  9
$DIMSTYLE
  2
STANDARD
  9
$DIMCLRD
 70
     4
  9
$DIMCLRE
 70
     4
  9
$DIMCLRT
 70
     4
  9
$DIMTFAC
 40
1.0
  9
$DIMGAP
 40
0.09
  9
$LUNITS
 70
     2
  9
$LUPREC
 70
     1
  9
$SKETCHINC
 40
0.1
  9
$FILLETRAD
 40
0.0
  9
$AUNITS
 70
     0
  9
$AUPREC
 70
     1
  9
$MENU
  1
E:\r13\win\SUPPORT\ACAD
  9
$ELEVATION
 40
0.0
  9
$PELEVATION
 40
0.0
  9
$THICKNESS
 40
0.0
  9
$LIMCHECK
 70
     0
  9
$BLIPMODE
 70
     0
  9
$CHAMFERA
 40
0.0
  9
$CHAMFERB
 40
0.0
  9
$SKPOLY
 70
     0
  9
$TDCREATE
 40
2449840.6508564819
  9
$TDUPDATE
 40
2457968.4251960879
  9
$TDINDWG
 40
0.2940775231
  9
$TDUSRTIMER
 40
0.2940775231
  9
$USRTIMER
 70
     1
  9
$ANGBASE
 50
0.0
  9
$ANGDIR
 70
     0
  9
$PDMODE
 70
     0
  9
$PDSIZE
 40
0.0
  9
$PLINEWID
 40
0.0
  9
$COORDS
 70
     1
  9
$SPLFRAME
 70
     0
  9
$SPLINETYPE
 70
     6
  9
$SPLINESEGS
 70
     8
  9
$ATTDIA
 70
     0
  9
$ATTREQ
 70
     1
  9
$HANDLING
 70
     1
  9
$HANDSEED
  5
23F8
  9
$SURFTAB1
 70
     6
  9
$SURFTAB2
 70
     6
  9
$SURFTYPE
 70
     6
  9
$SURFU
 70
     6
  9
$SURFV
 70
     6
  9
$UCSNAME
  2

  9
$UCSORG
 10
0.0
 20
0.0
 30
0.0
  9
$UCSXDIR
 10
1.0
 20
0.0
 30
0.0
  9
$UCSYDIR
 10
0.0
 20
1.0
 30
0.0
  9
$PUCSNAME
  2

  9
$PUCSORG
 10
0.0
 20
0.0
 30
0.0
  9
$PUCSXDIR
 10
1.0
 20
0.0
 30
0.0
  9
$PUCSYDIR
 10
0.0
 20
1.0
 30
0.0
  9
$USERI1
 70
     0
  9
$USERI2
 70
     1
  9
$USERI3
 70
     1
  9
$USERI4
 70
     0
  9
$USERI5
 70
     0
  9
$USERR1
 40
0.0
  9
$USERR2
 40
0.0
  9
$USERR3
 40
0.0
  9
$USERR4
 40
0.0
  9
$USERR5
 40
0.0
  9
$WORLDVIEW
 70
     1
  9
$SHADEDGE
 70
     3
  9
$SHADEDIF
 70
    70
  9
$TILEMODE
 70
     1
  9
$MAXACTVP
 70
    16
  9
$PLIMCHECK
 70
     0
  9
$PEXTMIN
 10
1.0000000000000000E+020
 20
1.0000000000000000E+020
 30
1.0000000000000000E+020
  9
$PEXTMAX
 10
-1.0000000000000000E+020
 20
-1.0000000000000000E+020
 30
-1.0000000000000000E+020
  9
$PLIMMIN
 10
0.0
 20
0.0
  9
$PLIMMAX
 10
12.0
 20
9.0
  9
$UNITMODE
 70
     0
  9
$VISRETAIN
 70
     0
  9
$PLINEGEN
 70
     0
  9
$PSLTSCALE
 70
     0
  0
ENDSEC
  0
SECTION
  2
TABLES
  0
TABLE
  2
VPORT
 70
     1
  0
VPORT
  2
*ACTIVE
 70
     0
 10
0.0
 20
0.0
 11
1.0
 21
1.0
 12
272.4358974358974
 22
150.0
 13
0.0
 23
0.0
 14
10.0
 24
10.0
 15
10.0
 25
10.0
 16
0.0
 26
0.0
 36
1.0
 17
0.0
 27
0.0
 37
0.0
 40
300.0
 41
1.816239316239316
 42
50.0
 43
0.0
 44
0.0
 50
0.0
 51
0.0
 71
     0
 72
   500
 73
     1
 74
     0
 75
     0
 76
     0
 77
     0
 78
     2
  0
ENDTAB
  0
TABLE
  2
LTYPE
 70
     3
  0
LTYPE
  2
CONTINUOUS
 70
     0
  3
Solid Line
 72
    65
 73
     0
 40
0.0
  0
LTYPE
  2
CENTER
 70
     0
  3
____ _ ____ _ ____ _ ____ _ ____ _ ____ _ ____
 72
    65
 73
     4
 40
2.0
 49
1.25
 49
-0.25
 49
0.25
 49
-0.25
  0
LTYPE
  2
PHANTOM2
 70
     0
  3
___ _ _ ___ _ _ ___ _ _ ___ _ _
 72
    65
 73
     6
 40
1.25
 49
0.625
 49
-0.125
 49
0.125
 49
-0.125
 49
0.125
 49
-0.125
  0
ENDTAB
  0
TABLE
  2
LAYER
 70
     3
  0
LAYER
  2
0
 70
     0
 62
     7
  6
CONTINUOUS
  0
LAYER
  2
1
 70
     0
 62
     1
  6
CENTER
  0
LAYER
  2
3
 70
     0
 62
     3
  6
CONTINUOUS
  0
ENDTAB
  0
TABLE
  2
STYLE
 70
     2
  0
STYLE
  2
STANDARD
 70
     0
 40
0.0
 41
1.0
 50
0.0
 71
     0
 42
0.2
  3
TXT
  4
BIGFONT
  0
STYLE
  2
STANDARD1
 70
     0
 40
0.0
 41
1.0
 50
0.0
 71
     0
 42
3.0
  3
txt
  4

  0
ENDTAB
  0
TABLE
  2
VIEW
 70
     1
  0
VIEW
  2
ALL
 70
     0
 40
270.0
 10
220.99159663865549
 20
135.0
 41
0.0
 11
0.0
 21
0.0
 31
1.0
 12
0.0
 22
0.0
 32
0.0
 42
0.0
 43
0.0
 44
0.0
 50
0.0
 71
     0
  0
ENDTAB
  0
TABLE
  2
UCS
 70
     0
  0
ENDTAB
  0
TABLE
  2
APPID
 70
    13
  0
APPID
  2
ACAD
 70
     0
  0
APPID
  2
GENIUS_GENODEF_13
 70
     0
  0
APPID
  2
GENIUS_GENOENT_13
 70
     0
  0
APPID
  2
GENIUS_GENOBJ_13
 70
     0
  0
APPID
  2
GENIUS_GENOLIS_13
 70
     0
  0
APPID
  2
GENIUS_GENOREF_13
 70
     0
  0
APPID
  2
GENIUS_GENOBJ-N-FIL_13
 70
     0
  0
APPID
  2
ACAD_MLEADERVER
 70
     0
  0
APPID
  2
ACAD_DSTYLE_DIMJAG
 70
     0
  0
APPID
  2
ACAD_DSTYLE_DIMTALN
 70
     0
  0
APPID
  2
ACAD_NAV_VCDISPLAY
 70
     0
  0
APPID
  2
ACAD_EXEMPT_FROM_CAD_STANDARDS
 70
     0
  0
APPID
  2
ACADANNOTATIVE
 70
     0
  0
ENDTAB
  0
TABLE
  2
DIMSTYLE
 70
     1
  0
DIMSTYLE
  2
STANDARD
 70
     0
  3

  4

  5

  6

  7

 40
1.0
 41
0.18
 42
0.0625
 43
0.38
 44
0.18
 45
0.0
 46
0.0
 47
0.0
 48
0.0
140
0.18
141
0.09
142
0.0
143
25.399999999999999
144
1.0
145
0.0
146
1.0
147
0.09
 71
     0
 72
     0
 73
     1
 74
     1
 75
     0
 76
     0
 77
     0
 78
     0
170
     0
171
     2
172
     0
173
     0
174
     0
175
     0
176
     0
177
     0
178
     0
  0
ENDTAB
  0
ENDSEC
  0
SECTION
  2
BLOCKS
  0
BLOCK
  8
0
  2
$MODEL_SPACE
 70
     0
 10
0.0
 20
0.0
 30
0.0
  3
$MODEL_SPACE
  1

  0
ENDBLK
  5
DC
  8
0
  0
BLOCK
 67
     1
  8
0
  2
$PAPER_SPACE
 70
     0
 10
0.0
 20
0.0
 30
0.0
  3
$PAPER_SPACE
  1

  0
ENDBLK
  5
DA
 67
     1
  8
0
  0
ENDSEC
  0
SECTION
  2
ENTITIES
  0
TEXT
  5
452
  8
0
 62
     3
 10
0.0
 20
0.0
 30
0.0
 40
10.0
  1
BAH4040
  7
STANDARD1
  0
ARC
  5
1E56
  8
0
 10
183.09999999999991
 20
73.600000000000037
 30
0.0
 40
2.5
 50
180.0
 51
270.0
  0
LINE
  5
1E5B
  8
0
 10
180.60000000000011
 20
108.59999999999999
 30
0.0
 11
180.60000000000011
 21
73.600000000000037
 31
0.0
  0
ARC
  5
1E5C
  8
0
 10
183.10000000000011
 20
108.59999999999999
 30
0.0
 40
2.5
 50
90.0
 51
180.0
  0
LINE
  5
1E62
  8
0
 10
190.10000000000011
 20
111.09999999999999
 30
0.0
 11
190.0999999999994
 21
71.099999999999994
 31
0.0
  0
LINE
  5
1E65
  8
0
 10
179.99999999999989
 20
71.100000000000051
 30
0.0
 11
190.09999999999991
 21
71.100000000000009
 31
0.0
  0
LINE
  5
1E66
  8
0
 10
160.0
 20
111.10000000000009
 30
0.0
 11
190.09999999999999
 21
111.09999999999999
 31
0.0
  0
CIRCLE
  5
1E68
  8
0
 10
159.99999999999989
 20
91.100000000000108
 30
0.0
 40
6.7999999999999972
  0
CIRCLE
  5
1E6A
  8
0
 10
159.99999999999989
 20
91.100000000000108
 30
0.0
 40
4.4999999999504317
  0
CIRCLE
  5
1E6B
  8
0
 10
159.99999999999989
 20
91.100000000000108
 30
0.0
 40
3.2999999999999972
  0
LINE
  5
1E6C
  8
0
 10
140.0
 20
91.100000000000108
 30
0.0
 11
140.0
 21
61.000000000000121
 31
0.0
  0
CIRCLE
  5
1E70
  8
0
 10
159.99999999999989
 20
91.100000000000108
 30
0.0
 40
14.0
  0
LINE
  5
1E76
  8
0
 10
179.99999999999989
 20
61.000000000000121
 30
0.0
 11
179.99999999999989
 21
91.100000000000108
 31
0.0
  0
LINE
  5
1E77
  8
0
 10
179.99999999999989
 20
61.000000000000121
 30
0.0
 11
140.0
 21
61.000000000000121
 31
0.0
  0
ARC
  5
1E78
  8
0
 10
159.99999999999989
 20
91.100000000000108
 30
0.0
 40
20.0
 50
0.0
 51
180.0
  0
ARC
  5
1E7B
  8
0
 10
142.5
 20
187.84999999999999
 30
0.0
 40
2.500000000000012
 50
90.0
 51
170.81088968172469
  0
ARC
  5
1E7C
  8
0
 10
142.5
 20
174.35000000000011
 30
0.0
 40
2.5000000000000231
 50
189.2274827634082
 51
270.0
  0
LINE
  5
1E7D
  8
0
 10
180.60000000000011
 20
198.59999999999999
 30
0.0
 11
180.60000000000011
 21
190.34999999999999
 31
0.0
  0
ARC
  5
1E7E
  8
0
 10
183.10000000000011
 20
198.59999999999999
 30
0.0
 40
2.500000000000028
 50
90.0
 51
180.0
  0
ARC
  5
1E82
  8
0
 10
183.10000000000011
 20
163.59999999999999
 30
0.0
 40
2.5
 50
180.0
 51
270.0
  0
LINE
  5
1E83
  8
0
 10
180.60000000000011
 20
171.84999999999999
 30
0.0
 11
180.60000000000011
 21
163.59999999999999
 31
0.0
  0
POLYLINE
  5
1E86
  8
0
 66
     1
 10
0.0
 20
0.0
 30
0.0
 70
   128
  0
VERTEX
  5
23EF
  8
0
 10
140.03221943431981
 20
188.24994431841711
 30
0.0
  0
VERTEX
  5
23F0
  8
0
 10
140.03220746414939
 20
188.25
 30
0.0
  0
VERTEX
  5
23F1
  8
0
 10
140.05313552565329
 20
188.1521273386121
 30
0.0
  0
VERTEX
  5
23F2
  8
0
 10
140.13948641147459
 20
187.84999999999999
 30
0.0
  0
SEQEND
  5
23F3
  8
0
  0
LINE
  5
1E87
  8
0
 10
180.60000000000011
 20
190.35000000000011
 30
0.0
 11
142.5
 21
190.34999999999999
 31
0.0
  0
LINE
  5
1E8A
  8
0
 10
180.60000000000011
 20
171.85000000000011
 30
0.0
 11
142.5
 21
171.85000000000011
 31
0.0
  0
POLYLINE
  5
1E8B
  8
0
 66
     1
 10
0.0
 20
0.0
 30
0.0
 70
   128
  0
VERTEX
  5
23F4
  8
0
 10
140.13948641147459
 20
174.35000000000011
 30
0.0
  0
VERTEX
  5
23F5
  8
0
 10
140.05460554859491
 20
174.05418905890639
 30
0.0
  0
VERTEX
  5
23F6
  8
0
 10
140.03221926865399
 20
173.9500549109562
 30
0.0
  0
SEQEND
  5
23F7
  8
0
  0
ARC
  5
1E8D
  8
0
 10
121.1179670724531
 20
181.10000000000011
 30
0.0
 40
20.1836740452468
 50
340.46219837573312
 51
19.537801624267878
  0
LINE
  5
1E9B
  8
0
 10
190.09999999999999
 20
201.10000000000011
 30
0.0
 11
183.10000000000011
 21
201.10000000000011
 31
0.0
  0
LINE
  5
1E9C
  8
0
 10
190.09999999999999
 20
201.10000000000011
 30
0.0
 11
190.10000000000059
 21
161.09999999999999
 31
0.0
  0
LINE
  5
1EA2
  8
0
 10
190.09999999999999
 20
161.09999999999999
 30
0.0
 11
183.10000000000011
 21
161.10000000000011
 31
0.0
  0
LINE
  5
1EA5
  8
0
 10
167.99999999999989
 20
192.59999999999999
 30
0.0
 11
168.0
 21
190.59999999999999
 31
0.0
  0
LINE
  5
1EA6
  8
0
 10
151.99999999999989
 20
192.59999999999999
 30
0.0
 11
168.0
 21
192.59999999999999
 31
0.0
  0
LINE
  5
1EA7
  8
0
 10
151.99999999999989
 20
192.59999999999999
 30
0.0
 11
152.0
 21
190.59999999999999
 31
0.0
  0
LINE
  5
1EA8
  8
0
 10
177.49999999999989
 20
190.59999999999999
 30
0.0
 11
142.5
 21
190.59999999999999
 31
0.0
  0
ARC
  5
1EA9
  8
0
 10
142.5
 20
193.09999999999999
 30
0.0
 40
2.5000000000000142
 50
180.0
 51
270.0
  0
ARC
  5
1EAB
  8
0
 10
177.49999999999989
 20
193.09999999999999
 30
0.0
 40
2.5
 50
270.0
 51
0.0
  0
ARC
  5
1EAD
  8
0
 10
177.49999999999989
 20
169.09999999999999
 30
0.0
 40
2.5
 50
0.0
 51
90.0
  0
ARC
  5
1EAF
  8
0
 10
142.5
 20
169.09999999999999
 30
0.0
 40
2.5000000000000142
 50
90.0
 51
180.0
  0
LINE
  5
1EB0
  8
0
 10
142.5
 20
171.60000000000011
 30
0.0
 11
177.49999999999989
 21
171.60000000000011
 31
0.0
  0
LINE
  5
1EB1
  8
0
 10
152.0
 20
171.60000000000011
 30
0.0
 11
152.0
 21
169.60000000000011
 31
0.0
  0
LINE
  5
1EB2
  8
0
 10
152.0
 20
169.60000000000011
 30
0.0
 11
168.0
 21
169.60000000000011
 31
0.0
  0
LINE
  5
1EB3
  8
0
 10
168.0
 20
169.60000000000011
 30
0.0
 11
168.0
 21
171.60000000000011
 31
0.0
  0
ARC
  5
1EB5
  8
0
 10
142.5
 20
198.59999999999999
 30
0.0
 40
2.500000000000028
 50
90.0
 51
180.0
  0
LINE
  5
1EB6
  8
0
 10
142.5
 20
201.10000000000011
 30
0.0
 11
177.49999999999989
 21
201.10000000000011
 31
0.0
  0
ARC
  5
1EB8
  8
0
 10
177.49999999999989
 20
198.59999999999999
 30
0.0
 40
2.500000000000028
 50
0.0
 51
90.0
  0
ARC
  5
1EBA
  8
0
 10
177.49999999999989
 20
163.59999999999999
 30
0.0
 40
2.5
 50
270.0
 51
0.0
  0
LINE
  5
1EBC
  8
0
 10
177.49999999999989
 20
161.10000000000011
 30
0.0
 11
142.5
 21
161.10000000000011
 31
0.0
  0
ARC
  5
1EBD
  8
0
 10
142.5
 20
163.59999999999999
 30
0.0
 40
2.5000000000000142
 50
180.0
 51
270.0
  0
LINE
  5
1EBE
  8
0
 10
140.0
 20
163.59999999999999
 30
0.0
 11
140.0
 21
198.59999999999999
 31
0.0
  0
LINE
  5
1EBF
  8
0
 10
179.99999999999989
 20
198.59999999999999
 30
0.0
 11
179.99999999999989
 21
190.34999999999999
 31
0.0
  0
LINE
  5
1EC1
  8
0
 10
179.99999999999989
 20
171.85000000000011
 30
0.0
 11
179.99999999999989
 21
163.59999999999999
 31
0.0
  0
CIRCLE
  5
1EC7
  8
0
 10
159.99999999999989
 20
181.10000000000011
 30
0.0
 40
4.1499999999999773
  0
ARC
  5
1ECC
  8
0
 10
277.5999999999998
 20
108.60000000000009
 30
0.0
 40
2.5000000000000142
 50
0.0
 51
90.0
  0
ARC
  5
1ECD
  8
0
 10
242.5999999999998
 20
108.60000000000009
 30
0.0
 40
2.5000000000000142
 50
90.0
 51
180.0
  0
LINE
  5
1ECF
  8
0
 10
277.5999999999998
 20
111.10000000000009
 30
0.0
 11
242.5999999999998
 21
111.10000000000009
 31
0.0
  0
CIRCLE
  5
1ED0
  8
0
 10
260.09999999999991
 20
91.099999999999994
 30
0.0
 40
4.0000000000001421
  0
LINE
  5
1ED1
  8
0
 10
244.0999999999998
 20
71.100000000000009
 30
0.0
 11
276.09999999999991
 21
71.100000000000009
 31
0.0
  0
ARC
  5
1ED2
  8
0
 10
276.09999999999991
 20
75.100000000000009
 30
0.0
 40
4.0
 50
270.0
 51
0.0
  0
ARC
  5
1ED3
  8
0
 10
244.0999999999998
 20
75.100000000000009
 30
0.0
 40
4.0
 50
180.0
 51
270.0
  0
ARC
  5
1ED6
  8
0
 10
244.0999999999998
 20
107.09999999999999
 30
0.0
 40
4.0
 50
90.0
 51
180.0
  0
ARC
  5
1ED7
  8
0
 10
276.09999999999991
 20
107.09999999999999
 30
0.0
 40
4.0
 50
0.0
 51
90.0
  0
LINE
  5
1ED9
  8
0
 10
280.0999999999998
 20
108.60000000000009
 30
0.0
 11
280.0999999999998
 21
61.000000000000121
 31
0.0
  0
LINE
  5
1EDA
  8
0
 10
240.0999999999998
 20
61.000000000000121
 30
0.0
 11
240.0999999999998
 21
108.60000000000009
 31
0.0
  0
LINE
  5
1EE0
  8
0
 10
269.5999999999998
 20
71.099999999999994
 30
0.0
 11
269.5999999999998
 21
70.500000000000099
 31
0.0
  0
LINE
  5
1EE1
  8
0
 10
250.5999999999998
 20
70.500000000000099
 30
0.0
 11
250.5999999999998
 21
71.100000000000009
 31
0.0
  0
LINE
  5
1EE4
  8
0
 10
280.0999999999998
 20
61.000000000000121
 30
0.0
 11
240.0999999999998
 21
61.000000000000121
 31
0.0
  0
LINE
  5
1EE5
  8
0
 10
269.5999999999998
 20
70.500000000000099
 30
0.0
 11
250.5999999999998
 21
70.500000000000099
 31
0.0
  0
ARC
  5
1EEC
  8
0
 10
58.0
 20
108.60000000000009
 30
0.0
 40
2.5000000000000142
 50
78.463040967185179
 51
90.0
  0
ARC
  5
1EED
  8
0
 10
82.0
 20
108.60000000000009
 30
0.0
 40
2.5000000000000142
 50
90.0
 51
101.53695903281481
  0
ARC
  5
1EEE
  8
0
 10
52.5
 20
108.60000000000009
 30
0.0
 40
2.5000000000000142
 50
90.0
 51
180.0
  0
ARC
  5
1EEF
  8
0
 10
87.5
 20
108.60000000000009
 30
0.0
 40
2.5000000000000142
 50
0.0
 51
90.0
  0
LINE
  5
1EF1
  8
0
 10
87.5
 20
111.10000000000009
 30
0.0
 11
52.5
 21
111.10000000000009
 31
0.0
  0
ARC
  5
1EF4
  8
0
 10
63.25
 20
73.600000000000094
 30
0.0
 40
2.500000000000028
 50
180.0
 51
270.0
  0
LINE
  5
1EF6
  8
0
 10
60.75
 20
108.60000000000009
 30
0.0
 11
60.75
 21
73.600000000000094
 31
0.0
  0
ARC
  5
1EF7
  8
0
 10
63.25
 20
108.60000000000009
 30
0.0
 40
2.5000000000000142
 50
90.0
 51
180.0
  0
ARC
  5
1EF9
  8
0
 10
76.75
 20
108.60000000000009
 30
0.0
 40
2.5000000000000142
 50
0.0
 51
90.0
  0
LINE
  5
1EFA
  8
0
 10
79.25
 20
108.60000000000009
 30
0.0
 11
79.249999999999943
 21
73.600000000000094
 31
0.0
  0
ARC
  5
1EFC
  8
0
 10
76.75
 20
73.600000000000094
 30
0.0
 40
2.5
 50
270.0
 51
0.0
  0
ARC
  5
1F01
  8
0
 10
70.0
 20
51.386683990109091
 30
0.0
 40
20.16624229016962
 50
77.833795589407003
 51
102.166204410593
  0
ARC
  5
1F05
  8
0
 10
70.0
 20
130.47831016619861
 30
0.0
 40
20.345980067261241
 50
252.2581693943049
 51
287.7418306056951
  0
LINE
  5
1F0C
  8
0
 10
79.5
 20
71.100000000000037
 30
0.0
 11
60.500000000000291
 21
71.100000000000037
 31
0.0
  0
CIRCLE
  5
1F10
  8
0
 10
70.0
 20
91.100000000000023
 30
0.0
 40
4.1500000000000048
  0
LINE
  5
1F11
  8
0
 10
58.5
 20
109.37517827539349
 30
0.0
 11
58.5
 21
111.04948974278329
 31
0.0
  0
ARC
  5
1F12
  8
0
 10
57.770532582074559
 20
106.743795352639
 30
0.0
 40
2.7306224198850342
 50
358.3334687018322
 51
74.505654425101014
  0
LINE
  5
1F13
  8
0
 10
60.5
 20
106.6643824162735
 30
0.0
 11
60.5
 21
70.500000000000099
 31
0.0
  0
LINE
  5
1F16
  8
0
 10
79.499999999999943
 20
70.500000000000099
 30
0.0
 11
79.5
 21
106.6643824162735
 31
0.0
  0
ARC
  5
1F17
  8
0
 10
82.181043828600764
 20
106.77952182695959
 30
0.0
 40
2.6835150632652551
 50
104.7017782927941
 51
182.45909858027281
  0
LINE
  5
1F18
  8
0
 10
81.5
 20
109.37517827539349
 30
0.0
 11
81.5
 21
111.04948974278329
 31
0.0
  0
LINE
  5
1F1A
  8
0
 10
50.0
 20
61.000000000000121
 30
0.0
 11
50.0
 21
108.60000000000009
 31
0.0
  0
LINE
  5
1F1B
  8
0
 10
90.0
 20
108.60000000000009
 30
0.0
 11
90.0
 21
61.000000000000121
 31
0.0
  0
LINE
  5
1F2C
  8
0
 10
90.0
 20
61.000000000000121
 30
0.0
 11
50.0
 21
61.000000000000121
 31
0.0
  0
LINE
  5
1F2D
  8
0
 10
79.5
 20
70.500000000000099
 30
0.0
 11
60.5
 21
70.500000000000099
 31
0.0
  0
CIRCLE
  5
1F79
  8
0
 10
159.99999999999989
 20
181.10000000000011
 30
0.0
 40
6.2000000000000171
  0
CIRCLE
  5
20C9
  8
0
 10
70.000000000000057
 20
91.100000000000179
 30
0.0
 40
7.1499999999999906
  0
LINE
  5
20CA
  8
1
 10
70.000000000000057
 20
116.10000000000009
 30
0.0
 11
70.000000000000057
 21
45.0
 31
0.0
  0
LINE
  5
20CB
  8
1
 10
159.99999999999989
 20
45.0
 30
0.0
 11
159.99999999999989
 21
116.10000000000009
 31
0.0
  0
LINE
  5
20CC
  8
1
 10
260.09999999999991
 20
116.10000000000009
 30
0.0
 11
260.09999999999991
 21
45.0
 31
0.0
  0
LINE
  5
20CD
  8
1
 10
285.09999999999991
 20
91.099999999999994
 30
0.0
 11
235.09999999999991
 21
91.099999999999994
 31
0.0
  0
LINE
  5
20CE
  8
1
 10
135.0
 20
181.10000000000011
 30
0.0
 11
206.10000000000031
 21
181.10000000000011
 31
0.0
  0
LINE
  5
20D7
  8
1
 10
159.99999999999989
 20
156.10000000000011
 30
0.0
 11
159.99999999999989
 21
206.10000000000011
 31
0.0
  0
LINE
  5
20E2
  8
1
 10
206.10000000000031
 20
91.099999999999994
 30
0.0
 11
135.0
 21
91.099999999999994
 31
0.0
  0
LINE
  5
20E3
  8
1
 10
95.0
 20
91.099999999999994
 30
0.0
 11
45.0
 21
91.099999999999994
 31
0.0
  0
LINE
  5
2140
  8
0
 10
199.9000000000004
 20
185.10000000000019
 30
0.0
 11
199.9000000000002
 21
177.10000000000011
 31
0.0
  0
LINE
  5
2141
  8
0
 10
201.10000000000031
 20
178.30000000000021
 30
0.0
 11
199.9000000000002
 21
177.10000000000019
 31
0.0
  0
LINE
  5
2142
  8
0
 10
199.90000000000029
 20
185.10000000000019
 30
0.0
 11
201.10000000000031
 21
183.90000000000009
 31
0.0
  0
LINE
  5
2143
  8
0
 10
190.10000000000019
 20
185.10000000000019
 30
0.0
 11
199.90000000000029
 21
185.10000000000019
 31
0.0
  0
LINE
  5
2144
  8
3
 10
190.10000000000019
 20
184.42350000000019
 30
0.0
 11
200.57650000000021
 21
184.42350000000019
 31
0.0
  0
LINE
  5
2145
  8
3
 10
190.10000000000031
 20
177.7765
 30
0.0
 11
200.57650000000021
 21
177.7765
 31
0.0
  0
LINE
  5
2146
  8
0
 10
190.10000000000031
 20
177.10000000000019
 30
0.0
 11
199.9000000000002
 21
177.10000000000019
 31
0.0
  0
LINE
  5
2147
  8
0
 10
201.10000000000031
 20
183.90000000000009
 30
0.0
 11
201.10000000000031
 21
178.30000000000021
 31
0.0
  0
LINE
  5
2151
  8
0
 10
199.89999999999981
 20
95.100000000000151
 30
0.0
 11
199.89999999999969
 21
87.100000000000094
 31
0.0
  0
LINE
  5
2152
  8
0
 10
201.09999999999971
 20
88.300000000000139
 30
0.0
 11
199.89999999999969
 21
87.100000000000136
 31
0.0
  0
LINE
  5
2153
  8
0
 10
199.89999999999969
 20
95.100000000000122
 30
0.0
 11
201.09999999999971
 21
93.900000000000105
 31
0.0
  0
LINE
  5
2154
  8
0
 10
190.0999999999996
 20
95.100000000000151
 30
0.0
 11
199.89999999999969
 21
95.100000000000122
 31
0.0
  0
LINE
  5
2155
  8
3
 10
190.09999999999971
 20
94.423500000000246
 30
0.0
 11
200.57649999999961
 21
94.423500000000246
 31
0.0
  0
LINE
  5
2156
  8
3
 10
190.09999999999971
 20
87.776500000000013
 30
0.0
 11
200.57649999999961
 21
87.776500000000013
 31
0.0
  0
LINE
  5
2157
  8
0
 10
190.0999999999998
 20
87.100000000000136
 30
0.0
 11
199.89999999999969
 21
87.100000000000136
 31
0.0
  0
LINE
  5
2158
  8
0
 10
201.09999999999971
 20
93.900000000000105
 30
0.0
 11
201.09999999999971
 21
88.300000000000139
 31
0.0
  0
LINE
  5
2159
  8
0
 10
163.9999999999998
 20
51.199999999999932
 30
0.0
 11
155.9999999999998
 21
51.200000000000038
 31
0.0
  0
LINE
  5
215A
  8
0
 10
157.19999999999979
 20
50.0
 30
0.0
 11
155.99999999999989
 21
51.200000000000038
 31
0.0
  0
LINE
  5
215B
  8
0
 10
163.9999999999998
 20
51.199999999999989
 30
0.0
 11
162.79999999999981
 21
50.0
 31
0.0
  0
LINE
  5
215C
  8
0
 10
163.9999999999998
 20
61.000000000000121
 30
0.0
 11
163.9999999999998
 21
51.199999999999989
 31
0.0
  0
LINE
  5
215D
  8
3
 10
163.32349999999991
 20
61.00000000000005
 30
0.0
 11
163.32349999999991
 21
50.523500000000119
 31
0.0
  0
LINE
  5
215E
  8
3
 10
156.67649999999969
 20
61.0
 30
0.0
 11
156.67649999999969
 21
50.523500000000119
 31
0.0
  0
LINE
  5
215F
  8
0
 10
155.99999999999989
 20
60.999999999999943
 30
0.0
 11
155.99999999999989
 21
51.200000000000038
 31
0.0
  0
LINE
  5
2160
  8
0
 10
162.79999999999981
 20
50.0
 30
0.0
 11
157.19999999999979
 21
50.0
 31
0.0
  0
LINE
  5
2162
  8
0
 10
74.0
 20
51.199999999999932
 30
0.0
 11
65.999999999999943
 21
51.200000000000038
 31
0.0
  0
LINE
  5
2163
  8
0
 10
67.199999999999974
 20
50.0
 30
0.0
 11
66.0
 21
51.200000000000038
 31
0.0
  0
LINE
  5
2164
  8
0
 10
74.0
 20
51.199999999999989
 30
0.0
 11
72.799999999999955
 21
50.0
 31
0.0
  0
LINE
  5
2165
  8
0
 10
74.0
 20
61.000000000000121
 30
0.0
 11
74.0
 21
51.199999999999989
 31
0.0
  0
LINE
  5
2166
  8
3
 10
73.323500000000081
 20
61.00000000000005
 30
0.0
 11
73.323500000000081
 21
50.523500000000119
 31
0.0
  0
LINE
  5
2167
  8
3
 10
66.676499999999862
 20
61.0
 30
0.0
 11
66.676499999999862
 21
50.523500000000119
 31
0.0
  0
LINE
  5
2168
  8
0
 10
66.0
 20
60.999999999999943
 30
0.0
 11
66.0
 21
51.200000000000038
 31
0.0
  0
LINE
  5
2169
  8
0
 10
72.799999999999955
 20
50.0
 30
0.0
 11
67.199999999999974
 21
50.0
 31
0.0
  0
LINE
  5
216A
  8
0
 10
264.09999999999968
 20
51.199999999999932
 30
0.0
 11
256.09999999999968
 21
51.200000000000038
 31
0.0
  0
LINE
  5
216B
  8
0
 10
257.29999999999978
 20
50.0
 30
0.0
 11
256.09999999999991
 21
51.200000000000038
 31
0.0
  0
LINE
  5
216C
  8
0
 10
264.09999999999968
 20
51.199999999999989
 30
0.0
 11
262.89999999999969
 21
50.0
 31
0.0
  0
LINE
  5
216D
  8
0
 10
264.09999999999968
 20
61.000000000000121
 30
0.0
 11
264.09999999999968
 21
51.199999999999989
 31
0.0
  0
LINE
  5
216E
  8
3
 10
263.42349999999988
 20
61.00000000000005
 30
0.0
 11
263.42349999999988
 21
50.523500000000119
 31
0.0
  0
LINE
  5
216F
  8
3
 10
256.7764999999996
 20
61.0
 30
0.0
 11
256.7764999999996
 21
50.523500000000119
 31
0.0
  0
LINE
  5
2170
  8
0
 10
256.09999999999991
 20
60.999999999999943
 30
0.0
 11
256.09999999999991
 21
51.200000000000038
 31
0.0
  0
LINE
  5
2171
  8
0
 10
262.89999999999969
 20
50.0
 30
0.0
 11
257.29999999999978
 21
50.0
 31
0.0
  0
CIRCLE
  5
21C9
  8
3
 10
260.09999999999991
 20
91.099999999999994
 30
0.0
 40
3.323500000000251
  0
LINE
  5
2283
  8
0
 10
251.9999999999998
 20
77.300000000000026
 30
0.0
 11
251.9999999999998
 21
73.100000000000023
 31
0.0
  0
LINE
  5
2284
  8
0
 10
256.09999999999991
 20
81.100000000000009
 30
0.0
 11
256.09999999999991
 21
77.300000000000011
 31
0.0
  0
LINE
  5
2285
  8
0
 10
268.19999999999987
 20
77.299999999999983
 30
0.0
 11
268.19999999999987
 21
73.100000000000009
 31
0.0
  0
LINE
  5
2286
  8
0
 10
264.09999999999991
 20
81.099999999999994
 30
0.0
 11
264.09999999999991
 21
77.299999999999983
 31
0.0
  0
LINE
  5
2287
  8
0
 10
251.9999999999998
 20
73.100000000000023
 30
0.0
 11
268.19999999999987
 21
73.09999999999998
 31
0.0
  0
LINE
  5
228A
  8
0
 10
256.09999999999991
 20
81.099999999999994
 30
0.0
 11
264.0999999999998
 21
81.099999999999994
 31
0.0
  0
LINE
  5
228C
  8
0
 10
251.9999999999998
 20
77.300000000000026
 30
0.0
 11
256.0999999999998
 21
77.300000000000026
 31
0.0
  0
LINE
  5
228D
  8
0
 10
264.0999999999998
 20
77.299999999999983
 30
0.0
 11
268.19999999999987
 21
77.299999999999983
 31
0.0
  0
LINE
  5
2290
  8
0
 10
251.9999999999998
 20
104.89999999999991
 30
0.0
 11
251.9999999999998
 21
109.09999999999989
 31
0.0
  0
LINE
  5
2291
  8
0
 10
256.09999999999991
 20
101.09999999999999
 30
0.0
 11
256.09999999999991
 21
104.89999999999991
 31
0.0
  0
LINE
  5
2292
  8
0
 10
268.19999999999987
 20
104.90000000000001
 30
0.0
 11
268.19999999999987
 21
109.09999999999989
 31
0.0
  0
LINE
  5
2293
  8
0
 10
264.09999999999991
 20
101.09999999999999
 30
0.0
 11
264.09999999999991
 21
104.90000000000001
 31
0.0
  0
LINE
  5
2294
  8
0
 10
251.9999999999998
 20
109.09999999999989
 30
0.0
 11
268.19999999999987
 21
109.09999999999999
 31
0.0
  0
LINE
  5
2295
  8
0
 10
251.9999999999998
 20
104.89999999999991
 30
0.0
 11
256.0999999999998
 21
104.89999999999991
 31
0.0
  0
LINE
  5
2296
  8
0
 10
264.0999999999998
 20
104.90000000000001
 30
0.0
 11
268.19999999999987
 21
104.90000000000001
 31
0.0
  0
LINE
  5
2297
  8
0
 10
256.09999999999991
 20
101.09999999999999
 30
0.0
 11
264.0999999999998
 21
101.09999999999999
 31
0.0
  0
LINE
  5
22A8
  8
0
 10
273.89999999999981
 20
82.999999999999972
 30
0.0
 11
278.0999999999998
 21
82.999999999999972
 31
0.0
  0
LINE
  5
22A9
  8
0
 10
270.0999999999998
 20
87.099999999999994
 30
0.0
 11
273.89999999999981
 21
87.099999999999994
 31
0.0
  0
LINE
  5
22AA
  8
0
 10
273.89999999999981
 20
99.200000000000017
 30
0.0
 11
278.0999999999998
 21
99.200000000000017
 31
0.0
  0
LINE
  5
22AB
  8
0
 10
270.09999999999991
 20
95.099999999999994
 30
0.0
 11
273.89999999999981
 21
95.099999999999994
 31
0.0
  0
LINE
  5
22AC
  8
0
 10
278.0999999999998
 20
82.999999999999972
 30
0.0
 11
278.0999999999998
 21
99.200000000000017
 31
0.0
  0
LINE
  5
22AD
  8
0
 10
273.89999999999981
 20
82.999999999999972
 30
0.0
 11
273.89999999999981
 21
87.099999999999923
 31
0.0
  0
LINE
  5
22AE
  8
0
 10
273.89999999999981
 20
95.099999999999937
 30
0.0
 11
273.89999999999981
 21
99.200000000000017
 31
0.0
  0
LINE
  5
22AF
  8
0
 10
270.09999999999991
 20
87.099999999999994
 30
0.0
 11
270.09999999999991
 21
95.099999999999937
 31
0.0
  0
LINE
  5
22B0
  8
0
 10
246.2999999999999
 20
82.999999999999972
 30
0.0
 11
242.0999999999998
 21
82.999999999999972
 31
0.0
  0
LINE
  5
22B1
  8
0
 10
250.09999999999991
 20
87.099999999999994
 30
0.0
 11
246.29999999999981
 21
87.099999999999994
 31
0.0
  0
LINE
  5
22B2
  8
0
 10
246.29999999999981
 20
99.200000000000017
 30
0.0
 11
242.0999999999998
 21
99.200000000000017
 31
0.0
  0
LINE
  5
22B3
  8
0
 10
250.09999999999991
 20
95.099999999999994
 30
0.0
 11
246.29999999999981
 21
95.099999999999994
 31
0.0
  0
LINE
  5
22B4
  8
0
 10
242.0999999999998
 20
82.999999999999972
 30
0.0
 11
242.0999999999998
 21
99.200000000000017
 31
0.0
  0
LINE
  5
22B5
  8
0
 10
246.29999999999981
 20
82.999999999999972
 30
0.0
 11
246.29999999999981
 21
87.099999999999923
 31
0.0
  0
LINE
  5
22B6
  8
0
 10
246.29999999999981
 20
95.099999999999937
 30
0.0
 11
246.29999999999981
 21
99.200000000000017
 31
0.0
  0
LINE
  5
22B7
  8
0
 10
250.09999999999991
 20
87.099999999999994
 30
0.0
 11
250.09999999999991
 21
95.099999999999937
 31
0.0
  0
ENDSEC
  0
EOF
