  0
SECTION
  2
HEADER
  9
$ACADVER
  1
AC1009
  9
$INSBASE
 10
0.0
 20
0.0
 30
0.0
  9
$EXTMIN
 10
0.0
 20
-2.960436562073669
 30
0.0
  9
$EXTMAX
 10
639.05556505023685
 20
487.36776466117271
 30
0.0
  9
$LIMMIN
 10
0.0
 20
0.0
  9
$LIMMAX
 10
750.0
 20
540.0
  9
$ORTHOMODE
 70
     1
  9
$REGENMODE
 70
     1
  9
$FILLMODE
 70
     1
  9
$QTEXTMODE
 70
     0
  9
$MIRRTEXT
 70
     0
  9
$DRAGMODE
 70
     2
  9
$LTSCALE
 40
20.0
  9
$OSMODE
 70
  3071
  9
$ATTMODE
 70
     1
  9
$TEXTSIZE
 40
0.2
  9
$TRACEWID
 40
0.05
  9
$TEXTSTYLE
  7
STANDARD
  9
$CLAYER
  8
0
  9
$CELTYPE
  6
BYLAYER
  9
$CECOLOR
 62
   256
  9
$DIMSCALE
 40
2.0
  9
$DIMASZ
 40
3.0
  9
$DIMEXO
 40
2.0
  9
$DIMDLI
 40
0.38
  9
$DIMRND
 40
0.0
  9
$DIMDLE
 40
0.0
  9
$DIMEXE
 40
2.0
  9
$DIMTP
 40
0.0
  9
$DIMTM
 40
0.0
  9
$DIMTXT
 40
3.2000000000000002
  9
$DIMCEN
 40
0.0
  9
$DIMTSZ
 40
0.0
  9
$DIMTOL
 70
     0
  9
$DIMLIM
 70
     0
  9
$DIMTIH
 70
     0
  9
$DIMTOH
 70
     0
  9
$DIMSE1
 70
     0
  9
$DIMSE2
 70
     0
  9
$DIMTAD
 70
     1
  9
$DIMZIN
 70
     0
  9
$DIMBLK
  1

  9
$DIMASO
 70
     0
  9
$DIMSHO
 70
     0
  9
$DIMPOST
  1

  9
$DIMAPOST
  1

  9
$DIMALT
 70
     0
  9
$DIMALTD
 70
     2
  9
$DIMALTF
 40
25.399999999999999
  9
$DIMLFAC
 40
1.0
  9
$DIMTOFL
 70
     1
  9
$DIMTVP
 40
1.6000000000000001
  9
$DIMTIX
 70
     1
  9
$DIMSOXD
 70
     0
  9
$DIMSAH
 70
     0
  9
$DIMBLK1
  1

  9
$DIMBLK2
  1

  9
$DIMSTYLE
  2
STANDARD
  9
$DIMCLRD
 70
     0
  9
$DIMCLRE
 70
     0
  9
$DIMCLRT
 70
     0
  9
$DIMTFAC
 40
1.0
  9
$DIMGAP
 40
0.09
  9
$LUNITS
 70
     2
  9
$LUPREC
 70
     4
  9
$SKETCHINC
 40
0.1
  9
$FILLETRAD
 40
2.0
  9
$AUNITS
 70
     0
  9
$AUPREC
 70
     4
  9
$MENU
  1
E:\r13\win\SUPPORT\ACAD
  9
$ELEVATION
 40
0.0
  9
$PELEVATION
 40
0.0
  9
$THICKNESS
 40
0.0
  9
$LIMCHECK
 70
     0
  9
$BLIPMODE
 70
     0
  9
$CHAMFERA
 40
0.0
  9
$CHAMFERB
 40
0.0
  9
$SKPOLY
 70
     0
  9
$TDCREATE
 40
2449839.776111111
  9
$TDUPDATE
 40
2456597.5913832872
  9
$TDINDWG
 40
0.0000903935
  9
$TDUSRTIMER
 40
0.0000903935
  9
$USRTIMER
 70
     1
  9
$ANGBASE
 50
0.0
  9
$ANGDIR
 70
     0
  9
$PDMODE
 70
     0
  9
$PDSIZE
 40
0.0
  9
$PLINEWID
 40
0.0
  9
$COORDS
 70
     1
  9
$SPLFRAME
 70
     0
  9
$SPLINETYPE
 70
     6
  9
$SPLINESEGS
 70
     8
  9
$ATTDIA
 70
     0
  9
$ATTREQ
 70
     1
  9
$HANDLING
 70
     1
  9
$HANDSEED
  5
5A0
  9
$SURFTAB1
 70
     6
  9
$SURFTAB2
 70
     6
  9
$SURFTYPE
 70
     6
  9
$SURFU
 70
     6
  9
$SURFV
 70
     6
  9
$UCSNAME
  2

  9
$UCSORG
 10
0.0
 20
0.0
 30
0.0
  9
$UCSXDIR
 10
1.0
 20
0.0
 30
0.0
  9
$UCSYDIR
 10
0.0
 20
1.0
 30
0.0
  9
$PUCSNAME
  2

  9
$PUCSORG
 10
0.0
 20
0.0
 30
0.0
  9
$PUCSXDIR
 10
1.0
 20
0.0
 30
0.0
  9
$PUCSYDIR
 10
0.0
 20
1.0
 30
0.0
  9
$USERI1
 70
     0
  9
$USERI2
 70
     1
  9
$USERI3
 70
     0
  9
$USERI4
 70
     0
  9
$USERI5
 70
     0
  9
$USERR1
 40
0.0
  9
$USERR2
 40
0.0
  9
$USERR3
 40
0.0
  9
$USERR4
 40
0.0
  9
$USERR5
 40
0.0
  9
$WORLDVIEW
 70
     1
  9
$SHADEDGE
 70
     3
  9
$SHADEDIF
 70
    70
  9
$TILEMODE
 70
     1
  9
$MAXACTVP
 70
    16
  9
$PLIMCHECK
 70
     0
  9
$PEXTMIN
 10
1.0000000000000000E+020
 20
1.0000000000000000E+020
 30
1.0000000000000000E+020
  9
$PEXTMAX
 10
-1.0000000000000000E+020
 20
-1.0000000000000000E+020
 30
-1.0000000000000000E+020
  9
$PLIMMIN
 10
0.0
 20
0.0
  9
$PLIMMAX
 10
12.0
 20
9.0
  9
$UNITMODE
 70
     0
  9
$VISRETAIN
 70
     0
  9
$PLINEGEN
 70
     0
  9
$PSLTSCALE
 70
     0
  0
ENDSEC
  0
SECTION
  2
TABLES
  0
TABLE
  2
VPORT
 70
     1
  0
VPORT
  2
*ACTIVE
 70
     0
 10
0.0
 20
0.0
 11
1.0
 21
1.0
 12
390.03402345615979
 22
268.50860658393782
 13
0.0
 23
0.0
 14
20.0
 24
20.0
 15
20.0
 25
20.0
 16
0.0
 26
0.0
 36
1.0
 17
0.0
 27
0.0
 37
0.0
 40
547.85258761088789
 41
1.831871345029239
 42
50.0
 43
0.0
 44
0.0
 50
0.0
 51
0.0
 71
     0
 72
   500
 73
     1
 74
     0
 75
     0
 76
     0
 77
     0
 78
     2
  0
ENDTAB
  0
TABLE
  2
LTYPE
 70
     4
  0
LTYPE
  2
CONTINUOUS
 70
     0
  3
Solid Line
 72
    65
 73
     0
 40
0.0
  0
LTYPE
  2
CENTER
 70
     0
  3
____ _ ____ _ ____ _ ____ _ ____ _ ____ _ ____
 72
    65
 73
     4
 40
2.0
 49
1.25
 49
-0.25
 49
0.25
 49
-0.25
  0
LTYPE
  2
HIDDEN
 70
     0
  3
_ _ _ _ _ _ _ _ _ _ _ _ _ _ _ _ _ _ _ _ _ _ _
 72
    65
 73
     2
 40
0.375
 49
0.25
 49
-0.125
  0
LTYPE
  2
PHANTOM2
 70
     0
  3
___ _ _ ___ _ _ ___ _ _ ___ _ _
 72
    65
 73
     6
 40
1.25
 49
0.625
 49
-0.125
 49
0.125
 49
-0.125
 49
0.125
 49
-0.125
  0
ENDTAB
  0
TABLE
  2
LAYER
 70
     4
  0
LAYER
  2
0
 70
     0
 62
     7
  6
CONTINUOUS
  0
LAYER
  2
1
 70
     0
 62
     1
  6
CENTER
  0
LAYER
  2
2
 70
     0
 62
     2
  6
HIDDEN
  0
LAYER
  2
3
 70
     0
 62
     3
  6
CONTINUOUS
  0
ENDTAB
  0
TABLE
  2
STYLE
 70
     2
  0
STYLE
  2
STANDARD
 70
     0
 40
0.0
 41
1.0
 50
0.0
 71
     0
 42
0.2
  3
TXT
  4
BIGFONT
  0
STYLE
  2
STANDARD1
 70
     0
 40
0.0
 41
1.0
 50
0.0
 71
     0
 42
3.0
  3
txt
  4

  0
ENDTAB
  0
TABLE
  2
VIEW
 70
     1
  0
VIEW
  2
ALL
 70
     0
 40
540.0
 10
441.98319327731087
 20
270.0
 41
0.0
 11
0.0
 21
0.0
 31
1.0
 12
0.0
 22
0.0
 32
0.0
 42
0.0
 43
0.0
 44
0.0
 50
0.0
 71
     0
  0
ENDTAB
  0
TABLE
  2
UCS
 70
     0
  0
ENDTAB
  0
TABLE
  2
APPID
 70
     3
  0
APPID
  2
ACAD
 70
     0
  0
APPID
  2
ACAD_MLEADERVER
 70
     0
  0
APPID
  2
ACAD_NAV_VCDISPLAY
 70
     0
  0
ENDTAB
  0
TABLE
  2
DIMSTYLE
 70
     1
  0
DIMSTYLE
  2
STANDARD
 70
     0
  3

  4

  5

  6

  7

 40
1.0
 41
0.18
 42
0.0625
 43
0.38
 44
0.18
 45
0.0
 46
0.0
 47
0.0
 48
0.0
140
0.18
141
0.09
142
0.0
143
25.399999999999999
144
1.0
145
0.0
146
1.0
147
0.09
 71
     0
 72
     0
 73
     1
 74
     1
 75
     0
 76
     0
 77
     0
 78
     0
170
     0
171
     2
172
     0
173
     0
174
     0
175
     0
176
     0
177
     0
178
     0
  0
ENDTAB
  0
ENDSEC
  0
SECTION
  2
BLOCKS
  0
BLOCK
  8
0
  2
$MODEL_SPACE
 70
     0
 10
0.0
 20
0.0
 30
0.0
  3
$MODEL_SPACE
  1

  0
ENDBLK
  5
41B
  8
0
  0
BLOCK
 67
     1
  8
0
  2
$PAPER_SPACE
 70
     0
 10
0.0
 20
0.0
 30
0.0
  3
$PAPER_SPACE
  1

  0
ENDBLK
  5
419
 67
     1
  8
0
  0
ENDSEC
  0
SECTION
  2
ENTITIES
  0
LINE
  5
2AD
  8
0
 10
405.08931641346788
 20
294.84650878417932
 30
0.0
 11
382.08931641346862
 21
294.84650878417972
 31
0.0
  0
LINE
  5
2AE
  8
0
 10
405.08931641346788
 20
239.84650878417739
 30
0.0
 11
382.08931641346862
 21
239.84650878417969
 31
0.0
  0
LINE
  5
2AF
  8
0
 10
405.08931641346788
 20
210.34650878417969
 30
0.0
 11
405.58931641346788
 21
209.84650878417969
 31
0.0
  0
ARC
  5
2B0
  8
0
 10
401.89314010308237
 20
222.2773400798315
 30
0.0
 40
5.1966366582889671
 50
307.9553427938352
 51
0.7626455575531088
  0
LINE
  5
2B1
  8
0
 10
407.08931641345492
 20
256.1798349017136
 30
0.0
 11
407.08931641346788
 21
222.34650878417969
 31
0.0
  0
ARC
  5
2B2
  8
0
 10
405.08931641346788
 20
256.17984211751292
 30
0.0
 40
2.0
 50
359.99979328257871
 51
90.000000000000014
  0
LINE
  5
2B3
  8
0
 10
405.08931641346788
 20
234.84650878417969
 30
0.0
 11
405.08931641346788
 21
210.34650878417969
 31
0.0
  0
ARC
  5
2B4
  8
0
 10
405.08931641346788
 20
237.84650878417719
 30
0.0
 40
2.0
 50
359.4217668521228
 51
90.000000000000014
  0
ARC
  5
2B5
  8
0
 10
405.08931641346788
 20
236.84650878417949
 30
0.0
 40
2.0
 50
270.0
 51
0.5782331478772576
  0
LINE
  5
2B6
  8
0
 10
419.58931641346788
 20
209.84650878417969
 30
0.0
 11
420.08931641346788
 21
210.34650878417969
 31
0.0
  0
LINE
  5
2B7
  8
0
 10
419.58931641346788
 20
209.84650878417969
 30
0.0
 11
405.58931641346788
 21
209.84650878417969
 31
0.0
  0
ARC
  5
2B8
  8
0
 10
405.08931641346788
 20
277.84068252105197
 30
0.0
 40
2.0
 50
270.0
 51
0.0002067174213081
  0
LINE
  5
2B9
  8
0
 10
407.08921456440947
 20
295.57596885617471
 30
0.0
 11
407.08931641345492
 21
277.84068973685129
 31
0.0
  0
ARC
  5
2BA
  8
0
 10
405.08931641346788
 20
296.84650878417921
 30
0.0
 40
2.0
 50
270.0
 51
341.78467297716611
  0
ARC
  5
2BB
  8
0
 10
405.08931641346788
 20
295.59615265810021
 30
0.0
 40
2.0
 50
359.4217668521228
 51
90.0
  0
LINE
  5
2BC
  8
1
 10
395.08931641346788
 20
222.34650878417969
 30
0.0
 11
430.08931641346788
 21
222.34650878417969
 31
0.0
  0
LINE
  5
2BD
  8
1
 10
395.08931641346788
 20
312.34650878417972
 30
0.0
 11
430.08931641346788
 21
312.34650878417972
 31
0.0
  0
LINE
  5
2BE
  8
0
 10
407.08931641346788
 20
324.84650878417989
 30
0.0
 11
407.08931641346788
 21
297.59615265810112
 31
0.0
  0
LINE
  5
2BF
  8
0
 10
419.58931641346788
 20
327.34650878417972
 30
0.0
 11
420.08931641346788
 21
326.84650878417972
 31
0.0
  0
LINE
  5
2C0
  8
0
 10
420.08931641346788
 20
326.84650878417972
 30
0.0
 11
420.08931641346788
 21
210.34650878417969
 31
0.0
  0
LINE
  5
2C1
  8
0
 10
405.38121716992009
 20
324.84650878417989
 30
0.0
 11
405.08931641346788
 21
324.84650878417989
 31
0.0
  0
ARC
  5
2C2
  8
0
 10
405.38121716992009
 20
326.84650878417989
 30
0.0
 40
2.000000000000056
 50
270.00000000000011
 51
337.97568716295592
  0
ARC
  5
2C3
  8
0
 10
409.08931641346788
 20
325.34650878417972
 30
0.0
 40
2.0
 50
90.0
 51
157.9756871629551
  0
LINE
  5
2C4
  8
0
 10
405.08931641346788
 20
324.84650878417989
 30
0.0
 11
405.08931641346788
 21
297.59615265810112
 31
0.0
  0
LINE
  5
2C5
  8
0
 10
419.58931641346788
 20
327.34650878417972
 30
0.0
 11
409.08931641346788
 21
327.34650878417972
 31
0.0
  0
LINE
  5
2C6
  8
0
 10
380.089316413468
 20
294.84650878417972
 30
0.0
 11
380.08931641346788
 21
239.8465087841798
 31
0.0
  0
LINE
  5
2C7
  8
1
 10
347.08931641346788
 20
297.34650878418
 30
0.0
 11
347.08931641346788
 21
270.9935087841792
 31
0.0
  0
LINE
  5
2C8
  8
0
 10
349.41944343238941
 20
239.8465087841798
 30
0.0
 11
349.41944343238941
 21
242.34650878417969
 31
0.0
  0
LINE
  5
2C9
  8
0
 10
349.4194434323893
 20
294.8465087841796
 30
0.0
 11
349.4194434323893
 21
292.34650878417972
 31
0.0
  0
LINE
  5
2CA
  8
0
 10
340.08931641346879
 20
292.34650878417972
 30
0.0
 11
340.08931641346879
 21
242.34650878417969
 31
0.0
  0
LINE
  5
2CB
  8
0
 10
381.08931641346788
 20
240.84650878417969
 30
0.0
 11
380.08931641346788
 21
239.8465087841798
 31
0.0
  0
LINE
  5
2CC
  8
0
 10
380.089316413468
 20
294.84650878417972
 30
0.0
 11
381.089316413468
 21
293.84650878417972
 31
0.0
  0
LINE
  5
2CD
  8
0
 10
349.41944343238953
 20
239.8465087841798
 30
0.0
 11
345.089316413468
 21
242.34650878417941
 31
0.0
  0
LINE
  5
2CE
  8
0
 10
380.08931641346788
 20
239.8465087841798
 30
0.0
 11
349.41944343238953
 21
239.8465087841798
 31
0.0
  0
LINE
  5
2CF
  8
0
 10
349.4194434323893
 20
294.8465087841796
 30
0.0
 11
380.089316413468
 21
294.84650878417972
 31
0.0
  0
LINE
  5
2D0
  8
0
 10
345.089316413468
 20
292.34650878417972
 30
0.0
 11
349.4194434323893
 21
294.8465087841796
 31
0.0
  0
ARC
  5
2D1
  8
0
 10
362.08931641346788
 20
243.34650878417969
 30
0.0
 40
1.0
 50
270.0
 51
359.99999999999989
  0
ARC
  5
2D2
  8
0
 10
362.08931641346788
 20
291.34650878417972
 30
0.0
 40
1.0
 50
0.0
 51
90.0
  0
LINE
  5
2D3
  8
0
 10
335.08931641346788
 20
245.2332601301284
 30
0.0
 11
335.08931641346788
 21
289.45975743823112
 31
0.0
  0
LINE
  5
2D4
  8
0
 10
340.08931641346879
 20
242.34650878417969
 30
0.0
 11
335.08931641346788
 21
245.2332601301284
 31
0.0
  0
LINE
  5
2D5
  8
0
 10
362.08931641346788
 20
242.34650878417969
 30
0.0
 11
340.08931641346879
 21
242.34650878417969
 31
0.0
  0
LINE
  5
2D6
  8
0
 10
363.08931641346788
 20
291.34650878417972
 30
0.0
 11
363.08931641346788
 21
243.34650878417969
 31
0.0
  0
LINE
  5
2D7
  8
0
 10
340.08931641346879
 20
292.34650878417972
 30
0.0
 11
362.08931641346788
 21
292.34650878417972
 31
0.0
  0
LINE
  5
2D8
  8
0
 10
335.08931641346788
 20
289.45975743823112
 30
0.0
 11
340.08931641346879
 21
292.34650878417972
 31
0.0
  0
LINE
  5
2D9
  8
0
 10
382.08931641346868
 20
294.84650878417972
 30
0.0
 11
382.08931641346868
 21
239.84650878417969
 31
0.0
  0
LINE
  5
2DA
  8
0
 10
381.08931641346788
 20
293.84650878417898
 30
0.0
 11
381.08931641346788
 21
240.84650878418049
 31
0.0
  0
LINE
  5
2DB
  8
0
 10
382.08931641346868
 20
239.84650878417969
 30
0.0
 11
381.08931641346788
 21
240.84650878418049
 31
0.0
  0
LINE
  5
2DC
  8
0
 10
382.08931641346868
 20
294.84650878417972
 30
0.0
 11
381.08931641346788
 21
293.84650878417898
 31
0.0
  0
LINE
  5
2DD
  8
1
 10
430.08931641346788
 20
267.34650878417972
 30
0.0
 11
325.089316413468
 21
267.34650878417972
 31
0.0
  0
CIRCLE
  5
2DE
  8
0
 10
150.43883909418099
 20
267.34650878417978
 30
0.0
 40
8.25
  0
LINE
  5
2DF
  8
0
 10
148.12943801742259
 20
263.34650878417972
 30
0.0
 11
152.7482401709396
 21
263.34650878417972
 31
0.0
  0
LINE
  5
2E0
  8
0
 10
152.7482401709396
 20
263.34650878417972
 30
0.0
 11
155.05764124769809
 21
267.34650878417972
 31
0.0
  0
LINE
  5
2E1
  8
0
 10
155.057641247698
 20
267.34650878417972
 30
0.0
 11
152.74824017093951
 21
271.34650878417972
 31
0.0
  0
LINE
  5
2E2
  8
0
 10
152.74824017093951
 20
271.34650878417972
 30
0.0
 11
148.1294380174225
 21
271.34650878417972
 31
0.0
  0
LINE
  5
2E3
  8
0
 10
148.1294380174225
 20
271.34650878417972
 30
0.0
 11
145.82003694066401
 21
267.34650878417972
 31
0.0
  0
LINE
  5
2E4
  8
0
 10
145.8200369406641
 20
267.34650878417972
 30
0.0
 11
148.12943801742259
 21
263.34650878417972
 31
0.0
  0
ARC
  5
2E5
  8
0
 10
150.43883909418111
 20
222.34650878417969
 30
0.0
 40
102.5000000000001
 50
77.160411593095844
 51
102.8395884069041
  0
ARC
  5
2E6
  8
0
 10
150.43883909418111
 20
222.34650878417969
 30
0.0
 40
77.500000000000099
 50
77.160415138318299
 51
102.8395848616817
  0
ARC
  5
2E7
  8
0
 10
130.43883909418111
 20
310.09615265810112
 30
0.0
 40
12.5
 50
102.8395884069043
 51
282.83961038728319
  0
ARC
  5
2E8
  8
0
 10
170.43883909418111
 20
310.09615265810112
 30
0.0
 40
12.5
 50
257.16038961271681
 51
77.160411593095702
  0
ARC
  5
2E9
  8
1
 10
150.43883909418111
 20
222.34650878417969
 30
0.0
 40
90.0
 50
61.230550825256287
 51
118.7694491747437
  0
ARC
  5
2EA
  8
0
 10
150.43883909418111
 20
222.34650878417969
 30
0.0
 40
105.0
 50
77.160411130522192
 51
102.83958886947779
  0
ARC
  5
2EB
  8
0
 10
130.43883909418111
 20
310.096152658101
 30
0.0
 40
15.0
 50
102.83959164491969
 51
221.5548975258387
  0
ARC
  5
2EC
  8
0
 10
170.43883909418111
 20
310.096152658101
 30
0.0
 40
15.0
 50
318.44510247416127
 51
77.160408355080293
  0
ARC
  5
2ED
  8
0
 10
200.371658799019
 20
283.56265864548158
 30
0.0
 40
25.000000000000458
 50
138.4451024741613
 51
159.42984547759599
  0
LINE
  5
2EE
  8
1
 10
132.77217242751399
 20
299.85869420614517
 30
0.0
 11
128.10550576085151
 21
320.33361111004177
 31
0.0
  0
LINE
  5
2EF
  8
1
 10
168.1055057608481
 20
299.85869420614517
 30
0.0
 11
172.77217242751061
 21
320.33361111004177
 31
0.0
  0
ARC
  5
2F0
  8
0
 10
150.43883909418111
 20
222.34650878417969
 30
0.0
 40
84.500000000000014
 50
77.160411593095844
 51
102.8395884069041
  0
ARC
  5
2F1
  8
0
 10
150.43883909418111
 20
222.34650878417969
 30
0.0
 40
95.5
 50
77.160411593095844
 51
102.8395884069041
  0
ARC
  5
2F2
  8
0
 10
130.43883909418111
 20
310.096152658101
 30
0.0
 40
5.5
 50
102.8395884069041
 51
282.83958528469111
  0
ARC
  5
2F3
  8
0
 10
170.43883909418111
 20
310.096152658101
 30
0.0
 40
5.5
 50
257.16041471530889
 51
77.16041159309583
  0
ARC
  5
2F4
  8
0
 10
100.50601938934319
 20
283.56265864548158
 30
0.0
 40
25.000000000000458
 50
342.00831047569437
 51
41.554897525838697
  0
LINE
  5
2F5
  8
0
 10
124.5115904506743
 20
258.17984211751309
 30
0.0
 11
138.65372607440531
 21
218.179842117513
 31
0.0
  0
LINE
  5
2F6
  8
0
 10
170.76815905329431
 20
242.34650878417969
 30
0.0
 11
162.2239521139569
 21
218.179842117513
 31
0.0
  0
LINE
  5
2F7
  8
1
 10
127.1805869469333
 20
222.34650878417969
 30
0.0
 11
173.69709124142881
 21
222.34650878417969
 31
0.0
  0
CIRCLE
  5
2F8
  8
0
 10
150.43883909418111
 20
222.34650878417969
 30
0.0
 40
5.5
  0
CIRCLE
  5
2F9
  8
0
 10
150.43883909418111
 20
222.34650878417969
 30
0.0
 40
12.5
  0
CIRCLE
  5
2FA
  8
0
 10
205.43883909418099
 20
267.34650878417972
 30
0.0
 40
22.113248654051361
  0
CIRCLE
  5
2FB
  8
0
 10
205.43883909418099
 20
267.34650878417972
 30
0.0
 40
8.6470000000000002
  0
CIRCLE
  5
2FC
  8
3
 10
205.43883909418099
 20
267.34650878417972
 30
0.0
 40
10.0
  0
LINE
  5
2FD
  8
1
 10
205.43883909418099
 20
302.34650878417972
 30
0.0
 11
205.43883909418099
 21
232.34650878417969
 31
0.0
  0
LINE
  5
2FE
  8
0
 10
205.43883909418099
 20
242.34650878417969
 30
0.0
 11
150.43883909418099
 21
242.34650878417969
 31
0.0
  0
ARC
  5
2FF
  8
0
 10
150.43883909418099
 20
267.34650878417972
 30
0.0
 40
25.0
 50
90.0
 51
270.0
  0
ARC
  5
300
  8
0
 10
150.43883909418099
 20
267.34650878417972
 30
0.0
 40
27.5
 50
65.380022671342886
 51
294.61997732865711
  0
LINE
  5
301
  8
0
 10
205.43883909418099
 20
292.34650878417972
 30
0.0
 11
150.43883909418099
 21
292.34650878417972
 31
0.0
  0
CIRCLE
  5
302
  8
0
 10
205.43883909418099
 20
267.34650878417972
 30
0.0
 40
25.0
  0
LINE
  5
303
  8
1
 10
112.93883909418101
 20
267.34650878417972
 30
0.0
 11
240.43883909418099
 21
267.34650878417972
 31
0.0
  0
LINE
  5
304
  8
0
 10
340.08931641346942
 20
422.36776466117271
 30
0.0
 11
340.08931641346959
 21
372.36776466117271
 31
0.0
  0
LINE
  5
305
  8
0
 10
381.08931641346697
 20
478.86776466117169
 30
0.0
 11
381.08931641346788
 21
425.86776466117271
 31
0.0
  0
LINE
  5
306
  8
0
 10
345.08931641346788
 20
460.36776466117271
 30
0.0
 11
338.68931641346859
 21
460.36776466117271
 31
0.0
  0
LINE
  5
307
  8
0
 10
338.68931641346887
 20
444.36776466117198
 30
0.0
 11
338.089316413468
 21
445.40699514571497
 31
0.0
  0
LINE
  5
308
  8
0
 10
338.68931641346859
 20
444.3677646611726
 30
0.0
 11
345.08931641346788
 21
444.3677646611726
 31
0.0
  0
LINE
  5
309
  8
0
 10
338.68931641346887
 20
460.36776466117328
 30
0.0
 11
338.089316413468
 21
459.3285341766304
 31
0.0
  0
LINE
  5
30A
  8
0
 10
338.089316413468
 20
459.3285341766304
 30
0.0
 11
338.089316413468
 21
445.40699514571497
 31
0.0
  0
LINE
  5
30B
  8
0
 10
338.68931641346859
 20
460.36776466117271
 30
0.0
 11
338.68931641346859
 21
444.3677646611726
 31
0.0
  0
LINE
  5
30C
  8
0
 10
345.08931641346788
 20
425.36776466117271
 30
0.0
 11
345.08931641346788
 21
477.36776466117232
 31
0.0
  0
LINE
  5
30D
  8
0
 10
363.08931641346788
 20
421.86776466117271
 30
0.0
 11
363.08931641346788
 21
373.36776466117271
 31
0.0
  0
LINE
  5
30E
  8
1
 10
347.08931641346783
 20
388.36776466117232
 30
0.0
 11
347.08932049105289
 21
406.36776466117192
 31
0.0
  0
CIRCLE
  5
30F
  8
3
 10
347.08931845226039
 20
397.36776466117271
 30
0.0
 40
3.3235000000000001
  0
LINE
  5
310
  8
0
 10
344.7799173755003
 20
397.36776466117288
 30
0.0
 11
345.9346158750879
 21
395.3677681924637
 31
0.0
  0
LINE
  5
311
  8
0
 10
345.93461791388052
 20
399.36776466117408
 30
0.0
 11
344.77991941429298
 21
397.36776819246501
 31
0.0
  0
LINE
  5
312
  8
0
 10
348.2440189906406
 20
399.36776466117402
 30
0.0
 11
345.93462199146541
 21
399.36776466117402
 31
0.0
  0
LINE
  5
313
  8
0
 10
349.39871952902041
 20
397.36776466117249
 30
0.0
 11
348.24402102943282
 21
399.36776112988173
 31
0.0
  0
LINE
  5
314
  8
0
 10
348.24401899064031
 20
395.36776466117118
 30
0.0
 11
349.3987174902278
 21
397.36776112988048
 31
0.0
  0
LINE
  5
315
  8
0
 10
345.93461791388017
 20
395.36776466117152
 30
0.0
 11
348.24401491305542
 21
395.36776466117152
 31
0.0
  0
LINE
  5
316
  8
1
 10
347.08931641346788
 20
388.36776466117232
 30
0.0
 11
347.089320491053
 21
406.36776466117192
 31
0.0
  0
CIRCLE
  5
317
  8
0
 10
347.08931641346788
 20
397.36776466117271
 30
0.0
 40
4.0
  0
ARC
  5
318
  8
0
 10
342.089316413468
 20
425.36776466117271
 30
0.0
 40
3.0
 50
270.0
 51
359.99999999999989
  0
ARC
  5
319
  8
0
 10
366.08931641346788
 20
421.86776466117271
 30
0.0
 40
3.0
 50
90.0
 51
179.99999999999989
  0
ARC
  5
31A
  8
0
 10
362.08931641346788
 20
373.36776466117271
 30
0.0
 40
1.0
 50
270.0
 51
0.0
  0
LINE
  5
31B
  8
0
 10
340.08931641346942
 20
422.36776466117271
 30
0.0
 11
342.089316413468
 21
422.36776466117271
 31
0.0
  0
LINE
  5
31C
  8
0
 10
335.08931641346788
 20
419.48101331522372
 30
0.0
 11
340.08931641346942
 21
422.36776466117271
 31
0.0
  0
LINE
  5
31D
  8
0
 10
335.08931641346788
 20
375.25451600712171
 30
0.0
 11
335.08931641346788
 21
419.48101331522372
 31
0.0
  0
LINE
  5
31E
  8
0
 10
340.08931641346959
 20
372.36776466117271
 30
0.0
 11
335.08931641346788
 21
375.25451600712171
 31
0.0
  0
LINE
  5
31F
  8
0
 10
362.08931641346788
 20
372.36776466117271
 30
0.0
 11
340.08931641346959
 21
372.36776466117271
 31
0.0
  0
LINE
  5
320
  8
1
 10
373.089316413468
 20
397.36776466117271
 30
0.0
 11
325.089316413468
 21
397.36776466117271
 31
0.0
  0
LINE
  5
321
  8
0
 10
381.08931641346788
 20
425.86776466117271
 30
0.0
 11
380.08931641346788
 21
424.86776466117271
 31
0.0
  0
LINE
  5
322
  8
0
 10
380.089316413468
 20
479.86776466117271
 30
0.0
 11
381.089316413468
 21
478.86776466117271
 31
0.0
  0
LINE
  5
323
  8
0
 10
380.08931641346788
 20
424.86776466117271
 30
0.0
 11
366.08931641346788
 21
424.86776466117271
 31
0.0
  0
LINE
  5
324
  8
0
 10
349.41944343239089
 20
479.86776466117271
 30
0.0
 11
345.08931641346788
 21
477.36776466117232
 31
0.0
  0
LINE
  5
325
  8
0
 10
380.089316413468
 20
479.86776466117271
 30
0.0
 11
349.4194434323893
 21
479.86776466117271
 31
0.0
  0
LINE
  5
326
  8
0
 10
381.08931641346788
 20
425.86776466117271
 30
0.0
 11
382.08931641346788
 21
424.86776466117271
 31
0.0
  0
LINE
  5
327
  8
0
 10
382.08931641346788
 20
479.86776466117271
 30
0.0
 11
381.08931641346788
 21
478.86776466117271
 31
0.0
  0
LINE
  5
328
  8
0
 10
420.08931641346788
 20
417.86776466117271
 30
0.0
 11
420.08931641346788
 21
486.86776466117271
 31
0.0
  0
LINE
  5
329
  8
0
 10
382.08931641346788
 20
424.86776466117271
 30
0.0
 11
405.08931641346999
 21
424.86776466117271
 31
0.0
  0
LINE
  5
32A
  8
0
 10
405.08931641346987
 20
479.86776466117271
 30
0.0
 11
382.08931641346788
 21
479.86776466117271
 31
0.0
  0
LINE
  5
32B
  8
1
 10
430.08931641346788
 20
452.3677646611726
 30
0.0
 11
328.08931641346788
 21
452.3677646611726
 31
0.0
  0
LINE
  5
32C
  8
1
 10
150.43883909418099
 20
334.84650878417972
 30
0.0
 11
150.43883909418099
 21
199.84650878417969
 31
0.0
  0
LINE
  5
32D
  8
1
 10
595.73979373275483
 20
334.84650878417972
 30
0.0
 11
595.73979373275483
 21
199.84650878417969
 31
0.0
  0
LINE
  5
32E
  8
1
 10
633.23979373275483
 20
267.34650878417972
 30
0.0
 11
505.73979373275478
 21
267.34650878417972
 31
0.0
  0
ARC
  5
32F
  8
0
 10
540.73979373275483
 20
267.34650878417972
 30
0.0
 40
25.0
 50
90.0
 51
270.0
  0
LINE
  5
330
  8
0
 10
540.73979373275483
 20
292.34650878417972
 30
0.0
 11
569.21304112046641
 21
292.34650878417972
 31
0.0
  0
ARC
  5
331
  8
0
 10
595.73979373275483
 20
267.34650878417972
 30
0.0
 40
27.5
 50
0.0
 51
17.991691073339972
  0
LINE
  5
332
  8
0
 10
540.73979373275483
 20
242.34650878417969
 30
0.0
 11
575.41047377364146
 21
242.34650878417969
 31
0.0
  0
LINE
  5
333
  8
1
 10
540.73979373275483
 20
302.34650878417972
 30
0.0
 11
540.73979373275483
 21
232.34650878417969
 31
0.0
  0
CIRCLE
  5
334
  8
3
 10
540.73979373275483
 20
267.34650878417972
 30
0.0
 40
10.0
  0
CIRCLE
  5
335
  8
0
 10
540.73979373275483
 20
267.34650878417972
 30
0.0
 40
8.6470000000000002
  0
ARC
  5
336
  8
0
 10
595.73979373275483
 20
222.34650878417969
 30
0.0
 40
12.5
 50
199.47122063448961
 51
270.00000000000023
  0
CIRCLE
  5
337
  8
0
 10
595.73979373275483
 20
222.34650878417969
 30
0.0
 40
5.5
  0
LINE
  5
338
  8
1
 10
618.99804588000245
 20
222.34650878417969
 30
0.0
 11
572.48154158550699
 21
222.34650878417969
 31
0.0
  0
LINE
  5
339
  8
0
 10
621.66704237626141
 20
258.17984211751309
 30
0.0
 11
607.52490675253046
 21
218.179842117513
 31
0.0
  0
ARC
  5
33A
  8
0
 10
645.67261343759264
 20
283.56265864548158
 30
0.0
 40
25.000000000000458
 50
138.4451024741613
 51
197.9916895243056
  0
ARC
  5
33B
  8
0
 10
575.73979373275483
 20
310.096152658101
 30
0.0
 40
5.5
 50
102.8395884069042
 51
282.83958528469122
  0
ARC
  5
33C
  8
0
 10
615.73979373275483
 20
310.096152658101
 30
0.0
 40
5.5
 50
257.16041471530889
 51
77.160411593095844
  0
ARC
  5
33D
  8
0
 10
595.73979373275483
 20
222.34650878417969
 30
0.0
 40
95.5
 50
77.160411593095873
 51
102.8395884069041
  0
ARC
  5
33E
  8
0
 10
595.73979373275483
 20
222.34650878417969
 30
0.0
 40
84.500000000000014
 50
77.160411593095844
 51
102.8395884069041
  0
LINE
  5
33F
  8
1
 10
578.07312706608775
 20
299.85869420614517
 30
0.0
 11
573.4064603994251
 21
320.33361111004177
 31
0.0
  0
LINE
  5
340
  8
1
 10
613.4064603994218
 20
299.85869420614517
 30
0.0
 11
618.07312706608434
 21
320.33361111004177
 31
0.0
  0
ARC
  5
341
  8
0
 10
575.73979373275483
 20
310.096152658101
 30
0.0
 40
15.0
 50
102.83959164491969
 51
221.55489752583881
  0
ARC
  5
342
  8
0
 10
615.73979373275483
 20
310.096152658101
 30
0.0
 40
15.0
 50
318.44510247416127
 51
77.160408355080321
  0
ARC
  5
343
  8
0
 10
595.73979373275483
 20
222.34650878417969
 30
0.0
 40
105.0
 50
77.16041113052222
 51
102.83958886947779
  0
ARC
  5
344
  8
1
 10
595.73979373275483
 20
222.34650878417969
 30
0.0
 40
90.0
 50
61.230550825256302
 51
118.7694491747437
  0
ARC
  5
345
  8
0
 10
595.73979373275483
 20
222.34650878417969
 30
0.0
 40
12.5
 50
269.99999999999977
 51
340.52877936551039
  0
ARC
  5
346
  8
0
 10
595.73979373275483
 20
267.34650878417972
 30
0.0
 40
27.5
 50
340.52877187219838
 51
360.0
  0
LINE
  5
347
  8
0
 10
569.81254508924815
 20
258.17984211751309
 30
0.0
 11
583.95468071297898
 21
218.179842117513
 31
0.0
  0
ARC
  5
348
  8
0
 10
595.73979373275483
 20
267.34650878417972
 30
0.0
 40
27.5
 50
180.0
 51
199.47122812780171
  0
ARC
  5
349
  8
0
 10
595.73979373275483
 20
267.34650878417972
 30
0.0
 40
27.5
 50
162.00830892665999
 51
180.0
  0
ARC
  5
34A
  8
0
 10
545.80697402791702
 20
283.56265864548158
 30
0.0
 40
25.000000000000458
 50
342.00831047569437
 51
41.554897525838697
  0
CIRCLE
  5
34B
  8
0
 10
150.43883909418099
 20
267.34650878417972
 30
0.0
 40
6.9607499999999991
  0
LINE
  5
34C
  8
2
 10
405.08931641346788
 20
227.84650878418009
 30
0.0
 11
420.08931641346788
 21
227.84650878418009
 31
0.0
  0
LINE
  5
34D
  8
2
 10
405.08931641346788
 20
216.84650878417941
 30
0.0
 11
420.08931641346788
 21
216.84650878417941
 31
0.0
  0
LINE
  5
34E
  8
2
 10
405.08931641346788
 20
317.84650878418012
 30
0.0
 11
420.08931641346788
 21
317.84650878418012
 31
0.0
  0
LINE
  5
34F
  8
2
 10
405.08931641346788
 20
306.84650878417938
 30
0.0
 11
420.08931641346788
 21
306.84650878417938
 31
0.0
  0
LINE
  5
350
  8
0
 10
405.08931641346788
 20
108.48053918959801
 30
0.0
 11
405.08931641346788
 21
56.169966624775377
 31
0.0
  0
LINE
  5
351
  8
1
 10
430.08931641346788
 20
82.325252907186723
 30
0.0
 11
328.08931641346788
 21
82.325252907186723
 31
0.0
  0
LINE
  5
352
  8
0
 10
419.58931641346788
 20
54.82525290718673
 30
0.0
 11
382.08931641346788
 21
54.82525290718673
 31
0.0
  0
LINE
  5
353
  8
0
 10
382.08931641346788
 20
109.82525290718669
 30
0.0
 11
419.58931641346788
 21
109.82525290718669
 31
0.0
  0
LINE
  5
354
  8
0
 10
420.08931641346788
 20
116.8252529071866
 30
0.0
 11
420.08931641346788
 21
47.825252907186709
 31
0.0
  0
LINE
  5
355
  8
0
 10
420.08931641346788
 20
55.325252907186723
 30
0.0
 11
419.58931641346788
 21
54.82525290718673
 31
0.0
  0
LINE
  5
356
  8
0
 10
420.08931641346788
 20
109.32525290718669
 30
0.0
 11
419.58931641346788
 21
109.82525290718669
 31
0.0
  0
LINE
  5
357
  8
0
 10
382.08931641346788
 20
54.82525290718673
 30
0.0
 11
381.08931641346788
 21
55.825252907186723
 31
0.0
  0
LINE
  5
358
  8
0
 10
381.08931641346788
 20
108.82525290718669
 30
0.0
 11
382.08931641346788
 21
109.82525290718669
 31
0.0
  0
LINE
  5
359
  8
0
 10
380.089316413468
 20
54.82525290718673
 30
0.0
 11
349.4194434323893
 21
54.82525290718673
 31
0.0
  0
LINE
  5
35A
  8
0
 10
349.41944343239089
 20
54.82525290718673
 30
0.0
 11
345.08931641346788
 21
57.325252907187121
 31
0.0
  0
LINE
  5
35B
  8
0
 10
380.08931641346788
 20
109.82525290718669
 30
0.0
 11
366.08931641346788
 21
109.82525290718669
 31
0.0
  0
LINE
  5
35C
  8
0
 10
380.089316413468
 20
54.82525290718673
 30
0.0
 11
381.089316413468
 21
55.825252907186723
 31
0.0
  0
LINE
  5
35D
  8
0
 10
381.08931641346788
 20
108.82525290718669
 30
0.0
 11
380.08931641346788
 21
109.82525290718669
 31
0.0
  0
LINE
  5
35E
  8
1
 10
373.089316413468
 20
137.32525290718669
 30
0.0
 11
325.089316413468
 21
137.32525290718669
 31
0.0
  0
LINE
  5
35F
  8
0
 10
335.08931641346788
 20
159.4385015612377
 30
0.0
 11
335.08931641346788
 21
115.2120042531357
 31
0.0
  0
LINE
  5
360
  8
0
 10
335.08931641346788
 20
115.2120042531357
 30
0.0
 11
340.08931641346942
 21
112.32525290718669
 31
0.0
  0
LINE
  5
361
  8
0
 10
340.08931641346942
 20
112.32525290718669
 30
0.0
 11
342.089316413468
 21
112.32525290718669
 31
0.0
  0
ARC
  5
362
  8
0
 10
366.08931641346788
 20
112.82525290718669
 30
0.0
 40
3.0
 50
180.0
 51
270.0
  0
ARC
  5
363
  8
0
 10
342.089316413468
 20
109.32525290718669
 30
0.0
 40
3.0
 50
0.0000000000001018
 51
90.0
  0
CIRCLE
  5
364
  8
0
 10
347.08931641346788
 20
137.32525290718669
 30
0.0
 40
4.0
  0
LINE
  5
365
  8
1
 10
347.08931641346788
 20
146.32525290718709
 30
0.0
 11
347.089320491053
 21
128.32525290718741
 31
0.0
  0
LINE
  5
366
  8
0
 10
345.93461791388017
 20
139.325252907188
 30
0.0
 11
348.24401491305542
 21
139.325252907188
 31
0.0
  0
LINE
  5
367
  8
0
 10
348.24401899064031
 20
139.3252529071882
 30
0.0
 11
349.3987174902278
 21
137.3252564384789
 31
0.0
  0
LINE
  5
368
  8
0
 10
349.39871952902041
 20
137.32525290718689
 30
0.0
 11
348.24402102943282
 21
135.32525643847771
 31
0.0
  0
LINE
  5
369
  8
0
 10
348.2440189906406
 20
135.32525290718539
 30
0.0
 11
345.93462199146541
 21
135.32525290718539
 31
0.0
  0
LINE
  5
36A
  8
0
 10
345.93461791388052
 20
135.3252529071853
 30
0.0
 11
344.77991941429298
 21
137.32524937589449
 31
0.0
  0
LINE
  5
36B
  8
0
 10
344.7799173755003
 20
137.3252529071865
 30
0.0
 11
345.9346158750879
 21
139.32524937589571
 31
0.0
  0
CIRCLE
  5
36C
  8
3
 10
347.08931845226039
 20
137.32525290718669
 30
0.0
 40
3.3235000000000001
  0
LINE
  5
36D
  8
1
 10
347.08931641346783
 20
146.32525290718709
 30
0.0
 11
347.08932049105289
 21
128.32525290718741
 31
0.0
  0
LINE
  5
36E
  8
0
 10
363.08931641346788
 20
112.82525290718669
 30
0.0
 11
363.08931641346788
 21
161.32525290718669
 31
0.0
  0
LINE
  5
36F
  8
0
 10
345.08931641346788
 20
109.3252529071866
 30
0.0
 11
345.08931641346788
 21
57.325252907187121
 31
0.0
  0
LINE
  5
370
  8
0
 10
338.68931641346859
 20
74.325252907186723
 30
0.0
 11
338.68931641346859
 21
90.325252907186709
 31
0.0
  0
LINE
  5
371
  8
0
 10
338.089316413468
 20
75.364483391728982
 30
0.0
 11
338.089316413468
 21
89.286022422644464
 31
0.0
  0
LINE
  5
372
  8
0
 10
338.68931641346887
 20
74.325252907186098
 30
0.0
 11
338.089316413468
 21
75.364483391728982
 31
0.0
  0
LINE
  5
373
  8
0
 10
338.68931641346859
 20
90.325252907186709
 30
0.0
 11
345.08931641346788
 21
90.325252907186709
 31
0.0
  0
LINE
  5
374
  8
0
 10
338.68931641346887
 20
90.325252907187348
 30
0.0
 11
338.089316413468
 21
89.286022422644464
 31
0.0
  0
LINE
  5
375
  8
0
 10
345.08931641346788
 20
74.325252907186723
 30
0.0
 11
338.68931641346859
 21
74.325252907186723
 31
0.0
  0
LINE
  5
376
  8
0
 10
381.08931641346697
 20
55.825252907187689
 30
0.0
 11
381.08931641346788
 21
108.82525290718669
 31
0.0
  0
LINE
  5
377
  8
0
 10
340.08931641346942
 20
112.32525290718669
 30
0.0
 11
340.08931641346959
 21
162.32525290718669
 31
0.0
  0
LINE
  5
378
  8
0
 10
362.08931641346788
 20
162.32525290718669
 30
0.0
 11
340.08931641346959
 21
162.32525290718669
 31
0.0
  0
LINE
  5
379
  8
0
 10
340.08931641346959
 20
162.32525290718669
 30
0.0
 11
335.08931641346788
 21
159.4385015612377
 31
0.0
  0
ARC
  5
37A
  8
0
 10
362.08931641346788
 20
161.32525290718669
 30
0.0
 40
1.0
 50
360.0
 51
90.0
  0
LINE
  5
37B
  8
2
 10
405.08931641346783
 20
76.825252907186382
 30
0.0
 11
420.08931641346783
 21
76.82525290718641
 31
0.0
  0
LINE
  5
37C
  8
2
 10
405.08931641346783
 20
87.825252907187064
 30
0.0
 11
420.08931641346783
 21
87.825252907187064
 31
0.0
  0
LINE
  5
37D
  8
0
 10
405.08931641346987
 20
478.523050943584
 30
0.0
 11
405.08931641346987
 21
426.21247837876132
 31
0.0
  0
LINE
  5
37E
  8
0
 10
407.08931641346999
 20
452.3677646611726
 30
0.0
 11
407.08931641346999
 21
424.86776466117271
 31
0.0
  0
LINE
  5
37F
  8
0
 10
419.58931641346788
 20
487.36776466117271
 30
0.0
 11
409.08931259877261
 21
487.36776466117271
 31
0.0
  0
LINE
  5
380
  8
0
 10
419.58931641346788
 20
417.36776466117271
 30
0.0
 11
409.08931641346987
 21
417.36776466117271
 31
0.0
  0
LINE
  5
381
  8
0
 10
420.08931641346788
 20
417.86776466117271
 30
0.0
 11
419.58931641346788
 21
417.36776466117271
 31
0.0
  0
LINE
  5
382
  8
0
 10
419.58931641346788
 20
487.36776466117271
 30
0.0
 11
420.08931641346788
 21
486.86776466117271
 31
0.0
  0
LINE
  5
383
  8
0
 10
407.08931641346999
 20
422.86776466117271
 30
0.0
 11
407.08931641346987
 21
419.3677646611726
 31
0.0
  0
ARC
  5
384
  8
0
 10
409.08931641346987
 20
419.3677646611726
 30
0.0
 40
2.0
 50
180.0
 51
269.99999999999989
  0
ARC
  5
385
  8
0
 10
405.08931641346999
 20
422.86776466117271
 30
0.0
 40
2.0
 50
359.99999999999937
 51
90.0
  0
ARC
  5
386
  8
0
 10
405.08931641346999
 20
481.8677646611726
 30
0.0
 40
2.0
 50
270.0
 51
0.0000000000006107
  0
ARC
  5
387
  8
0
 10
409.08931641346987
 20
485.36776466117271
 30
0.0
 40
2.0
 50
90.000000000000057
 51
180.0
  0
LINE
  5
388
  8
0
 10
407.08931641346999
 20
452.3677646611726
 30
0.0
 11
407.08931641346999
 21
479.86776466117271
 31
0.0
  0
LINE
  5
389
  8
0
 10
407.08931641346999
 20
481.8677646611726
 30
0.0
 11
407.08931641346987
 21
485.36776466117271
 31
0.0
  0
LINE
  5
38A
  8
2
 10
420.08931641346788
 20
477.8677646611726
 30
0.0
 11
405.08931641346987
 21
477.8677646611726
 31
0.0
  0
LINE
  5
38B
  8
2
 10
420.08931641346788
 20
426.86776466117271
 30
0.0
 11
405.08931641346987
 21
426.86776466117271
 31
0.0
  0
LINE
  5
38C
  8
0
 10
419.58931641346788
 20
117.32525290718669
 30
0.0
 11
405.589316413468
 21
117.3252529071866
 31
0.0
  0
LINE
  5
38D
  8
0
 10
419.58931641346788
 20
117.32525290718669
 30
0.0
 11
420.08931641346788
 21
116.82525290718669
 31
0.0
  0
LINE
  5
38E
  8
0
 10
420.08931641346788
 20
47.825252907186659
 30
0.0
 11
419.58931641346788
 21
47.325252907186659
 31
0.0
  0
LINE
  5
38F
  8
0
 10
405.089316413468
 20
116.8252529071866
 30
0.0
 11
405.08931641346788
 21
109.82525290718669
 31
0.0
  0
LINE
  5
390
  8
0
 10
405.589316413468
 20
117.3252529071866
 30
0.0
 11
405.089316413468
 21
116.8252529071866
 31
0.0
  0
LINE
  5
391
  8
0
 10
419.58931641346788
 20
47.325252907186723
 30
0.0
 11
405.589316413468
 21
47.32525290718678
 31
0.0
  0
LINE
  5
392
  8
0
 10
405.589316413468
 20
47.32525290718678
 30
0.0
 11
405.089316413468
 21
47.82525290718678
 31
0.0
  0
LINE
  5
393
  8
0
 10
405.089316413468
 20
47.82525290718678
 30
0.0
 11
405.08931641346788
 21
54.82525290718673
 31
0.0
  0
TEXT
  5
50F
  8
0
 62
     3
 10
0.0
 20
0.0
 30
0.0
 40
10.0
  1
BAT90A
  7
STANDARD1
  0
ENDSEC
  0
EOF
