  0
SECTION
  2
HEADER
  9
$ACADVER
  1
AC1009
  9
$INSBASE
 10
0.0
 20
0.0
 30
0.0
  9
$EXTMIN
 10
0.0
 20
-1.4802182810368341
 30
0.0
  9
$EXTMAX
 10
245.0
 20
187.495
 30
0.0
  9
$LIMMIN
 10
0.0
 20
0.0
  9
$LIMMAX
 10
790.0
 20
546.0
  9
$ORTHOMODE
 70
     1
  9
$REGENMODE
 70
     1
  9
$FILLMODE
 70
     1
  9
$QTEXTMODE
 70
     0
  9
$MIRRTEXT
 70
     0
  9
$DRAGMODE
 70
     2
  9
$LTSCALE
 40
5.0
  9
$OSMODE
 70
  3071
  9
$ATTMODE
 70
     1
  9
$TEXTSIZE
 40
0.2
  9
$TRACEWID
 40
0.05
  9
$TEXTSTYLE
  7
STANDARD
  9
$CLAYER
  8
0
  9
$CELTYPE
  6
BYLAYER
  9
$CECOLOR
 62
   256
  9
$DIMSCALE
 40
2.0
  9
$DIMASZ
 40
3.0
  9
$DIMEXO
 40
2.0
  9
$DIMDLI
 40
0.38
  9
$DIMRND
 40
0.0
  9
$DIMDLE
 40
0.0
  9
$DIMEXE
 40
2.0
  9
$DIMTP
 40
0.0
  9
$DIMTM
 40
0.0
  9
$DIMTXT
 40
3.0
  9
$DIMCEN
 40
0.0
  9
$DIMTSZ
 40
0.0
  9
$DIMTOL
 70
     0
  9
$DIMLIM
 70
     0
  9
$DIMTIH
 70
     0
  9
$DIMTOH
 70
     0
  9
$DIMSE1
 70
     0
  9
$DIMSE2
 70
     0
  9
$DIMTAD
 70
     1
  9
$DIMZIN
 70
     0
  9
$DIMBLK
  1

  9
$DIMASO
 70
     0
  9
$DIMSHO
 70
     0
  9
$DIMPOST
  1

  9
$DIMAPOST
  1

  9
$DIMALT
 70
     0
  9
$DIMALTD
 70
     2
  9
$DIMALTF
 40
25.399999999999999
  9
$DIMLFAC
 40
1.0
  9
$DIMTOFL
 70
     1
  9
$DIMTVP
 40
1.6000000000000001
  9
$DIMTIX
 70
     1
  9
$DIMSOXD
 70
     0
  9
$DIMSAH
 70
     0
  9
$DIMBLK1
  1

  9
$DIMBLK2
  1

  9
$DIMSTYLE
  2
STANDARD
  9
$DIMCLRD
 70
     0
  9
$DIMCLRE
 70
     0
  9
$DIMCLRT
 70
     0
  9
$DIMTFAC
 40
1.0
  9
$DIMGAP
 40
0.09
  9
$LUNITS
 70
     2
  9
$LUPREC
 70
     4
  9
$SKETCHINC
 40
0.1
  9
$FILLETRAD
 40
0.0
  9
$AUNITS
 70
     0
  9
$AUPREC
 70
     4
  9
$MENU
  1
E:\r13\win\SUPPORT\ACAD
  9
$ELEVATION
 40
0.0
  9
$PELEVATION
 40
0.0
  9
$THICKNESS
 40
0.0
  9
$LIMCHECK
 70
     0
  9
$BLIPMODE
 70
     0
  9
$CHAMFERA
 40
0.0
  9
$CHAMFERB
 40
0.0
  9
$SKPOLY
 70
     0
  9
$TDCREATE
 40
2449840.6111921291
  9
$TDUPDATE
 40
2456597.5916536921
  9
$TDINDWG
 40
0.0002451042
  9
$TDUSRTIMER
 40
0.0002451042
  9
$USRTIMER
 70
     1
  9
$ANGBASE
 50
0.0
  9
$ANGDIR
 70
     0
  9
$PDMODE
 70
     0
  9
$PDSIZE
 40
0.0
  9
$PLINEWID
 40
0.0
  9
$COORDS
 70
     1
  9
$SPLFRAME
 70
     0
  9
$SPLINETYPE
 70
     6
  9
$SPLINESEGS
 70
     8
  9
$ATTDIA
 70
     0
  9
$ATTREQ
 70
     1
  9
$HANDLING
 70
     1
  9
$HANDSEED
  5
298
  9
$SURFTAB1
 70
     6
  9
$SURFTAB2
 70
     6
  9
$SURFTYPE
 70
     6
  9
$SURFU
 70
     6
  9
$SURFV
 70
     6
  9
$UCSNAME
  2

  9
$UCSORG
 10
0.0
 20
0.0
 30
0.0
  9
$UCSXDIR
 10
1.0
 20
0.0
 30
0.0
  9
$UCSYDIR
 10
0.0
 20
1.0
 30
0.0
  9
$PUCSNAME
  2

  9
$PUCSORG
 10
0.0
 20
0.0
 30
0.0
  9
$PUCSXDIR
 10
1.0
 20
0.0
 30
0.0
  9
$PUCSYDIR
 10
0.0
 20
1.0
 30
0.0
  9
$USERI1
 70
     3
  9
$USERI2
 70
     1
  9
$USERI3
 70
     0
  9
$USERI4
 70
     0
  9
$USERI5
 70
     0
  9
$USERR1
 40
2.0
  9
$USERR2
 40
3.0
  9
$USERR3
 40
3.0
  9
$USERR4
 40
3.0
  9
$USERR5
 40
10.0
  9
$WORLDVIEW
 70
     1
  9
$SHADEDGE
 70
     3
  9
$SHADEDIF
 70
    70
  9
$TILEMODE
 70
     1
  9
$MAXACTVP
 70
    16
  9
$PLIMCHECK
 70
     0
  9
$PEXTMIN
 10
1.0000000000000000E+020
 20
1.0000000000000000E+020
 30
1.0000000000000000E+020
  9
$PEXTMAX
 10
-1.0000000000000000E+020
 20
-1.0000000000000000E+020
 30
-1.0000000000000000E+020
  9
$PLIMMIN
 10
0.0
 20
0.0
  9
$PLIMMAX
 10
12.0
 20
9.0
  9
$UNITMODE
 70
     0
  9
$VISRETAIN
 70
     0
  9
$PLINEGEN
 70
     0
  9
$PSLTSCALE
 70
     0
  0
ENDSEC
  0
SECTION
  2
TABLES
  0
TABLE
  2
VPORT
 70
     1
  0
VPORT
  2
*ACTIVE
 70
     0
 10
0.0
 20
0.0
 11
1.0
 21
1.0
 12
410.15903177016492
 22
272.24185244138567
 13
0.0
 23
0.0
 14
20.0
 24
20.0
 15
20.0
 25
20.0
 16
0.0
 26
0.0
 36
1.0
 17
0.0
 27
0.0
 37
0.0
 40
552.42675516312329
 41
1.831871345029239
 42
50.0
 43
0.0
 44
0.0
 50
0.0
 51
0.0
 71
     0
 72
   100
 73
     1
 74
     0
 75
     0
 76
     0
 77
     0
 78
     2
  0
ENDTAB
  0
TABLE
  2
LTYPE
 70
     4
  0
LTYPE
  2
CONTINUOUS
 70
     0
  3
Solid Line
 72
    65
 73
     0
 40
0.0
  0
LTYPE
  2
CENTER
 70
     0
  3
____ _ ____ _ ____ _ ____ _ ____ _ ____ _ ____
 72
    65
 73
     4
 40
2.0
 49
1.25
 49
-0.25
 49
0.25
 49
-0.25
  0
LTYPE
  2
HIDDEN
 70
     0
  3
_ _ _ _ _ _ _ _ _ _ _ _ _ _ _ _ _ _ _ _ _ _ _
 72
    65
 73
     2
 40
0.375
 49
0.25
 49
-0.125
  0
LTYPE
  2
PHANTOM2
 70
     0
  3
___ _ _ ___ _ _ ___ _ _ ___ _ _
 72
    65
 73
     6
 40
1.25
 49
0.625
 49
-0.125
 49
0.125
 49
-0.125
 49
0.125
 49
-0.125
  0
ENDTAB
  0
TABLE
  2
LAYER
 70
     3
  0
LAYER
  2
0
 70
     0
 62
     7
  6
CONTINUOUS
  0
LAYER
  2
1
 70
     0
 62
     1
  6
CENTER
  0
LAYER
  2
2
 70
     0
 62
     2
  6
HIDDEN
  0
ENDTAB
  0
TABLE
  2
STYLE
 70
     2
  0
STYLE
  2
STANDARD
 70
     0
 40
0.0
 41
1.0
 50
0.0
 71
     0
 42
0.2
  3
TXT
  4
BIGFONT
  0
STYLE
  2
STANDARD1
 70
     0
 40
0.0
 41
1.0
 50
0.0
 71
     0
 42
3.0
  3
txt
  4

  0
ENDTAB
  0
TABLE
  2
VIEW
 70
     1
  0
VIEW
  2
ALL
 70
     0
 40
540.0
 10
441.98319299999991
 20
270.0
 41
0.0
 11
0.0
 21
0.0
 31
1.0
 12
0.0
 22
0.0
 32
0.0
 42
0.0
 43
0.0
 44
0.0
 50
0.0
 71
     0
  0
ENDTAB
  0
TABLE
  2
UCS
 70
     0
  0
ENDTAB
  0
TABLE
  2
APPID
 70
     3
  0
APPID
  2
ACAD
 70
     0
  0
APPID
  2
ACAD_MLEADERVER
 70
     0
  0
APPID
  2
ACAD_NAV_VCDISPLAY
 70
     0
  0
ENDTAB
  0
TABLE
  2
DIMSTYLE
 70
     1
  0
DIMSTYLE
  2
STANDARD
 70
     0
  3

  4

  5

  6

  7

 40
1.0
 41
0.18
 42
0.0625
 43
0.38
 44
0.18
 45
0.0
 46
0.0
 47
0.0
 48
0.0
140
0.18
141
0.09
142
0.0
143
25.399999999999999
144
1.0
145
0.0
146
1.0
147
0.09
 71
     0
 72
     0
 73
     1
 74
     1
 75
     0
 76
     0
 77
     0
 78
     0
170
     0
171
     2
172
     0
173
     0
174
     0
175
     0
176
     0
177
     0
178
     0
  0
ENDTAB
  0
ENDSEC
  0
SECTION
  2
BLOCKS
  0
BLOCK
  8
0
  2
$MODEL_SPACE
 70
     0
 10
0.0
 20
0.0
 30
0.0
  3
$MODEL_SPACE
  1

  0
ENDBLK
  5
115
  8
0
  0
BLOCK
 67
     1
  8
0
  2
$PAPER_SPACE
 70
     0
 10
0.0
 20
0.0
 30
0.0
  3
$PAPER_SPACE
  1

  0
ENDBLK
  5
113
 67
     1
  8
0
  0
BLOCK
  8
0
  2
STDGX5
 70
     0
 10
0.0
 20
0.0
 30
0.0
  3
STDGX5
  1

  0
ENDBLK
  5
40
  8
0
  0
ENDSEC
  0
SECTION
  2
ENTITIES
  0
INSERT
  5
4A
  8
0
  2
STDGX5
 10
0.0
 20
0.0
 30
0.0
  0
LINE
  5
4B
  8
0
 10
117.505
 20
61.0
 30
0.0
 11
162.495
 21
61.0
 31
0.0
  0
LINE
  5
4C
  8
0
 10
162.495
 20
74.819999999999993
 30
0.0
 11
133.11973
 21
74.819999999999993
 31
0.0
  0
LINE
  5
4D
  8
2
 10
150.0
 20
67.670000000000002
 30
0.0
 11
150.0
 21
74.819999999999993
 31
0.0
  0
LINE
  5
4E
  8
2
 10
152.40000000000001
 20
60.0
 30
0.0
 11
152.40000000000001
 21
65.269999999999996
 31
0.0
  0
LINE
  5
4F
  8
2
 10
150.0
 20
67.670000000000002
 30
0.0
 11
152.40000000000001
 21
65.269999999999996
 31
0.0
  0
LINE
  5
50
  8
2
 10
150.0
 20
74.819999999999993
 30
0.0
 11
151.0
 21
75.819999999999993
 31
0.0
  0
LINE
  5
51
  8
1
 10
157.5
 20
57.5
 30
0.0
 11
157.5
 21
78.319999999999993
 31
0.0
  0
LINE
  5
52
  8
2
 10
154.80000000000001
 20
69.819999999999993
 30
0.0
 11
154.80000000000001
 21
60.0
 31
0.0
  0
LINE
  5
53
  8
2
 10
160.19999999999999
 20
69.819999999999993
 30
0.0
 11
160.19999999999999
 21
60.0
 31
0.0
  0
LINE
  5
54
  8
2
 10
152.75
 20
75.819999999999993
 30
0.0
 11
152.75
 21
69.819999999999993
 31
0.0
  0
LINE
  5
55
  8
2
 10
152.75
 20
69.819999999999993
 30
0.0
 11
162.495
 21
69.819999999999993
 31
0.0
  0
LINE
  5
56
  8
2
 10
130.0
 20
74.819999999999993
 30
0.0
 11
129.0
 21
75.819999999999993
 31
0.0
  0
LINE
  5
57
  8
2
 10
127.59999999999999
 20
65.269999999999996
 30
0.0
 11
152.40000000000001
 21
65.269999999999996
 31
0.0
  0
LINE
  5
58
  8
2
 10
130.0
 20
67.670000000000002
 30
0.0
 11
127.59999999999999
 21
65.269999999999996
 31
0.0
  0
LINE
  5
59
  8
2
 10
130.0
 20
67.670000000000002
 30
0.0
 11
150.0
 21
67.670000000000002
 31
0.0
  0
LINE
  5
5A
  8
2
 10
127.59999999999999
 20
60.0
 30
0.0
 11
127.59999999999999
 21
65.269999999999996
 31
0.0
  0
LINE
  5
5B
  8
2
 10
130.0
 20
67.670000000000002
 30
0.0
 11
130.0
 21
74.819999999999993
 31
0.0
  0
LINE
  5
5C
  8
1
 10
140.0
 20
55.0
 30
0.0
 11
140.0
 21
80.819999999999979
 31
0.0
  0
POLYLINE
  5
5D
  8
0
 66
     1
 10
0.0
 20
0.0
 30
0.0
 70
     1
  0
VERTEX
  5
5E
  8
0
 10
118.505
 20
60.0
 30
0.0
  0
VERTEX
  5
5F
  8
0
 10
161.495
 20
60.0
 30
0.0
  0
VERTEX
  5
60
  8
0
 10
162.495
 20
61.0
 30
0.0
  0
VERTEX
  5
61
  8
0
 10
162.495
 20
74.819999999999993
 30
0.0
  0
VERTEX
  5
62
  8
0
 10
161.495
 20
75.819999999999993
 30
0.0
  0
VERTEX
  5
63
  8
0
 10
118.505
 20
75.819999999999993
 30
0.0
  0
VERTEX
  5
64
  8
0
 10
117.505
 20
74.819999999999993
 30
0.0
  0
VERTEX
  5
65
  8
0
 10
117.505
 20
61.0
 30
0.0
  0
SEQEND
  5
66
  8
0
  0
LINE
  5
67
  8
0
 10
239.0
 20
137.505
 30
0.0
 11
239.0
 21
182.495
 31
0.0
  0
LINE
  5
68
  8
0
 10
225.18000000000001
 20
182.495
 30
0.0
 11
225.18000000000001
 21
164.75
 31
0.0
  0
LINE
  5
69
  8
2
 10
232.33000000000001
 20
170.0
 30
0.0
 11
225.18000000000001
 21
170.0
 31
0.0
  0
LINE
  5
6A
  8
2
 10
240.0
 20
172.40000000000001
 30
0.0
 11
234.72999999999999
 21
172.40000000000001
 31
0.0
  0
LINE
  5
6B
  8
2
 10
232.33000000000001
 20
170.0
 30
0.0
 11
234.72999999999999
 21
172.40000000000001
 31
0.0
  0
LINE
  5
6C
  8
2
 10
225.18000000000001
 20
170.0
 30
0.0
 11
224.18000000000001
 21
171.0
 31
0.0
  0
LINE
  5
6D
  8
2
 10
225.18000000000001
 20
150.0
 30
0.0
 11
224.18000000000001
 21
149.0
 31
0.0
  0
LINE
  5
6E
  8
2
 10
234.72999999999999
 20
147.59999999999999
 30
0.0
 11
234.72999999999999
 21
172.40000000000001
 31
0.0
  0
LINE
  5
6F
  8
2
 10
232.33000000000001
 20
150.0
 30
0.0
 11
234.72999999999999
 21
147.59999999999999
 31
0.0
  0
LINE
  5
70
  8
2
 10
232.33000000000001
 20
150.0
 30
0.0
 11
232.33000000000001
 21
170.0
 31
0.0
  0
LINE
  5
71
  8
2
 10
240.0
 20
147.59999999999999
 30
0.0
 11
234.72999999999999
 21
147.59999999999999
 31
0.0
  0
LINE
  5
72
  8
2
 10
232.33000000000001
 20
150.0
 30
0.0
 11
225.18000000000001
 21
150.0
 31
0.0
  0
LINE
  5
73
  8
1
 10
245.0
 20
160.0
 30
0.0
 11
219.18000000000001
 21
160.0
 31
0.0
  0
POLYLINE
  5
74
  8
0
 66
     1
 10
0.0
 20
0.0
 30
0.0
 70
     1
  0
VERTEX
  5
75
  8
0
 10
240.0
 20
138.505
 30
0.0
  0
VERTEX
  5
76
  8
0
 10
240.0
 20
181.495
 30
0.0
  0
VERTEX
  5
77
  8
0
 10
239.0
 20
182.495
 30
0.0
  0
VERTEX
  5
78
  8
0
 10
225.18000000000001
 20
182.495
 30
0.0
  0
VERTEX
  5
79
  8
0
 10
224.18000000000001
 20
181.495
 30
0.0
  0
VERTEX
  5
7A
  8
0
 10
224.18000000000001
 20
138.505
 30
0.0
  0
VERTEX
  5
7B
  8
0
 10
225.18000000000001
 20
137.505
 30
0.0
  0
VERTEX
  5
7C
  8
0
 10
239.0
 20
137.505
 30
0.0
  0
SEQEND
  5
7D
  8
0
  0
LINE
  5
7E
  8
0
 10
230.18000000000001
 20
164.75
 30
0.0
 11
230.18000000000001
 21
155.25
 31
0.0
  0
LINE
  5
7F
  8
0
 10
224.18000000000001
 20
164.75
 30
0.0
 11
230.18000000000001
 21
164.75
 31
0.0
  0
LINE
  5
80
  8
0
 10
224.18000000000001
 20
155.25
 30
0.0
 11
230.18000000000001
 21
155.25
 31
0.0
  0
LINE
  5
81
  8
0
 10
225.18000000000001
 20
155.25
 30
0.0
 11
225.18000000000001
 21
137.505
 31
0.0
  0
LINE
  5
82
  8
2
 10
230.18000000000001
 20
162.69999999999999
 30
0.0
 11
240.0
 21
162.69999999999999
 31
0.0
  0
LINE
  5
83
  8
2
 10
230.18000000000001
 20
157.30000000000001
 30
0.0
 11
240.0
 21
157.30000000000001
 31
0.0
  0
LINE
  5
84
  8
0
 10
133.11973
 20
75.819999999999993
 30
0.0
 11
133.11973
 21
69.819999999999993
 31
0.0
  0
LINE
  5
85
  8
0
 10
124.892489
 20
75.819999999999993
 30
0.0
 11
124.892489
 21
69.819999999999993
 31
0.0
  0
LINE
  5
86
  8
1
 10
131.25
 20
57.5
 30
0.0
 11
131.25
 21
78.319999999999993
 31
0.0
  0
LINE
  5
87
  8
0
 10
133.11973
 20
69.819999999999993
 30
0.0
 11
124.892489
 21
69.819999999999993
 31
0.0
  0
LINE
  5
88
  8
0
 10
124.892489
 20
74.819999999999993
 30
0.0
 11
117.505
 21
74.819999999999993
 31
0.0
  0
LINE
  5
89
  8
2
 10
130.0
 20
74.819999999999993
 30
0.0
 11
133.11973
 21
74.819999999999993
 31
0.0
  0
LINE
  5
8A
  8
2
 10
128.55000000000001
 20
69.819999999999993
 30
0.0
 11
128.55000000000001
 21
60.0
 31
0.0
  0
LINE
  5
8B
  8
2
 10
133.94999999999999
 20
69.819999999999993
 30
0.0
 11
133.94999999999999
 21
60.0
 31
0.0
  0
LINE
  5
8C
  8
2
 10
136.0
 20
75.819999999999993
 30
0.0
 11
136.0
 21
69.819999999999993
 31
0.0
  0
LINE
  5
8D
  8
2
 10
133.11973
 20
69.819999999999993
 30
0.0
 11
136.0
 21
69.819999999999993
 31
0.0
  0
LINE
  5
8E
  8
1
 10
137.09567100000001
 20
141.46955500000001
 30
0.0
 11
125.404329
 21
148.21955500000001
 31
0.0
  0
LINE
  5
8F
  8
1
 10
125.404329
 20
171.78044499999999
 30
0.0
 11
137.09567100000001
 21
178.53044499999999
 31
0.0
  0
LINE
  5
90
  8
1
 10
157.5
 20
166.75
 30
0.0
 11
157.5
 21
153.25
 31
0.0
  0
LINE
  5
91
  8
1
 10
126.2525
 20
136.18863200000001
 30
0.0
 11
134.625
 21
150.69022699999999
 31
0.0
  0
CIRCLE
  5
92
  8
0
 10
131.25
 20
144.84455500000001
 30
0.0
 40
2.7000000000000002
  0
ARC
  5
93
  8
0
 10
131.25
 20
144.84455500000001
 30
0.0
 40
4.75
 50
330.0
 51
150.0
  0
LINE
  5
94
  8
0
 10
127.13637900000001
 20
147.21955500000001
 30
0.0
 11
124.892489
 21
143.333023
 31
0.0
  0
LINE
  5
95
  8
0
 10
135.36362099999999
 20
142.46955500000001
 30
0.0
 11
133.11973
 21
138.583023
 31
0.0
  0
LINE
  5
96
  8
1
 10
126.2525
 20
183.81136799999999
 30
0.0
 11
134.625
 21
169.30977300000001
 31
0.0
  0
CIRCLE
  5
97
  8
0
 10
131.25
 20
175.15544499999999
 30
0.0
 40
2.7000000000000002
  0
ARC
  5
98
  8
0
 10
131.25
 20
175.15544499999999
 30
0.0
 40
4.75
 50
210.0
 51
30.0
  0
LINE
  5
99
  8
0
 10
135.36362099999999
 20
177.53044499999999
 30
0.0
 11
133.11973
 21
181.416977
 31
0.0
  0
LINE
  5
9A
  8
0
 10
127.13637900000001
 20
172.78044499999999
 30
0.0
 11
124.892489
 21
176.666977
 31
0.0
  0
LINE
  5
9B
  8
0
 10
157.5
 20
164.75
 30
0.0
 11
161.98778100000001
 21
164.75
 31
0.0
  0
LINE
  5
9C
  8
0
 10
157.5
 20
155.25
 30
0.0
 11
161.98778100000001
 21
155.25
 31
0.0
  0
ARC
  5
9D
  8
0
 10
157.5
 20
160.0
 30
0.0
 40
4.75
 50
90.0
 51
270.0
  0
CIRCLE
  5
9E
  8
0
 10
157.5
 20
160.0
 30
0.0
 40
2.7000000000000002
  0
CIRCLE
  5
9F
  8
0
 10
140.0
 20
160.0
 30
0.0
 40
10.0
  0
LINE
  5
A0
  8
1
 10
167.495
 20
160.0
 30
0.0
 11
112.505
 21
160.0
 31
0.0
  0
LINE
  5
A1
  8
1
 10
140.0
 20
132.505
 30
0.0
 11
140.0
 21
187.495
 31
0.0
  0
CIRCLE
  5
A2
  8
0
 10
140.0
 20
160.0
 30
0.0
 40
22.495000000000001
  0
TEXT
  5
207
  8
0
 62
     3
 10
0.0
 20
0.0
 30
0.0
 40
5.0
  1
BB2-20
  7
STANDARD1
  0
ENDSEC
  0
EOF
