  0
SECTION
  2
HEADER
  9
$ACADVER
  1
AC1009
  9
$INSBASE
 10
0.0
 20
0.0
 30
0.0
  9
$EXTMIN
 10
0.0
 20
-2.960436562073669
 30
0.0
  9
$EXTMAX
 10
684.90587492201666
 20
365.0
 30
0.0
  9
$LIMMIN
 10
0.0
 20
0.0
  9
$LIMMAX
 10
750.0
 20
540.0
  9
$ORTHOMODE
 70
     1
  9
$REGENMODE
 70
     1
  9
$FILLMODE
 70
     1
  9
$QTEXTMODE
 70
     0
  9
$MIRRTEXT
 70
     0
  9
$DRAGMODE
 70
     2
  9
$LTSCALE
 40
20.0
  9
$OSMODE
 70
  3071
  9
$ATTMODE
 70
     1
  9
$TEXTSIZE
 40
4.000000000000048
  9
$TRACEWID
 40
0.05
  9
$TEXTSTYLE
  7
STANDARD
  9
$CLAYER
  8
0
  9
$CELTYPE
  6
BYLAYER
  9
$CECOLOR
 62
   256
  9
$DIMSCALE
 40
2.0
  9
$DIMASZ
 40
3.0
  9
$DIMEXO
 40
2.0
  9
$DIMDLI
 40
0.38
  9
$DIMRND
 40
0.0
  9
$DIMDLE
 40
0.0
  9
$DIMEXE
 40
2.0
  9
$DIMTP
 40
0.0
  9
$DIMTM
 40
0.0
  9
$DIMTXT
 40
3.2000000000000002
  9
$DIMCEN
 40
0.0
  9
$DIMTSZ
 40
0.0
  9
$DIMTOL
 70
     0
  9
$DIMLIM
 70
     0
  9
$DIMTIH
 70
     0
  9
$DIMTOH
 70
     0
  9
$DIMSE1
 70
     0
  9
$DIMSE2
 70
     0
  9
$DIMTAD
 70
     1
  9
$DIMZIN
 70
     0
  9
$DIMBLK
  1

  9
$DIMASO
 70
     1
  9
$DIMSHO
 70
     0
  9
$DIMPOST
  1

  9
$DIMAPOST
  1

  9
$DIMALT
 70
     0
  9
$DIMALTD
 70
     2
  9
$DIMALTF
 40
25.399999999999999
  9
$DIMLFAC
 40
1.0
  9
$DIMTOFL
 70
     1
  9
$DIMTVP
 40
1.6000000000000001
  9
$DIMTIX
 70
     1
  9
$DIMSOXD
 70
     0
  9
$DIMSAH
 70
     0
  9
$DIMBLK1
  1

  9
$DIMBLK2
  1

  9
$DIMSTYLE
  2
STANDARD
  9
$DIMCLRD
 70
     0
  9
$DIMCLRE
 70
     0
  9
$DIMCLRT
 70
     0
  9
$DIMTFAC
 40
1.0
  9
$DIMGAP
 40
0.09
  9
$LUNITS
 70
     2
  9
$LUPREC
 70
     4
  9
$SKETCHINC
 40
0.1
  9
$FILLETRAD
 40
0.5
  9
$AUNITS
 70
     1
  9
$AUPREC
 70
     4
  9
$MENU
  1
E:\r13\win\SUPPORT\ACAD
  9
$ELEVATION
 40
0.0
  9
$PELEVATION
 40
0.0
  9
$THICKNESS
 40
0.0
  9
$LIMCHECK
 70
     0
  9
$BLIPMODE
 70
     0
  9
$CHAMFERA
 40
0.0
  9
$CHAMFERB
 40
0.0
  9
$SKPOLY
 70
     0
  9
$TDCREATE
 40
2449839.7905324069
  9
$TDUPDATE
 40
2456597.59399265
  9
$TDINDWG
 40
0.0001675347
  9
$TDUSRTIMER
 40
0.0001675347
  9
$USRTIMER
 70
     1
  9
$ANGBASE
 50
0.0
  9
$ANGDIR
 70
     0
  9
$PDMODE
 70
     0
  9
$PDSIZE
 40
0.0
  9
$PLINEWID
 40
0.0
  9
$COORDS
 70
     1
  9
$SPLFRAME
 70
     0
  9
$SPLINETYPE
 70
     6
  9
$SPLINESEGS
 70
     8
  9
$ATTDIA
 70
     0
  9
$ATTREQ
 70
     1
  9
$HANDLING
 70
     1
  9
$HANDSEED
  5
3D0
  9
$SURFTAB1
 70
     6
  9
$SURFTAB2
 70
     6
  9
$SURFTYPE
 70
     6
  9
$SURFU
 70
     6
  9
$SURFV
 70
     6
  9
$UCSNAME
  2

  9
$UCSORG
 10
0.0
 20
0.0
 30
0.0
  9
$UCSXDIR
 10
1.0
 20
0.0
 30
0.0
  9
$UCSYDIR
 10
0.0
 20
1.0
 30
0.0
  9
$PUCSNAME
  2

  9
$PUCSORG
 10
0.0
 20
0.0
 30
0.0
  9
$PUCSXDIR
 10
1.0
 20
0.0
 30
0.0
  9
$PUCSYDIR
 10
0.0
 20
1.0
 30
0.0
  9
$USERI1
 70
     0
  9
$USERI2
 70
     1
  9
$USERI3
 70
     1
  9
$USERI4
 70
     0
  9
$USERI5
 70
     0
  9
$USERR1
 40
0.0
  9
$USERR2
 40
0.0
  9
$USERR3
 40
0.0
  9
$USERR4
 40
0.0
  9
$USERR5
 40
0.0
  9
$WORLDVIEW
 70
     1
  9
$SHADEDGE
 70
     3
  9
$SHADEDIF
 70
    70
  9
$TILEMODE
 70
     1
  9
$MAXACTVP
 70
    16
  9
$PLIMCHECK
 70
     0
  9
$PEXTMIN
 10
1.0000000000000000E+020
 20
1.0000000000000000E+020
 30
1.0000000000000000E+020
  9
$PEXTMAX
 10
-1.0000000000000000E+020
 20
-1.0000000000000000E+020
 30
-1.0000000000000000E+020
  9
$PLIMMIN
 10
0.0
 20
0.0
  9
$PLIMMAX
 10
12.0
 20
9.0
  9
$UNITMODE
 70
     0
  9
$VISRETAIN
 70
     0
  9
$PLINEGEN
 70
     0
  9
$PSLTSCALE
 70
     0
  0
ENDSEC
  0
SECTION
  2
TABLES
  0
TABLE
  2
VPORT
 70
     1
  0
VPORT
  2
*ACTIVE
 70
     0
 10
0.0
 20
0.0
 11
1.0
 21
1.0
 12
390.03402345615979
 22
268.50860658393782
 13
0.0
 23
0.0
 14
20.0
 24
20.0
 15
20.0
 25
20.0
 16
0.0
 26
0.0
 36
1.0
 17
0.0
 27
0.0
 37
0.0
 40
547.85258761088789
 41
1.831871345029239
 42
50.0
 43
0.0
 44
0.0
 50
0.0
 51
0.0
 71
     0
 72
   500
 73
     1
 74
     0
 75
     0
 76
     0
 77
     0
 78
     2
  0
ENDTAB
  0
TABLE
  2
LTYPE
 70
     4
  0
LTYPE
  2
CONTINUOUS
 70
     0
  3
Solid Line
 72
    65
 73
     0
 40
0.0
  0
LTYPE
  2
CENTER
 70
     0
  3
____ _ ____ _ ____ _ ____ _ ____ _ ____ _ ____
 72
    65
 73
     4
 40
2.0
 49
1.25
 49
-0.25
 49
0.25
 49
-0.25
  0
LTYPE
  2
HIDDEN
 70
     0
  3
_ _ _ _ _ _ _ _ _ _ _ _ _ _ _ _ _ _ _ _ _ _ _
 72
    65
 73
     2
 40
0.375
 49
0.25
 49
-0.125
  0
LTYPE
  2
PHANTOM2
 70
     0
  3
___ _ _ ___ _ _ ___ _ _ ___ _ _
 72
    65
 73
     6
 40
1.25
 49
0.625
 49
-0.125
 49
0.125
 49
-0.125
 49
0.125
 49
-0.125
  0
ENDTAB
  0
TABLE
  2
LAYER
 70
     3
  0
LAYER
  2
0
 70
     0
 62
     7
  6
CONTINUOUS
  0
LAYER
  2
1
 70
     0
 62
     1
  6
CENTER
  0
LAYER
  2
2
 70
     0
 62
     2
  6
HIDDEN
  0
ENDTAB
  0
TABLE
  2
STYLE
 70
     2
  0
STYLE
  2
STANDARD
 70
     0
 40
0.0
 41
1.0
 50
0.0
 71
     0
 42
4.000000000000048
  3
TXT
  4
BIGFONT
  0
STYLE
  2
STANDARD1
 70
     0
 40
0.0
 41
1.0
 50
0.0
 71
     0
 42
3.0
  3
txt
  4

  0
ENDTAB
  0
TABLE
  2
VIEW
 70
     1
  0
VIEW
  2
ALL
 70
     0
 40
540.0
 10
441.98319327731087
 20
270.0
 41
0.0
 11
0.0
 21
0.0
 31
1.0
 12
0.0
 22
0.0
 32
0.0
 42
0.0
 43
0.0
 44
0.0
 50
0.0
 71
     0
  0
ENDTAB
  0
TABLE
  2
UCS
 70
     0
  0
ENDTAB
  0
TABLE
  2
APPID
 70
     3
  0
APPID
  2
ACAD
 70
     0
  0
APPID
  2
ACAD_MLEADERVER
 70
     0
  0
APPID
  2
ACAD_NAV_VCDISPLAY
 70
     0
  0
ENDTAB
  0
TABLE
  2
DIMSTYLE
 70
     1
  0
DIMSTYLE
  2
STANDARD
 70
     0
  3

  4

  5

  6

  7

 40
1.0
 41
0.18
 42
0.0625
 43
0.38
 44
0.18
 45
0.0
 46
0.0
 47
0.0
 48
0.0
140
0.18
141
0.09
142
0.0
143
25.399999999999999
144
1.0
145
0.0
146
1.0
147
0.09
 71
     0
 72
     0
 73
     1
 74
     1
 75
     0
 76
     0
 77
     0
 78
     0
170
     0
171
     2
172
     0
173
     0
174
     0
175
     0
176
     0
177
     0
178
     0
  0
ENDTAB
  0
ENDSEC
  0
SECTION
  2
BLOCKS
  0
BLOCK
  8
0
  2
$MODEL_SPACE
 70
     0
 10
0.0
 20
0.0
 30
0.0
  3
$MODEL_SPACE
  1

  0
ENDBLK
  5
251
  8
0
  0
BLOCK
 67
     1
  8
0
  2
$PAPER_SPACE
 70
     0
 10
0.0
 20
0.0
 30
0.0
  3
$PAPER_SPACE
  1

  0
ENDBLK
  5
24F
 67
     1
  8
0
  0
ENDSEC
  0
SECTION
  2
ENTITIES
  0
LINE
  5
35
  8
0
 10
238.7695146892367
 20
226.7209269421233
 30
0.0
 11
239.5912202097509
 21
214.96999053195239
 31
0.0
  0
LINE
  5
36
  8
0
 10
138.25
 20
226.0
 30
0.0
 11
136.25
 21
224.00000000000051
 31
0.0
  0
LINE
  5
37
  8
0
 10
160.0
 20
190.0
 30
0.0
 11
161.0
 21
191.0
 31
0.0
  0
LINE
  5
38
  8
0
 10
161.0
 20
191.0
 30
0.0
 11
161.0
 21
200.0
 31
0.0
  0
LINE
  5
39
  8
0
 10
139.0
 20
191.0
 30
0.0
 11
139.0
 21
200.0
 31
0.0
  0
LINE
  5
3A
  8
0
 10
140.0
 20
190.0
 30
0.0
 11
139.0
 21
191.0
 31
0.0
  0
LINE
  5
3B
  8
0
 10
140.0
 20
190.0
 30
0.0
 11
160.0
 21
190.0
 31
0.0
  0
LINE
  5
3C
  8
0
 10
139.0
 20
191.0
 30
0.0
 11
161.0
 21
191.0
 31
0.0
  0
LINE
  5
3D
  8
0
 10
163.5
 20
200.0
 30
0.0
 11
136.5
 21
200.0
 31
0.0
  0
LINE
  5
3E
  8
0
 10
136.11731893187971
 20
200.95346459127319
 30
0.0
 11
238.2759494653919
 21
213.3763253567364
 31
0.0
  0
LINE
  5
3F
  8
0
 10
136.25
 20
224.00000000000051
 30
0.0
 11
134.99917683319481
 21
202.00303982177849
 31
0.0
  0
ARC
  5
40
  8
0
 10
135.99756401707839
 20
201.94626807654981
 30
0.0
 40
0.9999999999996891
 50
176.7454687611301
 51
276.8779582326323
  0
LINE
  5
41
  8
0
 10
136.5
 20
200.0
 30
0.0
 11
136.5
 21
200.99999999999989
 31
0.0
  0
LINE
  5
42
  8
0
 10
163.49999999999989
 20
200.0
 30
0.0
 11
163.802086128317
 21
204.32003290184571
 31
0.0
  0
LINE
  5
43
  8
0
 10
161.75
 20
226.0
 30
0.0
 11
163.75
 21
224.00000000000051
 31
0.0
  0
LINE
  5
44
  8
0
 10
138.25
 20
226.0
 30
0.0
 11
161.75
 21
226.0
 31
0.0
  0
LINE
  5
45
  8
0
 10
163.75
 20
224.00000000000051
 30
0.0
 11
136.25
 21
224.00000000000051
 31
0.0
  0
LINE
  5
46
  8
0
 10
151.0134610998073
 20
354.96572405863401
 30
0.0
 11
229.29241331549869
 21
349.66476617023108
 31
0.0
  0
CIRCLE
  5
47
  8
0
 10
150.0
 20
340.0
 30
0.0
 40
13.75
  0
LINE
  5
48
  8
0
 10
150.859375
 20
353.72311825385822
 30
0.0
 11
194.34403954259241
 21
351.00000293123207
 31
0.0
  0
LINE
  5
49
  8
0
 10
150.859375
 20
326.27688174614178
 30
0.0
 11
194.3441331586385
 21
329.00000293123207
 31
0.0
  0
LINE
  5
4A
  8
0
 10
151.0134610998073
 20
325.03427594136599
 30
0.0
 11
229.2924592928529
 21
330.3352369433008
 31
0.0
  0
ARC
  5
4B
  8
0
 10
150.0
 20
340.0
 30
0.0
 40
15.0
 50
86.125912457867045
 51
273.874087542133
  0
CIRCLE
  5
4C
  8
0
 10
150.0
 20
340.0
 30
0.0
 40
11.75
  0
LINE
  5
4D
  8
0
 10
157.86184167827869
 20
351.28068904924129
 30
0.0
 11
166.25508107866739
 21
350.7550840098998
 31
0.0
  0
LINE
  5
4E
  8
0
 10
157.86184167827869
 20
328.71931095075871
 30
0.0
 11
166.2550865956452
 21
329.24491633558682
 31
0.0
  0
LINE
  5
4F
  8
0
 10
163.75
 20
224.0000000000006
 30
0.0
 11
163.78564495064009
 21
223.4902534571587
 31
0.0
  0
ARC
  5
50
  8
0
 10
165.28199102602991
 20
223.59488816777491
 30
0.0
 40
1.5
 50
184.00000000000111
 51
274.00000000000091
  0
LINE
  5
51
  8
1
 10
150.0
 20
236.0
 30
0.0
 11
150.0
 21
180.0
 31
0.0
  0
LINE
  5
52
  8
0
 10
157.86184167827861
 20
221.57235793262021
 30
0.0
 11
224.8649958174006
 21
226.25767489172861
 31
0.0
  0
LINE
  5
53
  8
0
 10
221.23048531076299
 20
226.72092694212361
 30
0.0
 11
221.18007318805519
 21
226.0
 31
0.0
  0
ARC
  5
54
  8
0
 10
221.5297545258409
 20
226.69999999999999
 30
0.0
 40
0.3
 50
90.0
 51
175.999999999929
  0
ARC
  5
55
  8
0
 10
238.4702454741587
 20
226.69999999999999
 30
0.0
 40
0.3
 50
4.0000000000002087
 51
90.0
  0
LINE
  5
56
  8
1
 10
150.0
 20
365.0
 30
0.0
 11
150.0
 21
315.0
 31
0.0
  0
LINE
  5
57
  8
1
 10
249.69063059960001
 20
340.00000384733869
 30
0.0
 11
125.0000000000003
 21
340.0
 31
0.0
  0
LINE
  5
58
  8
0
 10
150.859375
 20
219.07781396590531
 30
0.0
 11
230.54687499994341
 21
224.65010679264921
 31
0.0
  0
ARC
  5
59
  8
0
 10
150.9672179844865
 20
229.85071596497301
 30
0.0
 40
10.773441770892831
 50
269.42645524175521
 51
309.78919605875137
  0
LINE
  5
5A
  8
1
 10
229.99999999999989
 20
202.29627393660419
 30
0.0
 11
229.99999999999989
 21
252.0
 31
0.0
  0
LINE
  5
5B
  8
1
 10
230.0
 20
320.3093726401832
 30
0.0
 11
230.0
 21
359.69063383938237
 31
0.0
  0
ARC
  5
5C
  8
0
 10
238.09487413436111
 20
214.86535582133629
 30
0.0
 40
1.5
 50
276.93333333333328
 51
4.0000000000003491
  0
CIRCLE
  5
5D
  8
0
 10
150.0
 20
340.00000077137679
 30
0.0
 40
8.75
  0
LINE
  5
5E
  8
2
 10
140.0
 20
222.0
 30
0.0
 11
140.0
 21
200.0
 31
0.0
  0
LINE
  5
5F
  8
2
 10
160.0
 20
222.0
 30
0.0
 11
160.0
 21
200.0
 31
0.0
  0
LINE
  5
60
  8
2
 10
140.0
 20
222.0
 30
0.0
 11
160.0
 21
222.0
 31
0.0
  0
LINE
  5
61
  8
2
 10
141.25
 20
222.80000000000001
 30
0.0
 11
158.75
 21
222.80000000000001
 31
0.0
  0
LINE
  5
62
  8
2
 10
141.25
 20
222.80000000000001
 30
0.0
 11
141.25
 21
222.0
 31
0.0
  0
LINE
  5
63
  8
2
 10
158.75
 20
222.80000000000001
 30
0.0
 11
158.75
 21
222.0
 31
0.0
  0
LINE
  5
64
  8
2
 10
158.75
 20
222.80000000000001
 30
0.0
 11
159.20922686012631
 21
226.0
 31
0.0
  0
LINE
  5
65
  8
2
 10
141.25
 20
222.80000000000001
 30
0.0
 11
140.79077313987361
 21
226.0
 31
0.0
  0
CIRCLE
  5
66
  8
0
 10
150.0
 20
340.0
 30
0.0
 40
9.209226860126364
  0
LINE
  5
67
  8
0
 10
238.4702454741587
 20
227.0
 30
0.0
 11
221.5297545258409
 21
227.0
 31
0.0
  0
LINE
  5
68
  8
0
 10
237.5
 20
242.0
 30
0.0
 11
224.0
 21
242.0
 31
0.0
  0
LINE
  5
69
  8
0
 10
238.0
 20
227.0
 30
0.0
 11
237.99999999999989
 21
241.5
 31
0.0
  0
LINE
  5
6A
  8
0
 10
222.99999999999989
 20
227.0
 30
0.0
 11
222.99999999999989
 21
241.0
 31
0.0
  0
LINE
  5
6B
  8
0
 10
237.5
 20
242.0
 30
0.0
 11
237.99999999999989
 21
241.5
 31
0.0
  0
ARC
  5
6C
  8
0
 10
224.0
 20
241.0
 30
0.0
 40
1.0
 50
89.999999999999758
 51
179.99999999999989
  0
LINE
  5
6D
  8
0
 10
237.99999999999989
 20
241.5
 30
0.0
 11
223.1339745962155
 21
241.5
 31
0.0
  0
LINE
  5
6E
  8
1
 10
238.4702454741587
 20
235.5
 30
0.0
 11
154.0
 21
235.5
 31
0.0
  0
CIRCLE
  5
6F
  8
0
 10
230.0
 20
235.5
 30
0.0
 40
1.5
  0
LINE
  5
70
  8
2
 10
147.0
 20
216.0
 30
0.0
 11
153.0
 21
216.0
 31
0.0
  0
LINE
  5
71
  8
2
 10
147.0
 20
216.0
 30
0.0
 11
147.0
 21
190.5
 31
0.0
  0
LINE
  5
72
  8
2
 10
153.0
 20
216.0
 30
0.0
 11
153.0
 21
190.5
 31
0.0
  0
LINE
  5
73
  8
2
 10
147.0
 20
216.0
 30
0.0
 11
150.0
 21
217.7320508075689
 31
0.0
  0
LINE
  5
74
  8
2
 10
153.0
 20
216.0
 30
0.0
 11
150.0
 21
217.7320508075689
 31
0.0
  0
LINE
  5
75
  8
2
 10
153.0
 20
190.5
 30
0.0
 11
153.5
 21
190.0
 31
0.0
  0
LINE
  5
76
  8
2
 10
147.0
 20
190.5
 30
0.0
 11
146.5
 21
190.0
 31
0.0
  0
LINE
  5
77
  8
2
 10
147.0
 20
190.5
 30
0.0
 11
153.0
 21
190.5
 31
0.0
  0
ARC
  5
78
  8
0
 10
222.5
 20
239.5764364558085
 30
0.0
 40
0.5
 50
0.0
 51
80.537677791974204
  0
ARC
  5
79
  8
0
 10
222.5
 20
231.4235635441915
 30
0.0
 40
0.5
 50
279.46232220802523
 51
0.0
  0
ARC
  5
7A
  8
0
 10
219.19999999999999
 20
226.95788403974689
 30
0.0
 40
0.5
 50
275.03508467945659
 51
359.99999999999977
  0
ARC
  5
7B
  8
0
 10
219.2000000000001
 20
244.04211596025311
 30
0.0
 40
0.5
 50
359.99999999999977
 51
84.964915320543255
  0
LINE
  5
7C
  8
0
 10
197.0
 20
224.5
 30
0.0
 11
219.24388286969611
 21
226.4598134686957
 31
0.0
  0
LINE
  5
7D
  8
0
 10
196.99999999999989
 20
246.5
 30
0.0
 11
219.24388286969619
 21
244.5401865313043
 31
0.0
  0
LINE
  5
7E
  8
0
 10
220.0
 20
228.5
 30
0.0
 11
219.69999999999999
 21
228.5
 31
0.0
  0
LINE
  5
7F
  8
0
 10
220.0
 20
242.5
 30
0.0
 11
219.7000000000001
 21
242.5
 31
0.0
  0
LINE
  5
80
  8
0
 10
219.69999999999999
 20
226.95788403974689
 30
0.0
 11
219.69999999999999
 21
244.04211596025311
 31
0.0
  0
LINE
  5
81
  8
0
 10
196.99999999999989
 20
246.5
 30
0.0
 11
166.70710678118641
 21
246.5
 31
0.0
  0
LINE
  5
82
  8
0
 10
197.0
 20
224.5
 30
0.0
 11
166.7071067811865
 21
224.5
 31
0.0
  0
LINE
  5
83
  8
0
 10
197.0
 20
224.5
 30
0.0
 11
196.99999999999989
 21
246.5
 31
0.0
  0
LINE
  5
84
  8
0
 10
165.1049806024497
 20
225.89501939755041
 30
0.0
 11
166.35355339059331
 21
224.64644660940669
 31
0.0
  0
LINE
  5
85
  8
0
 10
165.1049806024491
 20
245.10498060244919
 30
0.0
 11
166.35355339059311
 21
246.35355339059331
 31
0.0
  0
ARC
  5
86
  8
0
 10
209.6249999999981
 20
235.5000000000006
 30
0.0
 40
45.624999999998138
 50
168.16946026886779
 51
191.83053973113439
  0
LINE
  5
87
  8
0
 10
165.00000000000011
 20
227.41421356237291
 30
0.0
 11
164.99999999999989
 21
243.58578643762701
 31
0.0
  0
LINE
  5
88
  8
0
 10
166.4999999999998
 20
245.08578643762701
 30
0.0
 11
166.50000000000011
 21
225.91421356237311
 31
0.0
  0
ARC
  5
89
  8
0
 10
166.70710678118641
 20
246.0
 30
0.0
 40
0.5
 50
90.0
 51
134.99999999999989
  0
ARC
  5
8A
  8
0
 10
165.45853399304241
 20
244.751427211856
 30
0.0
 40
0.5
 50
135.0
 51
168.16946026886799
  0
ARC
  5
8B
  8
0
 10
165.45853399304289
 20
226.2485727881436
 30
0.0
 40
0.5
 50
191.8305397311361
 51
225.0000000000023
  0
ARC
  5
8C
  8
0
 10
166.7071067811865
 20
225.0
 30
0.0
 40
0.5
 50
225.0
 51
269.99999999999989
  0
LINE
  5
8D
  8
0
 10
220.0
 20
228.5
 30
0.0
 11
220.0
 21
242.5
 31
0.0
  0
LINE
  5
8E
  8
0
 10
220.0
 20
240.5
 30
0.0
 11
222.58219949365261
 21
240.06963341772459
 31
0.0
  0
LINE
  5
8F
  8
0
 10
220.0
 20
230.5
 30
0.0
 11
222.58219949365261
 21
230.9303665822755
 31
0.0
  0
ARC
  5
90
  8
0
 10
230.0
 20
340.00000323978281
 30
0.0
 40
8.0
 50
208.9550243718482
 51
151.044975628152
  0
ARC
  5
91
  8
0
 10
230.0
 20
340.00000323978281
 30
0.0
 40
7.5
 50
216.86989764582421
 51
143.13010235417579
  0
ARC
  5
92
  8
0
 10
230.0
 20
340.00000323978281
 30
0.0
 40
4.6500000000000004
 50
205.4743860287991
 51
154.5256175069315
  0
ARC
  5
93
  8
0
 10
230.0
 20
340.00000323978281
 30
0.0
 40
4.4500000000000002
 50
206.7076470700201
 51
153.29235646571081
  0
LINE
  5
94
  8
0
 10
224.0
 20
335.50000323978281
 30
0.0
 11
224.0
 21
338.00000305465232
 31
0.0
  0
LINE
  5
95
  8
0
 10
233.49999999999989
 20
338.00000334777559
 30
0.0
 11
233.49999999999989
 21
342.00000334777559
 31
0.0
  0
LINE
  5
96
  8
0
 10
233.5
 20
342.00000334777559
 30
0.0
 11
222.99999999999989
 21
342.00000302379738
 31
0.0
  0
LINE
  5
97
  8
0
 10
233.49999999999989
 20
338.00000334777559
 30
0.0
 11
223.0
 21
338.00000302379732
 31
0.0
  0
LINE
  5
98
  8
0
 10
224.0
 20
342.00000305465238
 30
0.0
 11
224.0
 21
344.50000323977957
 31
0.0
  0
LINE
  5
99
  8
0
 10
222.9999999999996
 20
335.92356188306661
 30
0.0
 11
223.0
 21
344.07643946671442
 31
0.0
  0
ARC
  5
9A
  8
0
 10
230.0
 20
340.00000323978281
 30
0.0
 40
3.0
 50
318.18968687204631
 51
41.810316663686081
  0
LINE
  5
9B
  8
0
 10
220.0
 20
333.00000293123207
 30
0.0
 11
220.0
 21
347.00000293123207
 31
0.0
  0
LINE
  5
9C
  8
0
 10
220.0
 20
345.00000293123207
 30
0.0
 11
222.58219947884641
 21
344.56963643109827
 31
0.0
  0
LINE
  5
9D
  8
0
 10
220.0
 20
335.00000293123207
 30
0.0
 11
222.58219950845901
 21
335.43036959564921
 31
0.0
  0
ARC
  5
9E
  8
0
 10
222.5
 20
344.07643946671442
 30
0.0
 40
0.5
 50
359.99999999999733
 51
80.537679512059285
  0
ARC
  5
9F
  8
0
 10
222.5
 20
335.92356655509752
 30
0.0
 40
0.5
 50
279.46232392811078
 51
0.0
  0
ARC
  5
A0
  8
0
 10
166.7071067811865
 20
329.50000293123207
 30
0.0
 40
0.5
 50
225.0
 51
269.99999999999989
  0
ARC
  5
A1
  8
0
 10
165.45853399304289
 20
330.74857571937571
 30
0.0
 40
0.5
 50
191.8305397311361
 51
225.0000000000023
  0
ARC
  5
A2
  8
0
 10
165.45853399304241
 20
349.2514301430881
 30
0.0
 40
0.5
 50
135.0
 51
168.16946026886799
  0
ARC
  5
A3
  8
0
 10
166.70710678118641
 20
350.50000293123207
 30
0.0
 40
0.5
 50
90.0
 51
134.99999999999989
  0
LINE
  5
A4
  8
0
 10
166.4999999999998
 20
349.58578936885903
 30
0.0
 11
166.50000000000011
 21
330.41421649360518
 31
0.0
  0
LINE
  5
A5
  8
0
 10
165.00000000000011
 20
331.91421649360501
 30
0.0
 11
164.99999999999989
 21
348.08578936885908
 31
0.0
  0
ARC
  5
A6
  8
0
 10
209.6249999999981
 20
340.0000029312327
 30
0.0
 40
45.624999999998138
 50
168.16946026886779
 51
191.83053973113439
  0
LINE
  5
A7
  8
0
 10
165.1049806024491
 20
349.60498353368132
 30
0.0
 11
166.35355339059311
 21
350.85355632182529
 31
0.0
  0
LINE
  5
A8
  8
0
 10
165.1049806024497
 20
330.39502232878237
 30
0.0
 11
166.35355339059331
 21
329.1464495406388
 31
0.0
  0
LINE
  5
A9
  8
0
 10
197.0
 20
329.00000293123207
 30
0.0
 11
196.99999999999989
 21
351.00000293123207
 31
0.0
  0
LINE
  5
AA
  8
0
 10
197.0
 20
329.00000293123207
 30
0.0
 11
166.7071067811865
 21
329.00000293123207
 31
0.0
  0
LINE
  5
AB
  8
0
 10
196.99999999999989
 20
351.00000293123207
 30
0.0
 11
166.70710678118641
 21
351.00000293123207
 31
0.0
  0
LINE
  5
AC
  8
0
 10
219.69999999999999
 20
331.4578869709789
 30
0.0
 11
219.69999999999999
 21
348.54211889148519
 31
0.0
  0
LINE
  5
AD
  8
0
 10
220.0
 20
347.00000293123207
 30
0.0
 11
219.7000000000001
 21
347.00000293123207
 31
0.0
  0
LINE
  5
AE
  8
0
 10
220.0
 20
333.00000293123207
 30
0.0
 11
219.69999999999999
 21
333.00000293123207
 31
0.0
  0
LINE
  5
AF
  8
0
 10
196.99999999999989
 20
351.00000293123207
 30
0.0
 11
219.24388286969619
 21
349.04018946253632
 31
0.0
  0
LINE
  5
B0
  8
0
 10
197.0
 20
329.00000293123207
 30
0.0
 11
219.24388286969611
 21
330.95981639992777
 31
0.0
  0
ARC
  5
B1
  8
0
 10
219.2000000000001
 20
348.54211889148519
 30
0.0
 40
0.5
 50
359.99999999999977
 51
84.964915320543255
  0
ARC
  5
B2
  8
0
 10
219.19999999999999
 20
331.4578869709789
 30
0.0
 40
0.5
 50
275.03508467945659
 51
359.99999999999977
  0
LINE
  5
B3
  8
0
 10
219.69999999999999
 20
347.40823336353822
 30
0.0
 11
224.86499170295119
 21
347.08478903677411
 31
0.0
  0
LINE
  5
B4
  8
0
 10
219.69999999999999
 20
332.59176663646178
 30
0.0
 11
224.8649999318605
 21
332.91521147854019
 31
0.0
  0
LINE
  5
B5
  8
0
 10
203.5267335884507
 20
350.42496032432012
 30
0.0
 11
230.53936718061351
 21
348.73336359216057
 31
0.0
  0
ARC
  5
B6
  8
0
 10
230.0
 20
340.00000323978281
 30
0.0
 40
8.75
 50
211.53418055367359
 51
148.46582265401341
  0
LINE
  5
B7
  8
0
 10
203.5267335884507
 20
329.57504551963098
 30
0.0
 11
230.53936718061351
 21
331.26664225179047
 31
0.0
  0
ARC
  5
B8
  8
0
 10
230.0
 20
340.00000323978281
 30
0.0
 40
9.6906305995997322
 50
265.81294521740142
 51
94.187327350918792
  0
LINE
  5
B9
  8
0
 10
71.750000000000057
 20
226.0
 30
0.0
 11
48.25
 21
226.0
 31
0.0
  0
LINE
  5
BA
  8
0
 10
73.750000000000057
 20
224.00000000000051
 30
0.0
 11
46.25
 21
224.00000000000051
 31
0.0
  0
LINE
  5
BB
  8
0
 10
46.25
 20
224.00000000000051
 30
0.0
 11
45.168179779734707
 21
203.48547961367589
 31
0.0
  0
LINE
  5
BC
  8
0
 10
73.750000000000057
 20
224.00000000000051
 30
0.0
 11
74.862255357794197
 21
203.4866905207939
 31
0.0
  0
LINE
  5
BD
  8
0
 10
48.25
 20
226.0
 30
0.0
 11
46.25
 21
224.00000000000051
 31
0.0
  0
LINE
  5
BE
  8
0
 10
71.750000000000057
 20
226.0
 30
0.0
 11
73.750000000000057
 21
224.00000000000051
 31
0.0
  0
LINE
  5
BF
  8
1
 10
60.0
 20
256.5
 30
0.0
 11
60.0
 21
180.0
 31
0.0
  0
ARC
  5
C0
  8
0
 10
60.015877696783889
 20
267.20028153578579
 30
0.0
 40
66.254015361771422
 50
257.74672907828648
 51
282.2521557946344
  0
ARC
  5
C1
  8
0
 10
46.166792216421932
 20
203.4328184202445
 30
0.0
 40
1.0
 50
176.98133954889741
 51
257.7467290782883
  0
ARC
  5
C2
  8
0
 10
73.863722091401371
 20
203.4325488925692
 30
0.0
 40
1.0
 50
282.25215579463571
 51
3.1036043285901211
  0
LINE
  5
C3
  8
0
 10
73.5
 20
200.0
 30
0.0
 11
46.5
 21
200.0
 31
0.0
  0
LINE
  5
C4
  8
0
 10
46.5
 20
202.33954147183479
 30
0.0
 11
46.5
 21
200.0
 31
0.0
  0
LINE
  5
C5
  8
0
 10
73.5
 20
202.3329322969758
 30
0.0
 11
73.5
 21
200.0
 31
0.0
  0
LINE
  5
C6
  8
0
 10
49.0
 20
191.0
 30
0.0
 11
71.0
 21
191.0
 31
0.0
  0
LINE
  5
C7
  8
0
 10
50.0
 20
190.0
 30
0.0
 11
70.0
 21
190.0
 31
0.0
  0
LINE
  5
C8
  8
0
 10
50.0
 20
190.0
 30
0.0
 11
49.0
 21
191.0
 31
0.0
  0
LINE
  5
C9
  8
0
 10
49.0
 20
191.0
 30
0.0
 11
49.0
 21
200.0
 31
0.0
  0
LINE
  5
CA
  8
0
 10
70.0
 20
190.0
 30
0.0
 11
71.0
 21
191.0
 31
0.0
  0
LINE
  5
CB
  8
0
 10
71.0
 20
191.0
 30
0.0
 11
71.0
 21
200.0
 31
0.0
  0
LINE
  5
CC
  8
1
 10
669.99999999999989
 20
180.0
 30
0.0
 11
670.00000000000011
 21
309.37632489961499
 31
0.0
  0
LINE
  5
CD
  8
0
 10
678.47024547415856
 20
227.0
 30
0.0
 11
661.52975452584087
 21
227.0
 31
0.0
  0
LINE
  5
CE
  8
0
 10
656.5
 20
200.0
 30
0.0
 11
656.5
 21
202.4919387815566
 31
0.0
  0
ARC
  5
CF
  8
0
 10
670.0
 20
260.95346459127228
 30
0.0
 40
60.000000000000497
 50
256.3659241682397
 51
256.99712183708613
  0
ARC
  5
D0
  8
0
 10
656.09251226186723
 20
203.61602669234139
 30
0.0
 40
1.0000000000000371
 50
176.74546876113061
 51
256.3659241682397
  0
LINE
  5
D1
  8
0
 10
658.25
 20
226.0
 30
0.0
 11
656.25
 21
224.00000000000051
 31
0.0
  0
LINE
  5
D2
  8
0
 10
680.0
 20
190.0
 30
0.0
 11
681.0
 21
191.0
 31
0.0
  0
LINE
  5
D3
  8
0
 10
681.0
 20
191.0
 30
0.0
 11
681.0
 21
200.0
 31
0.0
  0
LINE
  5
D4
  8
0
 10
659.0
 20
191.0
 30
0.0
 11
659.0
 21
200.0
 31
0.0
  0
LINE
  5
D5
  8
0
 10
660.0
 20
190.0
 30
0.0
 11
659.0
 21
191.0
 31
0.0
  0
LINE
  5
D6
  8
0
 10
660.0
 20
190.0
 30
0.0
 11
680.0
 21
190.0
 31
0.0
  0
LINE
  5
D7
  8
0
 10
659.0
 20
191.0
 30
0.0
 11
681.0
 21
191.0
 31
0.0
  0
LINE
  5
D8
  8
0
 10
683.49999999999989
 20
200.0
 30
0.0
 11
656.5
 21
200.0
 31
0.0
  0
LINE
  5
D9
  8
0
 10
656.25
 20
224.00000000000051
 30
0.0
 11
655.09412507798334
 21
203.67279843757009
 31
0.0
  0
LINE
  5
DA
  8
0
 10
658.25
 20
226.0
 30
0.0
 11
661.18007318805655
 21
226.0
 31
0.0
  0
LINE
  5
DB
  8
0
 10
661.23048531076347
 20
226.7209269421233
 30
0.0
 11
660.33840649025706
 21
213.9636054553832
 31
0.0
  0
ARC
  5
DC
  8
0
 10
661.83475256564691
 20
213.85897074476699
 30
0.0
 40
1.5
 50
175.99999999999989
 51
263.06666666666672
  0
ARC
  5
DD
  8
0
 10
661.52975452584133
 20
226.69999999999999
 30
0.0
 40
0.3
 50
90.0
 51
175.9999999999998
  0
ARC
  5
DE
  8
0
 10
661.52975452584087
 20
226.69999999999999
 30
0.0
 40
0.3
 50
90.0
 51
175.999999999929
  0
ARC
  5
DF
  8
0
 10
670.0
 20
184.40764875083809
 30
0.0
 40
28.76915924509013
 50
76.398223746573422
 51
103.60177625342649
  0
LINE
  5
E0
  8
0
 10
660.65466002908306
 20
224.00000000000051
 30
0.0
 11
656.25
 21
224.00000000000051
 31
0.0
  0
LINE
  5
E1
  8
0
 10
656.27688174614173
 20
219.07781396590531
 30
0.0
 11
661.07312002133119
 21
224.4704984575624
 31
0.0
  0
LINE
  5
E2
  8
0
 10
656.49999999999955
 20
202.49193878155671
 30
0.0
 11
658.03182358193214
 21
202.49193878155671
 31
0.0
  0
LINE
  5
E3
  8
0
 10
658.03182358193214
 20
202.49193878155671
 30
0.0
 11
663.23429222752725
 21
212.3699398230458
 31
0.0
  0
LINE
  5
E4
  8
0
 10
655.35775883691281
 20
203.85251401186369
 30
0.0
 11
660.26860536250592
 21
213.17680799592819
 31
0.0
  0
LINE
  5
E5
  8
0
 10
661.65368099372586
 20
212.3699398230458
 30
0.0
 11
663.23429222752759
 21
212.3699398230458
 31
0.0
  0
LINE
  5
E6
  8
0
 10
678.34631900627414
 20
212.3699398230458
 30
0.0
 11
676.76570777247207
 21
212.3699398230458
 31
0.0
  0
LINE
  5
E7
  8
0
 10
684.64224116308685
 20
203.85251401186369
 30
0.0
 11
679.73139463749408
 21
213.17680799592819
 31
0.0
  0
LINE
  5
E8
  8
0
 10
681.96817641806763
 20
202.49193878155671
 30
0.0
 11
676.76570777247252
 21
212.3699398230458
 31
0.0
  0
LINE
  5
E9
  8
0
 10
683.50000000000045
 20
202.49193878155671
 30
0.0
 11
681.96817641806763
 21
202.49193878155671
 31
0.0
  0
LINE
  5
EA
  8
0
 10
683.72311825385805
 20
219.07781396590531
 30
0.0
 11
678.92687997866869
 21
224.4704984575624
 31
0.0
  0
LINE
  5
EB
  8
0
 10
679.34533997091683
 20
224.00000000000051
 30
0.0
 11
683.74999999999966
 21
224.00000000000051
 31
0.0
  0
ARC
  5
EC
  8
0
 10
678.4702454741589
 20
226.69999999999999
 30
0.0
 40
0.3
 50
4.000000000070945
 51
90.0
  0
ARC
  5
ED
  8
0
 10
678.47024547415845
 20
226.69999999999999
 30
0.0
 40
0.3
 50
4.0000000000002087
 51
90.0
  0
ARC
  5
EE
  8
0
 10
678.16524743435298
 20
213.85897074476699
 30
0.0
 40
1.5
 50
276.93333333333328
 51
4.000000000000056
  0
LINE
  5
EF
  8
0
 10
678.76951468923642
 20
226.7209269421233
 30
0.0
 11
679.66159350974272
 21
213.9636054553832
 31
0.0
  0
LINE
  5
F0
  8
0
 10
681.74999999999989
 20
226.0
 30
0.0
 11
678.81992681194333
 21
226.0
 31
0.0
  0
LINE
  5
F1
  8
0
 10
683.74999999999966
 20
224.00000000000051
 30
0.0
 11
684.90587492201666
 21
203.67279843757009
 31
0.0
  0
LINE
  5
F2
  8
0
 10
681.74999999999989
 20
226.0
 30
0.0
 11
683.74999999999977
 21
224.00000000000051
 31
0.0
  0
ARC
  5
F3
  8
0
 10
683.90748773813255
 20
203.61602669234139
 30
0.0
 40
1.0000000000000371
 50
283.63407583176041
 51
3.2545312388693799
  0
ARC
  5
F4
  8
0
 10
669.99999999999989
 20
260.95346459127228
 30
0.0
 40
60.000000000000497
 50
283.00287816291387
 51
283.6340758317603
  0
LINE
  5
F5
  8
0
 10
683.49999999999989
 20
200.0
 30
0.0
 11
683.49999999999989
 21
202.4919387815566
 31
0.0
  0
ARC
  5
F6
  8
0
 10
670.0
 20
184.40764875083809
 30
0.0
 40
30.370455466785511
 50
73.697444796111981
 51
106.30255520388801
  0
ARC
  5
F7
  8
0
 10
230.08805943289011
 20
233.87340408781051
 30
0.0
 40
9.2347021998264989
 50
235.556664818901
 51
272.84784743124811
  0
ARC
  5
F8
  8
0
 10
60.0
 20
235.5
 30
0.0
 40
11.0
 50
300.27264131890951
 51
239.72735868109041
  0
LINE
  5
F9
  8
1
 10
81.0
 20
235.5
 30
0.0
 11
39.0
 21
235.5
 31
0.0
  0
LINE
  5
FA
  8
0
 10
51.99999676021632
 20
226.0
 30
0.0
 11
51.999996760216298
 21
227.9501689976893
 31
0.0
  0
LINE
  5
FB
  8
0
 10
67.999996760218124
 20
226.0
 30
0.0
 11
67.999996760218124
 21
227.95016213177411
 31
0.0
  0
CIRCLE
  5
FC
  8
0
 10
60.0
 20
235.5
 30
0.0
 40
9.4999999999999147
  0
ARC
  5
FD
  8
0
 10
310.0
 20
184.40764875083809
 30
0.0
 40
30.370455466785511
 50
73.697444796111981
 51
106.30255520388801
  0
LINE
  5
FE
  8
0
 10
323.49999999999989
 20
200.0
 30
0.0
 11
323.49999999999989
 21
202.4919387815566
 31
0.0
  0
ARC
  5
FF
  8
0
 10
309.99999999999989
 20
260.95346459127228
 30
0.0
 40
60.000000000000497
 50
283.00287816291387
 51
283.6340758317603
  0
ARC
  5
100
  8
0
 10
323.90748773813272
 20
203.61602669234139
 30
0.0
 40
1.0000000000000371
 50
283.63407583176041
 51
3.2545312388693799
  0
LINE
  5
101
  8
0
 10
321.74999999999989
 20
226.0
 30
0.0
 11
323.74999999999989
 21
224.00000000000051
 31
0.0
  0
LINE
  5
102
  8
0
 10
323.74999999999977
 20
224.00000000000051
 30
0.0
 11
324.90587492201672
 21
203.67279843757009
 31
0.0
  0
LINE
  5
103
  8
0
 10
321.74999999999989
 20
226.0
 30
0.0
 11
318.81992681194328
 21
226.0
 31
0.0
  0
LINE
  5
104
  8
0
 10
318.76951468923642
 20
226.7209269421233
 30
0.0
 11
319.66159350974272
 21
213.9636054553832
 31
0.0
  0
ARC
  5
105
  8
0
 10
318.16524743435298
 20
213.85897074476699
 30
0.0
 40
1.5
 50
276.93333333333328
 51
4.000000000000056
  0
ARC
  5
106
  8
0
 10
318.47024547415839
 20
226.69999999999999
 30
0.0
 40
0.3
 50
4.0000000000002087
 51
90.0
  0
ARC
  5
107
  8
0
 10
318.4702454741589
 20
226.69999999999999
 30
0.0
 40
0.3
 50
4.000000000070945
 51
90.0
  0
LINE
  5
108
  8
0
 10
319.34533997091683
 20
224.00000000000051
 30
0.0
 11
323.74999999999977
 21
224.00000000000051
 31
0.0
  0
LINE
  5
109
  8
0
 10
323.7231182538581
 20
219.07781396590531
 30
0.0
 11
318.92687997866869
 21
224.4704984575624
 31
0.0
  0
LINE
  5
10A
  8
0
 10
323.50000000000051
 20
202.49193878155671
 30
0.0
 11
321.96817641806763
 21
202.49193878155671
 31
0.0
  0
LINE
  5
10B
  8
0
 10
321.96817641806763
 20
202.49193878155671
 30
0.0
 11
316.76570777247252
 21
212.3699398230458
 31
0.0
  0
LINE
  5
10C
  8
0
 10
324.64224116308702
 20
203.85251401186369
 30
0.0
 11
319.73139463749408
 21
213.17680799592819
 31
0.0
  0
LINE
  5
10D
  8
0
 10
318.3463190062742
 20
212.3699398230458
 30
0.0
 11
316.76570777247218
 21
212.3699398230458
 31
0.0
  0
LINE
  5
10E
  8
0
 10
301.6536809937258
 20
212.3699398230458
 30
0.0
 11
303.2342922275277
 21
212.3699398230458
 31
0.0
  0
LINE
  5
10F
  8
0
 10
295.35775883691281
 20
203.85251401186369
 30
0.0
 11
300.26860536250592
 21
213.17680799592819
 31
0.0
  0
LINE
  5
110
  8
0
 10
298.03182358193231
 20
202.49193878155671
 30
0.0
 11
303.23429222752719
 21
212.3699398230458
 31
0.0
  0
LINE
  5
111
  8
0
 10
296.49999999999949
 20
202.49193878155671
 30
0.0
 11
298.03182358193231
 21
202.49193878155671
 31
0.0
  0
LINE
  5
112
  8
0
 10
296.27688174614173
 20
219.07781396590531
 30
0.0
 11
301.07312002133131
 21
224.4704984575624
 31
0.0
  0
LINE
  5
113
  8
0
 10
300.654660029083
 20
224.00000000000051
 30
0.0
 11
296.25
 21
224.00000000000051
 31
0.0
  0
ARC
  5
114
  8
0
 10
310.0
 20
184.40764875083809
 30
0.0
 40
28.76915924509013
 50
76.398223746573422
 51
103.60177625342649
  0
ARC
  5
115
  8
0
 10
301.52975452584087
 20
226.69999999999999
 30
0.0
 40
0.3
 50
90.0
 51
175.999999999929
  0
ARC
  5
116
  8
0
 10
301.52975452584133
 20
226.69999999999999
 30
0.0
 40
0.3
 50
90.0
 51
175.9999999999998
  0
ARC
  5
117
  8
0
 10
301.83475256564691
 20
213.85897074476699
 30
0.0
 40
1.5
 50
175.99999999999989
 51
263.06666666666672
  0
LINE
  5
118
  8
0
 10
301.23048531076353
 20
226.7209269421233
 30
0.0
 11
300.33840649025723
 21
213.9636054553832
 31
0.0
  0
LINE
  5
119
  8
0
 10
298.25
 20
226.0
 30
0.0
 11
301.18007318805672
 21
226.0
 31
0.0
  0
LINE
  5
11A
  8
0
 10
296.25
 20
224.00000000000051
 30
0.0
 11
295.09412507798339
 21
203.67279843757009
 31
0.0
  0
LINE
  5
11B
  8
0
 10
323.5
 20
200.0
 30
0.0
 11
296.5
 21
200.0
 31
0.0
  0
LINE
  5
11C
  8
0
 10
299.0
 20
191.0
 30
0.0
 11
321.0
 21
191.0
 31
0.0
  0
LINE
  5
11D
  8
0
 10
300.0
 20
190.0
 30
0.0
 11
320.0
 21
190.0
 31
0.0
  0
LINE
  5
11E
  8
0
 10
300.0
 20
190.0
 30
0.0
 11
299.0
 21
191.0
 31
0.0
  0
LINE
  5
11F
  8
0
 10
299.0
 20
191.0
 30
0.0
 11
299.0
 21
200.0
 31
0.0
  0
LINE
  5
120
  8
0
 10
321.0
 20
191.0
 30
0.0
 11
321.0
 21
200.0
 31
0.0
  0
LINE
  5
121
  8
0
 10
320.0
 20
190.0
 30
0.0
 11
321.0
 21
191.0
 31
0.0
  0
LINE
  5
122
  8
0
 10
298.25
 20
226.0
 30
0.0
 11
296.25
 21
224.00000000000051
 31
0.0
  0
ARC
  5
123
  8
0
 10
296.09251226186723
 20
203.61602669234139
 30
0.0
 40
1.0000000000000371
 50
176.74546876113061
 51
256.3659241682397
  0
ARC
  5
124
  8
0
 10
310.0
 20
260.95346459127228
 30
0.0
 40
60.000000000000497
 50
256.3659241682397
 51
256.99712183708613
  0
LINE
  5
125
  8
0
 10
296.5
 20
200.0
 30
0.0
 11
296.5
 21
202.4919387815566
 31
0.0
  0
LINE
  5
126
  8
0
 10
318.47024547415867
 20
227.0
 30
0.0
 11
301.52975452584087
 21
227.0
 31
0.0
  0
LINE
  5
127
  8
1
 10
310.0
 20
180.0
 30
0.0
 11
310.0
 21
256.50000293123259
 31
0.0
  0
ARC
  5
128
  8
0
 10
590.08805943288996
 20
233.87340408781051
 30
0.0
 40
9.2347021998264989
 50
235.556664818901
 51
272.84784743124811
  0
LINE
  5
129
  8
0
  6
CONTINUOUS
 10
585.0
 20
243.3763248996149
 30
0.0
 11
585.22938748326919
 21
242.0
 31
0.0
  0
LINE
  5
12A
  8
0
  6
CONTINUOUS
 10
595.0
 20
243.3763248996149
 30
0.0
 11
594.77061251673069
 21
242.0
 31
0.0
  0
ARC
  5
12B
  8
0
  6
CONTINUOUS
 10
581.45788403974677
 20
244.17632489961491
 30
0.0
 40
0.5
 50
185.0350846794565
 51
269.99999999999977
  0
ARC
  5
12C
  8
0
  6
CONTINUOUS
 10
598.542115960253
 20
244.1763248996148
 30
0.0
 40
0.5
 50
269.99999999999977
 51
354.96491532054318
  0
LINE
  5
12D
  8
0
  6
CONTINUOUS
 10
579.0
 20
266.37632489961481
 30
0.0
 11
580.95981346869576
 21
244.13244202991879
 31
0.0
  0
LINE
  5
12E
  8
0
  6
CONTINUOUS
 10
601.0
 20
266.37632489961499
 30
0.0
 11
599.04018653130424
 21
244.13244202991871
 31
0.0
  0
LINE
  5
12F
  8
0
  6
CONTINUOUS
 10
583.0
 20
243.3763248996149
 30
0.0
 11
583.0
 21
243.67632489961491
 31
0.0
  0
LINE
  5
130
  8
0
  6
CONTINUOUS
 10
597.0
 20
243.3763248996149
 30
0.0
 11
597.0
 21
243.6763248996148
 31
0.0
  0
LINE
  5
131
  8
0
  6
CONTINUOUS
 10
581.45788403974677
 20
243.67632489961491
 30
0.0
 11
598.542115960253
 21
243.67632489961491
 31
0.0
  0
LINE
  5
132
  8
2
 10
507.0
 20
190.5
 30
0.0
 11
513.0
 21
190.5
 31
0.0
  0
LINE
  5
133
  8
2
 10
507.0
 20
190.5
 30
0.0
 11
506.5
 21
190.0
 31
0.0
  0
LINE
  5
134
  8
2
 10
513.0
 20
190.5
 30
0.0
 11
513.49999999999989
 21
190.0
 31
0.0
  0
LINE
  5
135
  8
2
 10
513.0
 20
216.0
 30
0.0
 11
510.0
 21
217.7320508075689
 31
0.0
  0
LINE
  5
136
  8
2
 10
507.0
 20
216.0
 30
0.0
 11
510.0
 21
217.7320508075689
 31
0.0
  0
LINE
  5
137
  8
2
 10
513.0
 20
216.0
 30
0.0
 11
513.0
 21
190.5
 31
0.0
  0
LINE
  5
138
  8
2
 10
507.0
 20
216.0
 30
0.0
 11
507.0
 21
190.5
 31
0.0
  0
LINE
  5
139
  8
2
 10
507.0
 20
216.0
 30
0.0
 11
513.0
 21
216.0
 31
0.0
  0
LINE
  5
13A
  8
0
  6
CONTINUOUS
 10
601.0
 20
266.37632489961499
 30
0.0
 11
601.0
 21
296.66921811842849
 31
0.0
  0
LINE
  5
13B
  8
0
  6
CONTINUOUS
 10
579.0
 20
266.37632489961481
 30
0.0
 11
579.0
 21
296.66921811842838
 31
0.0
  0
LINE
  5
13C
  8
0
  6
CONTINUOUS
 10
579.0
 20
266.37632489961481
 30
0.0
 11
601.0
 21
266.37632489961499
 31
0.0
  0
LINE
  5
13D
  8
0
  6
CONTINUOUS
 10
580.39501939755041
 20
298.27134429716517
 30
0.0
 11
579.14644660940655
 21
297.0227715090216
 31
0.0
  0
LINE
  5
13E
  8
0
  6
CONTINUOUS
 10
599.60498060244925
 20
298.2713442971658
 30
0.0
 11
600.85355339059333
 21
297.02277150902182
 31
0.0
  0
ARC
  5
13F
  8
0
  6
CONTINUOUS
 10
590.00000000000057
 20
253.7513248996168
 30
0.0
 40
45.624999999998138
 50
78.169460268867766
 51
101.83053973113439
  0
LINE
  5
140
  8
0
  6
CONTINUOUS
 10
581.91421356237277
 20
298.3763248996147
 30
0.0
 11
598.08578643762701
 21
298.37632489961487
 31
0.0
  0
LINE
  5
141
  8
0
  6
CONTINUOUS
 10
599.58578643762689
 20
296.87632489961499
 30
0.0
 11
580.41421356237311
 21
296.87632489961481
 31
0.0
  0
ARC
  5
142
  8
0
  6
CONTINUOUS
 10
600.49999999999989
 20
296.66921811842849
 30
0.0
 40
0.5
 50
360.0
 51
44.999999999999929
  0
ARC
  5
143
  8
0
  6
CONTINUOUS
 10
599.25142721185603
 20
297.91779090657252
 30
0.0
 40
0.5
 50
44.999999999999993
 51
78.169460268868079
  0
ARC
  5
144
  8
0
  6
CONTINUOUS
 10
580.74857278814363
 20
297.91779090657201
 30
0.0
 40
0.5
 50
101.8305397311362
 51
135.00000000000219
  0
ARC
  5
145
  8
0
  6
CONTINUOUS
 10
579.49999999999989
 20
296.66921811842838
 30
0.0
 40
0.5
 50
134.99999999999989
 51
180.0
  0
LINE
  5
146
  8
0
  6
CONTINUOUS
 10
583.0
 20
243.3763248996149
 30
0.0
 11
597.0
 21
243.3763248996149
 31
0.0
  0
CIRCLE
  5
147
  8
0
 10
590.0
 20
235.5
 30
0.0
 40
1.5
  0
LINE
  5
148
  8
0
 10
597.99999999999977
 20
241.5
 30
0.0
 11
583.13397459621535
 21
241.5
 31
0.0
  0
ARC
  5
149
  8
0
 10
584.0
 20
241.0
 30
0.0
 40
1.0
 50
89.999999999999758
 51
179.99999999999989
  0
LINE
  5
14A
  8
0
 10
597.5
 20
242.0
 30
0.0
 11
598.0
 21
241.5
 31
0.0
  0
LINE
  5
14B
  8
0
 10
583.0
 20
227.0
 30
0.0
 11
583.0
 21
241.0
 31
0.0
  0
LINE
  5
14C
  8
0
 10
598.0
 20
227.0
 30
0.0
 11
598.0
 21
241.5
 31
0.0
  0
LINE
  5
14D
  8
0
 10
597.5
 20
242.0
 30
0.0
 11
584.0
 21
242.0
 31
0.0
  0
LINE
  5
14E
  8
0
 10
598.47024547415867
 20
227.0
 30
0.0
 11
581.52975452584087
 21
227.0
 31
0.0
  0
CIRCLE
  5
14F
  8
0
 10
510.0
 20
340.0
 30
0.0
 40
9.209226860126364
  0
LINE
  5
150
  8
2
 10
501.25
 20
222.80000000000001
 30
0.0
 11
500.79077313987358
 21
226.0
 31
0.0
  0
LINE
  5
151
  8
2
 10
518.75
 20
222.80000000000001
 30
0.0
 11
519.20922686012625
 21
226.0
 31
0.0
  0
LINE
  5
152
  8
2
 10
518.75
 20
222.80000000000001
 30
0.0
 11
518.75
 21
222.0
 31
0.0
  0
LINE
  5
153
  8
2
 10
501.25
 20
222.80000000000001
 30
0.0
 11
501.25
 21
222.0
 31
0.0
  0
LINE
  5
154
  8
2
 10
501.25
 20
222.80000000000001
 30
0.0
 11
518.75
 21
222.80000000000001
 31
0.0
  0
LINE
  5
155
  8
2
 10
500.0
 20
222.0
 30
0.0
 11
520.0
 21
222.0
 31
0.0
  0
LINE
  5
156
  8
2
 10
520.0
 20
222.0
 30
0.0
 11
520.0
 21
200.0
 31
0.0
  0
LINE
  5
157
  8
2
 10
500.0
 20
222.0
 30
0.0
 11
500.0
 21
200.0
 31
0.0
  0
CIRCLE
  5
158
  8
0
 10
510.0
 20
340.00000077137679
 30
0.0
 40
8.75
  0
ARC
  5
159
  8
0
 10
598.09487413436113
 20
214.86535582133629
 30
0.0
 40
1.5
 50
276.93333333333328
 51
4.0000000000003491
  0
LINE
  5
15A
  8
1
 10
590.0
 20
319.00000323978168
 30
0.0
 11
590.0
 21
361.00000323978247
 31
0.0
  0
LINE
  5
15B
  8
1
 10
590.00000000000011
 20
202.29627393660419
 30
0.0
 11
590.0
 21
309.37632489961487
 31
0.0
  0
ARC
  5
15C
  8
0
 10
510.96721798448641
 20
229.85071596497301
 30
0.0
 40
10.773441770892831
 50
269.42645524175521
 51
309.78919605875137
  0
LINE
  5
15D
  8
0
 10
510.85937499999989
 20
219.07781396590531
 30
0.0
 11
590.54687499994338
 21
224.65010679264921
 31
0.0
  0
LINE
  5
15E
  8
1
 10
611.00000000000125
 20
340.00000388773941
 30
0.0
 11
485.0
 21
340.0
 31
0.0
  0
LINE
  5
15F
  8
1
 10
510.0
 20
365.0
 30
0.0
 11
510.0
 21
315.0
 31
0.0
  0
ARC
  5
160
  8
0
 10
598.47024547415867
 20
226.69999999999999
 30
0.0
 40
0.3
 50
4.0000000000002087
 51
90.0
  0
ARC
  5
161
  8
0
 10
581.52975452584087
 20
226.69999999999999
 30
0.0
 40
0.3
 50
90.0
 51
175.999999999929
  0
LINE
  5
162
  8
0
 10
581.23048531076302
 20
226.72092694212361
 30
0.0
 11
581.1800731880553
 21
226.0
 31
0.0
  0
LINE
  5
163
  8
0
 10
517.86184167827867
 20
221.57235793262021
 30
0.0
 11
584.86499581740054
 21
226.25767489172861
 31
0.0
  0
LINE
  5
164
  8
1
 10
510.0
 20
236.0
 30
0.0
 11
510.0
 21
180.0
 31
0.0
  0
ARC
  5
165
  8
0
 10
525.2819910260298
 20
223.59488816777491
 30
0.0
 40
1.5
 50
184.00000000000111
 51
274.00000000000091
  0
LINE
  5
166
  8
0
 10
523.74999999999989
 20
224.0000000000006
 30
0.0
 11
523.78564495064006
 21
223.4902534571587
 31
0.0
  0
LINE
  5
167
  8
0
 10
517.86184167827867
 20
328.71931095075871
 30
0.0
 11
581.7533817467953
 21
332.72035438933301
 31
0.0
  0
LINE
  5
168
  8
0
 10
517.86184167827867
 20
351.28068904924129
 30
0.0
 11
581.75337632662422
 21
347.27964595009098
 31
0.0
  0
CIRCLE
  5
169
  8
0
 10
510.0
 20
340.0
 30
0.0
 40
11.75
  0
ARC
  5
16A
  8
0
 10
510.0
 20
340.0
 30
0.0
 40
15.0
 50
86.125912457867045
 51
273.874087542133
  0
LINE
  5
16B
  8
0
 10
511.01346109980722
 20
325.03427594136599
 30
0.0
 11
585.28112565843605
 21
330.06359418275667
 31
0.0
  0
LINE
  5
16C
  8
0
 10
510.85937499999989
 20
326.27688174614178
 30
0.0
 11
583.89376618063864
 21
330.85047273033479
 31
0.0
  0
LINE
  5
16D
  8
0
 10
510.85937499999989
 20
353.72311825385822
 30
0.0
 11
583.89375730458858
 21
349.14952782550478
 31
0.0
  0
CIRCLE
  5
16E
  8
0
 10
510.0
 20
340.0
 30
0.0
 40
13.75
  0
LINE
  5
16F
  8
0
 10
511.01346109980722
 20
354.96572405863401
 30
0.0
 11
585.28111371733144
 21
349.93640662588081
 31
0.0
  0
LINE
  5
170
  8
0
 10
523.74999999999989
 20
224.00000000000051
 30
0.0
 11
496.25
 21
224.00000000000051
 31
0.0
  0
LINE
  5
171
  8
0
 10
498.24999999999989
 20
226.0
 30
0.0
 11
521.75
 21
226.0
 31
0.0
  0
LINE
  5
172
  8
0
 10
521.75
 20
226.0
 30
0.0
 11
523.74999999999989
 21
224.00000000000051
 31
0.0
  0
LINE
  5
173
  8
0
 10
523.49999999999977
 20
200.0
 30
0.0
 11
523.80208612831711
 21
204.32003290184571
 31
0.0
  0
LINE
  5
174
  8
0
 10
496.49999999999989
 20
200.0
 30
0.0
 11
496.49999999999989
 21
200.99999999999989
 31
0.0
  0
ARC
  5
175
  8
0
 10
495.99756401707828
 20
201.94626807654981
 30
0.0
 40
0.9999999999996891
 50
176.7454687611301
 51
276.8779582326323
  0
LINE
  5
176
  8
0
 10
496.25
 20
224.00000000000051
 30
0.0
 11
494.99917683319478
 21
202.00303982177849
 31
0.0
  0
LINE
  5
177
  8
0
 10
496.11731893187971
 20
200.95346459127319
 30
0.0
 11
598.27594946539193
 21
213.3763253567364
 31
0.0
  0
LINE
  5
178
  8
0
 10
523.5
 20
200.0
 30
0.0
 11
496.49999999999989
 21
200.0
 31
0.0
  0
LINE
  5
179
  8
0
 10
499.0
 20
191.0
 30
0.0
 11
521.0
 21
191.0
 31
0.0
  0
LINE
  5
17A
  8
0
 10
500.0
 20
190.0
 30
0.0
 11
520.0
 21
190.0
 31
0.0
  0
LINE
  5
17B
  8
0
 10
500.0
 20
190.0
 30
0.0
 11
499.0
 21
191.0
 31
0.0
  0
LINE
  5
17C
  8
0
 10
499.0
 20
191.0
 30
0.0
 11
499.0
 21
200.0
 31
0.0
  0
LINE
  5
17D
  8
0
 10
521.0
 20
191.0
 30
0.0
 11
521.0
 21
200.0
 31
0.0
  0
LINE
  5
17E
  8
0
 10
520.0
 20
190.0
 30
0.0
 11
521.0
 21
191.0
 31
0.0
  0
LINE
  5
17F
  8
0
 10
498.24999999999989
 20
226.0
 30
0.0
 11
496.25
 21
224.00000000000051
 31
0.0
  0
LINE
  5
180
  8
0
 10
598.76951468923664
 20
226.7209269421233
 30
0.0
 11
599.59122020975087
 21
214.96999053195239
 31
0.0
  0
LINE
  5
181
  8
0
 10
302.49999676021719
 20
242.0
 30
0.0
 11
317.49999676021719
 21
242.0
 31
0.0
  0
LINE
  5
182
  8
0
 10
301.99999676021719
 20
241.5
 30
0.0
 11
301.99999676021719
 21
227.0
 31
0.0
  0
LINE
  5
183
  8
0
 10
317.99999676021719
 20
241.5
 30
0.0
 11
317.99999676021719
 21
227.0
 31
0.0
  0
LINE
  5
184
  8
0
 10
302.49999676021719
 20
242.0
 30
0.0
 11
301.99999676021719
 21
241.5
 31
0.0
  0
LINE
  5
185
  8
0
 10
317.49999676021719
 20
242.0
 30
0.0
 11
317.99999676021719
 21
241.5
 31
0.0
  0
LINE
  5
186
  8
0
 10
301.9999967602173
 20
241.5
 30
0.0
 11
317.9999967602173
 21
241.5
 31
0.0
  0
ARC
  5
187
  8
0
 10
310.0
 20
235.5
 30
0.0
 40
7.0000029312321308
 50
68.21315067627296
 51
111.7868493237274
  0
ARC
  5
188
  8
0
 10
310.0
 20
235.5
 30
0.0
 40
9.0000029312319612
 50
332.73387432122979
 51
27.266125678770159
  0
ARC
  5
189
  8
0
 10
310.0
 20
235.5
 30
0.0
 40
11.00000293123202
 50
316.65820100775778
 51
223.3417498187732
  0
LINE
  5
18A
  8
1
 10
331.00000293123219
 20
235.5
 30
0.0
 11
288.9999970687677
 21
235.5
 31
0.0
  0
ARC
  5
18B
  8
0
 10
310.0
 20
235.5
 30
0.0
 40
9.0000029312319612
 50
152.73387432122979
 51
207.26612567877021
  0
LINE
  5
18C
  8
0
 10
431.0
 20
191.0
 30
0.0
 11
431.0
 21
200.0
 31
0.0
  0
LINE
  5
18D
  8
0
 10
430.0
 20
190.0
 30
0.0
 11
431.0
 21
191.0
 31
0.0
  0
LINE
  5
18E
  8
0
 10
409.0
 20
191.0
 30
0.0
 11
409.0
 21
200.0
 31
0.0
  0
LINE
  5
18F
  8
0
 10
410.0
 20
190.0
 30
0.0
 11
409.0
 21
191.0
 31
0.0
  0
LINE
  5
190
  8
0
 10
410.0
 20
190.0
 30
0.0
 11
430.0
 21
190.0
 31
0.0
  0
LINE
  5
191
  8
0
 10
409.0
 20
191.0
 30
0.0
 11
431.0
 21
191.0
 31
0.0
  0
LINE
  5
192
  8
0
 10
433.49999999999989
 20
202.3329322969758
 30
0.0
 11
433.49999999999989
 21
200.0
 31
0.0
  0
LINE
  5
193
  8
0
 10
406.5
 20
202.33954147183479
 30
0.0
 11
406.5
 21
200.0
 31
0.0
  0
LINE
  5
194
  8
0
 10
433.49999999999989
 20
200.0
 30
0.0
 11
406.5
 21
200.0
 31
0.0
  0
ARC
  5
195
  8
0
 10
433.86372209140131
 20
203.4325488925692
 30
0.0
 40
1.0
 50
282.25215579463571
 51
3.1036043285901211
  0
ARC
  5
196
  8
0
 10
406.16679221642192
 20
203.4328184202445
 30
0.0
 40
1.0
 50
176.98133954889741
 51
257.7467290782883
  0
ARC
  5
197
  8
0
 10
420.01587769678378
 20
267.20028153578579
 30
0.0
 40
66.254015361771422
 50
257.74672907828648
 51
282.2521557946344
  0
LINE
  5
198
  8
1
 10
420.0
 20
309.37632489961487
 30
0.0
 11
420.0
 21
180.0
 31
0.0
  0
LINE
  5
199
  8
0
 10
431.74999999999989
 20
226.0
 30
0.0
 11
433.75
 21
224.00000000000051
 31
0.0
  0
LINE
  5
19A
  8
0
 10
408.25
 20
226.0
 30
0.0
 11
406.25
 21
224.00000000000051
 31
0.0
  0
LINE
  5
19B
  8
0
 10
433.75
 20
224.00000000000051
 30
0.0
 11
434.8622553577942
 21
203.4866905207939
 31
0.0
  0
LINE
  5
19C
  8
0
 10
406.25
 20
224.00000000000051
 30
0.0
 11
405.16817977973471
 21
203.48547961367589
 31
0.0
  0
LINE
  5
19D
  8
0
 10
433.75
 20
224.00000000000051
 30
0.0
 11
406.25
 21
224.00000000000051
 31
0.0
  0
LINE
  5
19E
  8
0
 10
431.74999999999989
 20
226.0
 30
0.0
 11
408.25
 21
226.0
 31
0.0
  0
CIRCLE
  5
19F
  8
0
 10
590.0
 20
340.00000323978281
 30
0.0
 40
11.0
  0
LINE
  5
1A0
  8
0
 10
662.0
 20
227.0
 30
0.0
 11
662.0
 21
241.5
 31
0.0
  0
LINE
  5
1A1
  8
0
 10
678.0
 20
227.0
 30
0.0
 11
677.99999999999989
 21
241.5
 31
0.0
  0
LINE
  5
1A2
  8
0
 10
662.5
 20
242.0
 30
0.0
 11
677.49999999999977
 21
242.0
 31
0.0
  0
LINE
  5
1A3
  8
0
 10
662.5
 20
242.0
 30
0.0
 11
662.0
 21
241.5
 31
0.0
  0
LINE
  5
1A4
  8
0
 10
677.49999999999977
 20
242.0
 30
0.0
 11
677.99999999999989
 21
241.5
 31
0.0
  0
LINE
  5
1A5
  8
0
 10
662.0
 20
241.5
 30
0.0
 11
677.99999999999966
 21
241.50000000000011
 31
0.0
  0
LINE
  5
1A6
  8
0
  6
CONTINUOUS
 10
663.0
 20
243.3763248996149
 30
0.0
 11
677.0
 21
243.3763248996149
 31
0.0
  0
ARC
  5
1A7
  8
0
  6
CONTINUOUS
 10
659.49999999999989
 20
296.66921811842838
 30
0.0
 40
0.5
 50
134.99999999999989
 51
180.0
  0
ARC
  5
1A8
  8
0
  6
CONTINUOUS
 10
660.74857278814352
 20
297.91779090657201
 30
0.0
 40
0.5
 50
101.8305397311362
 51
135.00000000000219
  0
ARC
  5
1A9
  8
0
  6
CONTINUOUS
 10
679.25142721185603
 20
297.91779090657252
 30
0.0
 40
0.5
 50
44.999999999999993
 51
78.169460268868079
  0
ARC
  5
1AA
  8
0
  6
CONTINUOUS
 10
680.49999999999989
 20
296.66921811842849
 30
0.0
 40
0.5
 50
360.0
 51
44.999999999999929
  0
LINE
  5
1AB
  8
0
  6
CONTINUOUS
 10
679.58578643762689
 20
296.87632489961499
 30
0.0
 11
660.41421356237311
 21
296.87632489961481
 31
0.0
  0
LINE
  5
1AC
  8
0
  6
CONTINUOUS
 10
661.91421356237288
 20
298.3763248996147
 30
0.0
 11
678.08578643762689
 21
298.37632489961487
 31
0.0
  0
ARC
  5
1AD
  8
0
  6
CONTINUOUS
 10
670.00000000000045
 20
253.7513248996168
 30
0.0
 40
45.624999999998138
 50
78.169460268867766
 51
101.83053973113439
  0
LINE
  5
1AE
  8
0
  6
CONTINUOUS
 10
679.60498060244925
 20
298.2713442971658
 30
0.0
 11
680.85355339059311
 21
297.02277150902182
 31
0.0
  0
LINE
  5
1AF
  8
0
  6
CONTINUOUS
 10
660.3950193975503
 20
298.27134429716517
 30
0.0
 11
659.14644660940655
 21
297.0227715090216
 31
0.0
  0
LINE
  5
1B0
  8
0
  6
CONTINUOUS
 10
659.0
 20
266.37632489961481
 30
0.0
 11
681.0
 21
266.37632489961499
 31
0.0
  0
LINE
  5
1B1
  8
0
  6
CONTINUOUS
 10
659.0
 20
266.37632489961481
 30
0.0
 11
659.0
 21
296.66921811842838
 31
0.0
  0
LINE
  5
1B2
  8
0
  6
CONTINUOUS
 10
681.0
 20
266.37632489961499
 30
0.0
 11
681.0
 21
296.66921811842849
 31
0.0
  0
LINE
  5
1B3
  8
0
  6
CONTINUOUS
 10
661.45788403974677
 20
243.67632489961491
 30
0.0
 11
678.54211596025311
 21
243.67632489961491
 31
0.0
  0
LINE
  5
1B4
  8
0
  6
CONTINUOUS
 10
677.0
 20
243.3763248996149
 30
0.0
 11
677.0
 21
243.6763248996148
 31
0.0
  0
LINE
  5
1B5
  8
0
  6
CONTINUOUS
 10
663.0
 20
243.3763248996149
 30
0.0
 11
663.0
 21
243.67632489961491
 31
0.0
  0
LINE
  5
1B6
  8
0
  6
CONTINUOUS
 10
681.0
 20
266.37632489961499
 30
0.0
 11
679.04018653130424
 21
244.13244202991871
 31
0.0
  0
LINE
  5
1B7
  8
0
  6
CONTINUOUS
 10
659.0
 20
266.37632489961481
 30
0.0
 11
660.95981346869564
 21
244.13244202991879
 31
0.0
  0
ARC
  5
1B8
  8
0
  6
CONTINUOUS
 10
678.54211596025311
 20
244.1763248996148
 30
0.0
 40
0.5
 50
269.99999999999977
 51
354.96491532054318
  0
ARC
  5
1B9
  8
0
  6
CONTINUOUS
 10
661.45788403974677
 20
244.17632489961491
 30
0.0
 40
0.5
 50
185.0350846794565
 51
269.99999999999977
  0
LINE
  5
1BA
  8
0
  6
CONTINUOUS
 10
675.0
 20
243.3763248996149
 30
0.0
 11
674.77061251673081
 21
242.0
 31
0.0
  0
LINE
  5
1BB
  8
0
  6
CONTINUOUS
 10
665.0
 20
243.3763248996149
 30
0.0
 11
665.22938748326897
 21
242.0
 31
0.0
  0
LINE
  5
1BC
  8
0
  6
CONTINUOUS
 10
415.0
 20
243.3763248996149
 30
0.0
 11
415.22938748326902
 21
242.0
 31
0.0
  0
LINE
  5
1BD
  8
0
  6
CONTINUOUS
 10
425.0
 20
243.3763248996149
 30
0.0
 11
424.77061251673081
 21
242.0
 31
0.0
  0
ARC
  5
1BE
  8
0
  6
CONTINUOUS
 10
411.45788403974677
 20
244.17632489961491
 30
0.0
 40
0.5
 50
185.0350846794565
 51
269.99999999999977
  0
ARC
  5
1BF
  8
0
  6
CONTINUOUS
 10
428.54211596025311
 20
244.1763248996148
 30
0.0
 40
0.5
 50
269.99999999999977
 51
354.96491532054318
  0
LINE
  5
1C0
  8
0
  6
CONTINUOUS
 10
413.0
 20
243.3763248996149
 30
0.0
 11
413.0
 21
243.67632489961491
 31
0.0
  0
LINE
  5
1C1
  8
0
  6
CONTINUOUS
 10
427.0
 20
243.3763248996149
 30
0.0
 11
427.0
 21
243.6763248996148
 31
0.0
  0
LINE
  5
1C2
  8
0
  6
CONTINUOUS
 10
411.45788403974677
 20
243.67632489961491
 30
0.0
 11
428.54211596025311
 21
243.67632489961491
 31
0.0
  0
LINE
  5
1C3
  8
0
  6
CONTINUOUS
 10
413.0
 20
243.3763248996149
 30
0.0
 11
427.0
 21
243.3763248996149
 31
0.0
  0
LINE
  5
1C4
  8
0
 10
412.0
 20
241.5
 30
0.0
 11
415.00000000000011
 21
241.5
 31
0.0
  0
LINE
  5
1C5
  8
0
 10
427.49999999999977
 20
242.0
 30
0.0
 11
427.99999999999989
 21
241.5
 31
0.0
  0
LINE
  5
1C6
  8
0
 10
412.5
 20
242.0
 30
0.0
 11
412.0
 21
241.5
 31
0.0
  0
LINE
  5
1C7
  8
0
 10
412.5
 20
242.0
 30
0.0
 11
417.99999651337652
 21
242.0
 31
0.0
  0
LINE
  5
1C8
  8
0
 10
412.0
 20
227.0
 30
0.0
 11
412.0
 21
241.5
 31
0.0
  0
LINE
  5
1C9
  8
0
 10
428.0
 20
227.0
 30
0.0
 11
427.99999999999989
 21
241.5
 31
0.0
  0
LINE
  5
1CA
  8
0
  6
CONTINUOUS
 10
409.0
 20
266.37632489961481
 30
0.0
 11
410.95981346869559
 21
244.13244202991879
 31
0.0
  0
LINE
  5
1CB
  8
0
  6
CONTINUOUS
 10
431.0
 20
266.37632489961499
 30
0.0
 11
429.04018653130419
 21
244.13244202991871
 31
0.0
  0
LINE
  5
1CC
  8
0
  6
CONTINUOUS
 10
431.0
 20
266.37632489961499
 30
0.0
 11
431.0
 21
296.66921811842849
 31
0.0
  0
LINE
  5
1CD
  8
0
  6
CONTINUOUS
 10
409.0
 20
266.37632489961481
 30
0.0
 11
409.0
 21
296.66921811842838
 31
0.0
  0
LINE
  5
1CE
  8
0
  6
CONTINUOUS
 10
409.0
 20
266.37632489961481
 30
0.0
 11
431.0
 21
266.37632489961499
 31
0.0
  0
LINE
  5
1CF
  8
0
  6
CONTINUOUS
 10
410.3950193975503
 20
298.27134429716517
 30
0.0
 11
409.14644660940661
 21
297.0227715090216
 31
0.0
  0
LINE
  5
1D0
  8
0
  6
CONTINUOUS
 10
429.60498060244919
 20
298.2713442971658
 30
0.0
 11
430.85355339059311
 21
297.02277150902182
 31
0.0
  0
ARC
  5
1D1
  8
0
  6
CONTINUOUS
 10
420.00000000000051
 20
253.7513248996168
 30
0.0
 40
45.624999999998138
 50
78.169460268867766
 51
101.83053973113439
  0
LINE
  5
1D2
  8
0
  6
CONTINUOUS
 10
411.91421356237288
 20
298.3763248996147
 30
0.0
 11
428.08578643762689
 21
298.37632489961487
 31
0.0
  0
LINE
  5
1D3
  8
0
  6
CONTINUOUS
 10
429.58578643762689
 20
296.87632489961499
 30
0.0
 11
410.41421356237311
 21
296.87632489961481
 31
0.0
  0
ARC
  5
1D4
  8
0
  6
CONTINUOUS
 10
430.49999999999989
 20
296.66921811842849
 30
0.0
 40
0.5
 50
360.0
 51
44.999999999999929
  0
ARC
  5
1D5
  8
0
  6
CONTINUOUS
 10
429.25142721185603
 20
297.91779090657252
 30
0.0
 40
0.5
 50
44.999999999999993
 51
78.169460268868079
  0
ARC
  5
1D6
  8
0
  6
CONTINUOUS
 10
410.74857278814352
 20
297.91779090657201
 30
0.0
 40
0.5
 50
101.8305397311362
 51
135.00000000000219
  0
ARC
  5
1D7
  8
0
  6
CONTINUOUS
 10
409.49999999999989
 20
296.66921811842838
 30
0.0
 40
0.5
 50
134.99999999999989
 51
180.0
  0
LINE
  5
1D8
  8
0
 10
428.47024547415862
 20
227.0
 30
0.0
 11
411.52975452584087
 21
227.0
 31
0.0
  0
ARC
  5
1D9
  8
0
 10
411.52975452584087
 20
226.69999999999999
 30
0.0
 40
0.3
 50
90.0
 51
175.999999999929
  0
LINE
  5
1DA
  8
0
 10
411.23048531076353
 20
226.7209269421233
 30
0.0
 11
411.1800731880565
 21
226.0
 31
0.0
  0
LINE
  5
1DB
  8
0
 10
428.76951468923642
 20
226.7209269421233
 30
0.0
 11
428.81992681194322
 21
226.0
 31
0.0
  0
ARC
  5
1DC
  8
0
 10
428.47024547415839
 20
226.69999999999999
 30
0.0
 40
0.3
 50
4.0000000000002087
 51
90.0
  0
ARC
  5
1DD
  8
0
 10
428.4702454741589
 20
226.69999999999999
 30
0.0
 40
0.3
 50
4.000000000070945
 51
90.0
  0
LINE
  5
1DE
  8
0
 10
417.99999651337652
 20
242.0
 30
0.0
 11
417.99999679107219
 21
233.0
 31
0.0
  0
LINE
  5
1DF
  8
0
 10
421.99999651337657
 20
242.0
 30
0.0
 11
421.99999679107219
 21
233.0
 31
0.0
  0
LINE
  5
1E0
  8
0
 10
417.99999679107219
 20
233.0
 30
0.0
 11
421.99999679107219
 21
233.0
 31
0.0
  0
LINE
  5
1E1
  8
0
 10
415.50000000000011
 20
241.0
 30
0.0
 11
415.5
 21
227.0
 31
0.0
  0
LINE
  5
1E2
  8
0
 10
424.5
 20
241.00000000000011
 30
0.0
 11
424.5
 21
227.0
 31
0.0
  0
LINE
  5
1E3
  8
0
 10
421.99999651337669
 20
242.0
 30
0.0
 11
427.49999999999977
 21
242.0
 31
0.0
  0
LINE
  5
1E4
  8
0
 10
425.0
 20
241.50000000000011
 30
0.0
 11
427.99999999999972
 21
241.50000000000011
 31
0.0
  0
ARC
  5
1E5
  8
0
 10
415.00000000000011
 20
241.0
 30
0.0
 40
0.5
 50
359.99999999999972
 51
90.000000000000668
  0
ARC
  5
1E6
  8
0
 10
425.0
 20
241.00000000000011
 30
0.0
 40
0.5
 50
90.000000000000668
 51
179.99999999999969
  0
LINE
  5
1E7
  8
0
 10
421.99999656347518
 20
240.37632489961521
 30
0.0
 11
417.99999656347518
 21
240.37632489961501
 31
0.0
  0
ARC
  5
1E8
  8
0
 10
420.0
 20
235.5
 30
0.0
 40
2.399999999999999
 50
213.55716960973521
 51
326.4425500867365
  0
LINE
  5
1F2
  8
1
 10
596.49999999999989
 20
235.5
 30
0.0
 11
583.49999999999989
 21
235.5
 31
0.0
  0
TEXT
  5
341
  8
0
 62
     3
 10
0.0
 20
0.0
 30
0.0
 40
10.0
  1
BCH80F
  7
STANDARD1
  0
ENDSEC
  0
EOF
