  0
SECTION
  2
HEADER
  9
$ACADVER
  1
AC1009
  9
$INSBASE
 10
0.0
 20
0.0
 30
0.0
  9
$EXTMIN
 10
0.0
 20
-2.960436562073669
 30
0.0
  9
$EXTMAX
 10
626.48815855863336
 20
385.93252613100549
 30
160.0
  9
$LIMMIN
 10
0.0
 20
0.0
  9
$LIMMAX
 10
375.0
 20
270.0
  9
$ORTHOMODE
 70
     1
  9
$REGENMODE
 70
     1
  9
$FILLMODE
 70
     1
  9
$QTEXTMODE
 70
     0
  9
$MIRRTEXT
 70
     0
  9
$DRAGMODE
 70
     2
  9
$LTSCALE
 40
10.0
  9
$OSMODE
 70
  3071
  9
$ATTMODE
 70
     1
  9
$TEXTSIZE
 40
4.000000000000048
  9
$TRACEWID
 40
0.05
  9
$TEXTSTYLE
  7
STANDARD
  9
$CLAYER
  8
0
  9
$CELTYPE
  6
BYLAYER
  9
$CECOLOR
 62
   256
  9
$DIMSCALE
 40
1.0
  9
$DIMASZ
 40
3.0
  9
$DIMEXO
 40
2.0
  9
$DIMDLI
 40
0.38
  9
$DIMRND
 40
0.0
  9
$DIMDLE
 40
0.0
  9
$DIMEXE
 40
2.0
  9
$DIMTP
 40
0.0
  9
$DIMTM
 40
0.0
  9
$DIMTXT
 40
3.2000000000000002
  9
$DIMCEN
 40
0.0
  9
$DIMTSZ
 40
0.0
  9
$DIMTOL
 70
     0
  9
$DIMLIM
 70
     0
  9
$DIMTIH
 70
     0
  9
$DIMTOH
 70
     0
  9
$DIMSE1
 70
     0
  9
$DIMSE2
 70
     0
  9
$DIMTAD
 70
     1
  9
$DIMZIN
 70
     0
  9
$DIMBLK
  1

  9
$DIMASO
 70
     0
  9
$DIMSHO
 70
     0
  9
$DIMPOST
  1

  9
$DIMAPOST
  1

  9
$DIMALT
 70
     0
  9
$DIMALTD
 70
     2
  9
$DIMALTF
 40
25.399999999999999
  9
$DIMLFAC
 40
1.0
  9
$DIMTOFL
 70
     0
  9
$DIMTVP
 40
1.6000000000000001
  9
$DIMTIX
 70
     1
  9
$DIMSOXD
 70
     0
  9
$DIMSAH
 70
     0
  9
$DIMBLK1
  1

  9
$DIMBLK2
  1

  9
$DIMSTYLE
  2
STANDARD
  9
$DIMCLRD
 70
     4
  9
$DIMCLRE
 70
     4
  9
$DIMCLRT
 70
     4
  9
$DIMTFAC
 40
1.0
  9
$DIMGAP
 40
0.09
  9
$LUNITS
 70
     2
  9
$LUPREC
 70
     1
  9
$SKETCHINC
 40
0.1
  9
$FILLETRAD
 40
22.0
  9
$AUNITS
 70
     0
  9
$AUPREC
 70
     0
  9
$MENU
  1
E:\r13\win\SUPPORT\ACAD
  9
$ELEVATION
 40
0.0
  9
$PELEVATION
 40
0.0
  9
$THICKNESS
 40
0.0
  9
$LIMCHECK
 70
     0
  9
$BLIPMODE
 70
     0
  9
$CHAMFERA
 40
1.1999999999999991
  9
$CHAMFERB
 40
1.1999999999999991
  9
$SKPOLY
 70
     0
  9
$TDCREATE
 40
2449954.6020138888
  9
$TDUPDATE
 40
2456597.59427022
  9
$TDINDWG
 40
0.1952871759
  9
$TDUSRTIMER
 40
0.1952871759
  9
$USRTIMER
 70
     1
  9
$ANGBASE
 50
0.0
  9
$ANGDIR
 70
     0
  9
$PDMODE
 70
     0
  9
$PDSIZE
 40
0.0
  9
$PLINEWID
 40
0.0
  9
$COORDS
 70
     1
  9
$SPLFRAME
 70
     0
  9
$SPLINETYPE
 70
     6
  9
$SPLINESEGS
 70
     8
  9
$ATTDIA
 70
     0
  9
$ATTREQ
 70
     1
  9
$HANDLING
 70
     1
  9
$HANDSEED
  5
1FA7
  9
$SURFTAB1
 70
     6
  9
$SURFTAB2
 70
     6
  9
$SURFTYPE
 70
     6
  9
$SURFU
 70
     6
  9
$SURFV
 70
     6
  9
$UCSNAME
  2

  9
$UCSORG
 10
0.0
 20
0.0
 30
0.0
  9
$UCSXDIR
 10
1.0
 20
0.0
 30
0.0
  9
$UCSYDIR
 10
0.0
 20
1.0
 30
0.0
  9
$PUCSNAME
  2

  9
$PUCSORG
 10
0.0
 20
0.0
 30
0.0
  9
$PUCSXDIR
 10
1.0
 20
0.0
 30
0.0
  9
$PUCSYDIR
 10
0.0
 20
1.0
 30
0.0
  9
$USERI1
 70
     0
  9
$USERI2
 70
     1
  9
$USERI3
 70
     0
  9
$USERI4
 70
     0
  9
$USERI5
 70
     0
  9
$USERR1
 40
0.0
  9
$USERR2
 40
0.0
  9
$USERR3
 40
0.0
  9
$USERR4
 40
0.0
  9
$USERR5
 40
0.0
  9
$WORLDVIEW
 70
     1
  9
$SHADEDGE
 70
     3
  9
$SHADEDIF
 70
    70
  9
$TILEMODE
 70
     1
  9
$MAXACTVP
 70
    16
  9
$PLIMCHECK
 70
     0
  9
$PEXTMIN
 10
1.0000000000000000E+020
 20
1.0000000000000000E+020
 30
1.0000000000000000E+020
  9
$PEXTMAX
 10
-1.0000000000000000E+020
 20
-1.0000000000000000E+020
 30
-1.0000000000000000E+020
  9
$PLIMMIN
 10
0.0
 20
0.0
  9
$PLIMMAX
 10
12.0
 20
9.0
  9
$UNITMODE
 70
     0
  9
$VISRETAIN
 70
     0
  9
$PLINEGEN
 70
     0
  9
$PSLTSCALE
 70
     0
  0
ENDSEC
  0
SECTION
  2
TABLES
  0
TABLE
  2
VPORT
 70
     1
  0
VPORT
  2
*ACTIVE
 70
     0
 10
0.0
 20
0.0
 11
1.0
 21
1.0
 12
324.02212784060549
 22
191.47932605267169
 13
0.0
 23
0.0
 14
10.0
 24
10.0
 15
10.0
 25
10.0
 16
0.0
 26
0.0
 36
1.0
 17
0.0
 27
0.0
 37
0.0
 40
392.41811845883501
 41
1.831871345029239
 42
50.0
 43
0.0
 44
0.0
 50
0.0
 51
0.0
 71
     0
 72
   500
 73
     1
 74
     0
 75
     0
 76
     0
 77
     0
 78
     2
  0
ENDTAB
  0
TABLE
  2
LTYPE
 70
     4
  0
LTYPE
  2
CONTINUOUS
 70
     0
  3
Solid Line
 72
    65
 73
     0
 40
0.0
  0
LTYPE
  2
CENTER
 70
     0
  3
____ _ ____ _ ____ _ ____ _ ____ _ ____ _ ____
 72
    65
 73
     4
 40
2.0
 49
1.25
 49
-0.25
 49
0.25
 49
-0.25
  0
LTYPE
  2
HIDDEN
 70
     0
  3
_ _ _ _ _ _ _ _ _ _ _ _ _ _ _ _ _ _ _ _ _ _ _
 72
    65
 73
     2
 40
0.375
 49
0.25
 49
-0.125
  0
LTYPE
  2
PHANTOM2
 70
     0
  3
___ _ _ ___ _ _ ___ _ _ ___ _ _
 72
    65
 73
     6
 40
1.25
 49
0.625
 49
-0.125
 49
0.125
 49
-0.125
 49
0.125
 49
-0.125
  0
ENDTAB
  0
TABLE
  2
LAYER
 70
     3
  0
LAYER
  2
0
 70
     0
 62
     7
  6
CONTINUOUS
  0
LAYER
  2
1
 70
     0
 62
     1
  6
CENTER
  0
LAYER
  2
2
 70
     0
 62
     2
  6
HIDDEN
  0
ENDTAB
  0
TABLE
  2
STYLE
 70
     2
  0
STYLE
  2
STANDARD
 70
     0
 40
0.0
 41
1.0
 50
0.0
 71
     0
 42
4.000000000000048
  3
SIMPLEX
  4
BIGFONT
  0
STYLE
  2
STANDARD1
 70
     0
 40
0.0
 41
1.0
 50
0.0
 71
     0
 42
3.0
  3
txt
  4

  0
ENDTAB
  0
TABLE
  2
VIEW
 70
     1
  0
VIEW
  2
ALL
 70
     0
 40
270.0
 10
220.78595317725751
 20
135.0
 41
441.57190635451502
 11
0.0
 21
0.0
 31
1.0
 12
0.0
 22
0.0
 32
0.0
 42
50.0
 43
0.0
 44
0.0
 50
0.0
 71
     0
  0
ENDTAB
  0
TABLE
  2
UCS
 70
     0
  0
ENDTAB
  0
TABLE
  2
APPID
 70
     3
  0
APPID
  2
ACAD
 70
     0
  0
APPID
  2
ACAD_MLEADERVER
 70
     0
  0
APPID
  2
ACAD_NAV_VCDISPLAY
 70
     0
  0
ENDTAB
  0
TABLE
  2
DIMSTYLE
 70
     1
  0
DIMSTYLE
  2
STANDARD
 70
     0
  3

  4

  5

  6

  7

 40
1.0
 41
0.18
 42
0.0625
 43
0.38
 44
0.18
 45
0.0
 46
0.0
 47
0.0
 48
0.0
140
0.18
141
0.09
142
0.0
143
25.399999999999999
144
1.0
145
0.0
146
1.0
147
0.09
 71
     0
 72
     0
 73
     1
 74
     1
 75
     0
 76
     0
 77
     0
 78
     0
170
     0
171
     2
172
     0
173
     0
174
     0
175
     0
176
     0
177
     0
178
     0
  0
ENDTAB
  0
ENDSEC
  0
SECTION
  2
BLOCKS
  0
BLOCK
  8
0
  2
$MODEL_SPACE
 70
     0
 10
0.0
 20
0.0
 30
0.0
  3
$MODEL_SPACE
  1

  0
ENDBLK
  5
1126
  8
0
  0
BLOCK
 67
     1
  8
0
  2
$PAPER_SPACE
 70
     0
 10
0.0
 20
0.0
 30
0.0
  3
$PAPER_SPACE
  1

  0
ENDBLK
  5
1124
 67
     1
  8
0
  0
ENDSEC
  0
SECTION
  2
ENTITIES
  0
LINE
  5
1ABD
  8
0
 10
443.94761734658181
 20
185.29819278015611
 30
0.0
 11
443.94761734658181
 21
184.9981927801561
 31
0.0
  0
LINE
  5
1ABE
  8
0
 10
457.82261734658181
 20
184.9981927801561
 30
0.0
 11
457.82261734658181
 21
185.29819278015611
 31
0.0
  0
LINE
  5
1ABF
  8
0
 10
441.63511734658192
 20
211.9981927801561
 30
0.0
 11
441.63511734658192
 21
185.29819278015611
 31
0.0
  0
LINE
  5
1AC0
  8
0
 10
460.13511734658181
 20
185.29819278015611
 30
0.0
 11
460.13511734658181
 21
211.9981927801561
 31
0.0
  0
ARC
  5
1AC2
  8
0
 10
460.13511734658169
 20
214.74819278015619
 30
0.0
 40
2.7500000000000422
 50
270.0
 51
0.0000008537736322
  0
ARC
  5
1AC3
  8
0
 10
441.63511734658192
 20
214.74819278015619
 30
0.0
 40
2.750000000000056
 50
179.99999914622629
 51
270.0
  0
LINE
  5
1AC4
  8
0
 10
438.88511734658181
 20
252.99819278015619
 30
0.0
 11
438.88511734658181
 21
214.74819278015619
 31
0.0
  0
LINE
  5
1AC5
  8
0
 10
462.88511734658181
 20
214.74819278015619
 30
0.0
 11
462.88511734658181
 21
252.99819278015619
 31
0.0
  0
ARC
  5
1AC6
  8
0
 10
450.88511734658181
 20
252.99819278015619
 30
0.0
 40
12.0
 50
0.0
 51
180.0
  0
LINE
  5
1ACB
  8
0
 10
457.82261734658181
 20
184.9981927801561
 30
0.0
 11
443.94761734658181
 21
184.9981927801561
 31
0.0
  0
LINE
  5
1ACC
  8
0
 10
460.13511734658181
 20
185.29819278015611
 30
0.0
 11
441.63511734658192
 21
185.29819278015611
 31
0.0
  0
LINE
  5
1ACD
  8
0
 10
462.88511734658181
 20
214.74819278015619
 30
0.0
 11
438.88511734658181
 21
214.74819278015619
 31
0.0
  0
LINE
  5
1ACE
  8
0
 10
462.88511734658181
 20
252.99819278015619
 30
0.0
 11
438.88511734658181
 21
252.99819278015619
 31
0.0
  0
LINE
  5
1AD5
  8
1
 10
450.88511734658181
 20
156.7225026848925
 30
0.0
 11
450.88511734658181
 21
274.19935076353789
 31
0.0
  0
LINE
  5
1AD7
  8
0
 10
465.88511734658181
 20
164.98753288167899
 30
0.0
 11
465.88511734658181
 21
184.9981927801561
 31
0.0
  0
LINE
  5
1AD8
  8
2
 10
277.88511734658192
 20
166.44528214389251
 30
0.0
 11
277.88511734658192
 21
129.19819278015609
 31
0.0
  0
LINE
  5
1AD9
  8
2
 10
303.88511734658192
 20
129.19819278015609
 30
0.0
 11
303.88511734658192
 21
166.44528214389251
 31
0.0
  0
LINE
  5
1ADA
  8
0
 10
273.63511734658192
 20
143.9981927801561
 30
0.0
 11
273.63511734658192
 21
129.19819278015609
 31
0.0
  0
LINE
  5
1ADB
  8
0
 10
308.13511734658192
 20
129.19819278015609
 30
0.0
 11
308.13511734658192
 21
143.9981927801561
 31
0.0
  0
ARC
  5
1ADC
  8
0
 10
311.81274863655722
 20
144.9981927801561
 30
0.0
 40
1.00000000000001
 50
270.0
 51
3.999999999999329
  0
ARC
  5
1ADD
  8
0
 10
269.95748605660663
 20
144.9981927801561
 30
0.0
 40
1.00000000000001
 50
176.00000000000071
 51
270.0
  0
LINE
  5
1ADE
  8
0
 10
274.21887878332672
 20
183.4981927801561
 30
0.0
 11
271.45387878332667
 21
180.7331927801562
 31
0.0
  0
LINE
  5
1ADF
  8
0
 10
310.316355909837
 20
180.7331927801562
 30
0.0
 11
307.55135590983701
 21
183.4981927801561
 31
0.0
  0
LINE
  5
1AE0
  8
2
 10
276.84765579181612
 20
183.4981927801561
 30
0.0
 11
277.38511734658192
 21
180.7331927801562
 31
0.0
  0
LINE
  5
1AE1
  8
2
 10
304.38511734658192
 20
180.7331927801562
 30
0.0
 11
304.92257890134772
 21
183.4981927801561
 31
0.0
  0
LINE
  5
1AE2
  8
0
 10
271.45387878332667
 20
180.7331927801562
 30
0.0
 11
268.95992200634669
 21
145.0679492539002
 31
0.0
  0
LINE
  5
1AE3
  8
0
 10
310.66245662948103
 20
175.78372189732039
 30
0.0
 11
310.316355909837
 21
180.7331927801562
 31
0.0
  0
LINE
  5
1AE4
  8
0
 10
312.81031268681699
 20
145.0679492539002
 30
0.0
 11
312.56030237628488
 21
148.6432632655559
 31
0.0
  0
LINE
  5
1AE5
  8
2
 10
298.88511734658181
 20
158.9981927801561
 30
0.0
 11
290.88511734658192
 21
163.61699493367311
 31
0.0
  0
LINE
  5
1AE6
  8
2
 10
290.88511734658192
 20
163.61699493367311
 30
0.0
 11
282.88511734658192
 21
158.9981927801561
 31
0.0
  0
LINE
  5
1AE7
  8
2
 10
298.88511734658181
 20
130.0981927801561
 30
0.0
 11
298.88511734658181
 21
158.9981927801561
 31
0.0
  0
LINE
  5
1AE8
  8
2
 10
282.88511734658192
 20
158.9981927801561
 30
0.0
 11
282.88511734658192
 21
130.0981927801561
 31
0.0
  0
LINE
  5
1AE9
  8
2
 10
299.98511734658189
 20
128.9981927801561
 30
0.0
 11
298.88511734658181
 21
130.0981927801561
 31
0.0
  0
LINE
  5
1AEA
  8
2
 10
282.88511734658192
 20
130.0981927801561
 30
0.0
 11
281.98511734658189
 21
129.19819278015609
 31
0.0
  0
POLYLINE
  5
1AEF
  8
0
 66
     1
 10
0.0
 20
0.0
 30
0.0
  0
VERTEX
  5
1D47
  8
0
 10
455.01992957365599
 20
163.82931489573261
 30
0.0
  0
VERTEX
  5
1D48
  8
0
 10
455.1003186607764
 20
163.8378842908063
 30
0.0
  0
VERTEX
  5
1D49
  8
0
 10
455.26099702336347
 20
163.85501244113291
 30
0.0
  0
VERTEX
  5
1D4A
  8
0
 10
455.4215157327576
 20
163.87212357259111
 30
0.0
  0
VERTEX
  5
1D4B
  8
0
 10
455.50170526081308
 20
163.88067169487121
 30
0.0
  0
VERTEX
  5
1D4C
  8
0
 10
455.58184293205119
 20
163.8892142892671
 30
0.0
  0
VERTEX
  5
1D4D
  8
0
 10
455.74194680234439
 20
163.90628119929829
 30
0.0
  0
VERTEX
  5
1D4E
  8
0
 10
455.90179556905929
 20
163.92332091554709
 30
0.0
  0
VERTEX
  5
1D4F
  8
0
 10
456.06135750824677
 20
163.9403300562727
 30
0.0
  0
VERTEX
  5
1D50
  8
0
 10
456.22060095288231
 20
163.95730524580239
 30
0.0
  0
VERTEX
  5
1D51
  8
0
 10
456.37949429915011
 20
163.97424311520149
 30
0.0
  0
VERTEX
  5
1D52
  8
0
 10
456.45879982803132
 20
163.98269700406701
 30
0.0
  0
VERTEX
  5
1D53
  8
0
 10
456.53800601271581
 20
163.991140302942
 30
0.0
  0
VERTEX
  5
1D54
  8
0
 10
456.69610463498498
 20
164.0079934555697
 30
0.0
  0
VERTEX
  5
1D55
  8
0
 10
456.85375878934599
 20
164.0247992283696
 30
0.0
  0
VERTEX
  5
1D56
  8
0
 10
457.01093718739742
 20
164.04155428602991
 30
0.0
  0
VERTEX
  5
1D57
  8
0
 10
457.16760863515748
 20
164.05825530330381
 30
0.0
  0
VERTEX
  5
1D58
  8
0
 10
457.32374203925491
 20
164.07489896566949
 30
0.0
  0
VERTEX
  5
1D59
  8
0
 10
457.40159728728128
 20
164.0831982560683
 30
0.0
  0
VERTEX
  5
1D5A
  8
0
 10
457.47930641309978
 20
164.091481969988
 30
0.0
  0
VERTEX
  5
1D5B
  8
0
 10
457.63427088303342
 20
164.10800102515859
 30
0.0
  0
VERTEX
  5
1D5C
  8
0
 10
457.78860469445488
 20
164.12445285277201
 30
0.0
  0
VERTEX
  5
1D5D
  8
0
 10
457.86552552646867
 20
164.1326525353725
 30
0.0
  0
VERTEX
  5
1D5E
  8
0
 10
457.94227721792589
 20
164.1408341877613
 30
0.0
  0
VERTEX
  5
1D5F
  8
0
 10
458.09525795524843
 20
164.15714177904951
 30
0.0
  0
VERTEX
  5
1D60
  8
0
 10
458.24751654551778
 20
164.173372390195
 30
0.0
  0
VERTEX
  5
1D61
  8
0
 10
458.32336558674962
 20
164.1814578209862
 30
0.0
  0
VERTEX
  5
1D62
  8
0
 10
458.39902277114868
 20
164.18952280003381
 30
0.0
  0
VERTEX
  5
1D63
  8
0
 10
458.54974656387139
 20
164.20558980331899
 30
0.0
  0
VERTEX
  5
1D64
  8
0
 10
458.69965801069981
 20
164.22157021135649
 30
0.0
  0
VERTEX
  5
1D65
  8
0
 10
458.84872735986801
 20
164.23746085263841
 30
0.0
  0
VERTEX
  5
1D66
  8
0
 10
458.99692502673412
 20
164.2532585734719
 30
0.0
  0
VERTEX
  5
1D67
  8
0
 10
459.14422159965289
 20
164.2689602386053
 30
0.0
  0
VERTEX
  5
1D68
  8
0
 10
459.21752283348371
 20
164.2767740757142
 30
0.0
  0
VERTEX
  5
1D69
  8
0
 10
459.29058784581201
 20
164.28456273185071
 30
0.0
  0
VERTEX
  5
1D6A
  8
0
 10
459.43599471703391
 20
164.30006295670179
 30
0.0
  0
VERTEX
  5
1D6B
  8
0
 10
459.5804133555406
 20
164.3154578369487
 30
0.0
  0
VERTEX
  5
1D6C
  8
0
 10
459.72381509968147
 20
164.33074431728861
 30
0.0
  0
VERTEX
  5
1D6D
  8
0
 10
459.86617148962063
 20
164.34591936393181
 30
0.0
  0
VERTEX
  5
1D6E
  8
0
 10
460.00745427298551
 20
164.36097996520431
 30
0.0
  0
VERTEX
  5
1D6F
  8
0
 10
460.07768429144539
 20
164.36846641387251
 30
0.0
  0
VERTEX
  5
1D70
  8
0
 10
460.14763541047438
 20
164.37592313214469
 30
0.0
  0
VERTEX
  5
1D71
  8
0
 10
460.28668708142033
 20
164.39074589909831
 30
0.0
  0
VERTEX
  5
1D72
  8
0
 10
460.4245816893129
 20
164.40544532430511
 30
0.0
  0
VERTEX
  5
1D73
  8
0
 10
460.5612918672752
 20
164.42001849048381
 30
0.0
  0
VERTEX
  5
1D74
  8
0
 10
460.69679048349502
 20
164.43446250541081
 30
0.0
  0
VERTEX
  5
1D75
  8
0
 10
460.8310506466089
 20
164.4487745024941
 30
0.0
  0
VERTEX
  5
1D76
  8
0
 10
460.8977079717626
 20
164.45588010568301
 30
0.0
  0
VERTEX
  5
1D77
  8
0
 10
460.96404571104051
 20
164.4629516413421
 30
0.0
  0
VERTEX
  5
1D78
  8
0
 10
461.0957492822871
 20
164.47699110832781
 30
0.0
  0
VERTEX
  5
1D79
  8
0
 10
461.22613522215892
 20
164.49089011714659
 30
0.0
  0
VERTEX
  5
1D7A
  8
0
 10
461.35517765396628
 20
164.50464590936971
 30
0.0
  0
VERTEX
  5
1D7B
  8
0
 10
461.48285096765528
 20
164.5182557549914
 30
0.0
  0
VERTEX
  5
1D7C
  8
0
 10
461.60912982489009
 20
164.5317169529707
 30
0.0
  0
VERTEX
  5
1D7D
  8
0
 10
461.67173848964381
 20
164.53839097307139
 30
0.0
  0
VERTEX
  5
1D7E
  8
0
 10
461.73398916408189
 20
164.54502683176781
 30
0.0
  0
VERTEX
  5
1D7F
  8
0
 10
461.8574042053628
 20
164.55818274987391
 30
0.0
  0
VERTEX
  5
1D80
  8
0
 10
461.97935045550361
 20
164.5711820963356
 30
0.0
  0
VERTEX
  5
1D81
  8
0
 10
462.09980371277442
 20
164.5840222912731
 30
0.0
  0
VERTEX
  5
1D82
  8
0
 10
462.21874007174841
 20
164.59670078639209
 30
0.0
  0
VERTEX
  5
1D83
  8
0
 10
462.33613592804562
 20
164.60921506548991
 30
0.0
  0
VERTEX
  5
1D84
  8
0
 10
462.3942488747935
 20
164.61540984661519
 30
0.0
  0
VERTEX
  5
1D85
  8
0
 10
462.45196798301788
 20
164.62156264495391
 30
0.0
  0
VERTEX
  5
1D86
  8
0
 10
462.56621324837278
 20
164.63374107425571
 30
0.0
  0
VERTEX
  5
1D87
  8
0
 10
462.67884905073532
 20
164.64574793643641
 30
0.0
  0
VERTEX
  5
1D88
  8
0
 10
462.73455640508382
 20
164.6516862838543
 30
0.0
  0
VERTEX
  5
1D89
  8
0
 10
462.78985303614837
 20
164.65758084858709
 30
0.0
  0
VERTEX
  5
1D8A
  8
0
 10
462.89920317450913
 20
164.66923746232101
 30
0.0
  0
VERTEX
  5
1D8B
  8
0
 10
463.00687776394062
 20
164.68071546424011
 30
0.0
  0
VERTEX
  5
1D8C
  8
0
 10
463.0600800367821
 20
164.68638677251249
 30
0.0
  0
VERTEX
  5
1D8D
  8
0
 10
463.11285543509939
 20
164.69201257639409
 30
0.0
  0
VERTEX
  5
1D8E
  8
0
 10
463.21711515541642
 20
164.7031265567324
 30
0.0
  0
VERTEX
  5
1D8F
  8
0
 10
463.31963623327061
 20
164.71405519954931
 30
0.0
  0
VERTEX
  5
1D90
  8
0
 10
463.42039832209622
 20
164.72479633592161
 30
0.0
  0
VERTEX
  5
1D91
  8
0
 10
463.5193814244202
 20
164.73534783413891
 30
0.0
  0
VERTEX
  5
1D92
  8
0
 10
463.61656589583129
 20
164.74570760012691
 30
0.0
  0
VERTEX
  5
1D93
  8
0
 10
463.66447760356738
 20
164.75081493953019
 30
0.0
  0
VERTEX
  5
1D94
  8
0
 10
463.71193244887888
 20
164.7558735778629
 30
0.0
  0
VERTEX
  5
1D95
  8
0
 10
463.80546215690009
 20
164.76584374978401
 30
0.0
  0
VERTEX
  5
1D96
  8
0
 10
463.89713645777658
 20
164.77561613718709
 30
0.0
  0
VERTEX
  5
1D97
  8
0
 10
463.9869371576188
 20
164.785188800622
 30
0.0
  0
VERTEX
  5
1D98
  8
0
 10
464.07484643437562
 20
164.79455984027629
 30
0.0
  0
VERTEX
  5
1D99
  8
0
 10
464.16084684137257
 20
164.80372739635209
 30
0.0
  0
VERTEX
  5
1D9A
  8
0
 10
464.2031258701208
 20
164.80823429789379
 30
0.0
  0
VERTEX
  5
1D9B
  8
0
 10
464.24492131077352
 20
164.81268964943541
 30
0.0
  0
VERTEX
  5
1D9C
  8
0
 10
464.32705315696842
 20
164.82144482085721
 30
0.0
  0
VERTEX
  5
1D9D
  8
0
 10
464.40722607988448
 20
164.8299911730463
 30
0.0
  0
VERTEX
  5
1D9E
  8
0
 10
464.48542416822153
 20
164.83832700987409
 30
0.0
  0
VERTEX
  5
1D9F
  8
0
 10
464.56163190260918
 20
164.84645067699151
 30
0.0
  0
VERTEX
  5
1DA0
  8
0
 10
464.63583415868771
 20
164.8543605621573
 30
0.0
  0
VERTEX
  5
1DA1
  8
0
 10
464.67217861474933
 20
164.8582348442755
 30
0.0
  0
VERTEX
  5
1DA2
  8
0
 10
464.70801621010872
 20
164.86205509555751
 30
0.0
  0
VERTEX
  5
1DA3
  8
0
 10
464.77816373145828
 20
164.8695327501176
 30
0.0
  0
VERTEX
  5
1DA4
  8
0
 10
464.84626280110018
 20
164.87679204180529
 30
0.0
  0
VERTEX
  5
1DA5
  8
0
 10
464.91229990393862
 20
164.88383152992509
 30
0.0
  0
VERTEX
  5
1DA6
  8
0
 10
464.9762619340998
 20
164.89064981740421
 30
0.0
  0
VERTEX
  5
1DA7
  8
0
 10
465.0381361975343
 20
164.89724555106989
 30
0.0
  0
VERTEX
  5
1DA8
  8
0
 10
465.06828656306823
 20
164.90045954942619
 30
0.0
  0
VERTEX
  5
1DA9
  8
0
 10
465.09791041453519
 20
164.90361742191769
 30
0.0
  0
VERTEX
  5
1DAA
  8
0
 10
465.15557272217558
 20
164.90976416537171
 30
0.0
  0
VERTEX
  5
1DAB
  8
0
 10
465.21111167666322
 20
164.91568456153539
 30
0.0
  0
VERTEX
  5
1DAC
  8
0
 10
465.26451625561072
 20
164.9213774354333
 30
0.0
  0
VERTEX
  5
1DAD
  8
0
 10
465.31577586022439
 20
164.92684165724489
 30
0.0
  0
VERTEX
  5
1DAE
  8
0
 10
465.36488031740652
 20
164.9320761425283
 30
0.0
  0
VERTEX
  5
1DAF
  8
0
 10
465.38862130351782
 20
164.93460690754529
 30
0.0
  0
VERTEX
  5
1DB0
  8
0
 10
465.41181988177522
 20
164.9370798524356
 30
0.0
  0
VERTEX
  5
1DB1
  8
0
 10
465.45658523759772
 20
164.94185179391931
 30
0.0
  0
VERTEX
  5
1DB2
  8
0
 10
465.49916750064011
 20
164.9463910199288
 30
0.0
  0
VERTEX
  5
1DB3
  8
0
 10
465.51963731446898
 20
164.9485730813015
 30
0.0
  0
VERTEX
  5
1DB4
  8
0
 10
465.53955821992957
 20
164.95069662959929
 30
0.0
  0
VERTEX
  5
1DB5
  8
0
 10
465.57774937943248
 20
164.9547677684296
 30
0.0
  0
VERTEX
  5
1DB6
  8
0
 10
465.61373339964427
 20
164.9586036284521
 30
0.0
  0
VERTEX
  5
1DB7
  8
0
 10
465.63089548365667
 20
164.96043308918439
 30
0.0
  0
VERTEX
  5
1DB8
  8
0
 10
465.64750313909479
 20
164.96220344839361
 30
0.0
  0
VERTEX
  5
1DB9
  8
0
 10
465.67905189576499
 20
164.96556651382539
 30
0.0
  0
VERTEX
  5
1DBA
  8
0
 10
465.70837340841678
 20
164.96869215730601
 30
0.0
  0
VERTEX
  5
1DBB
  8
0
 10
465.7354618578363
 20
164.9715797585132
 30
0.0
  0
VERTEX
  5
1DBC
  8
0
 10
465.76031186798832
 20
164.974228744367
 30
0.0
  0
VERTEX
  5
1DBD
  8
0
 10
465.78291850708331
 20
164.97663858914359
 30
0.0
  0
VERTEX
  5
1DBE
  8
0
 10
465.79337914301641
 20
164.9777536823141
 30
0.0
  0
VERTEX
  5
1DBF
  8
0
 10
465.80327728855639
 20
164.97880881457979
 30
0.0
  0
VERTEX
  5
1DC0
  8
0
 10
465.82138417195779
 20
164.98073898996779
 30
0.0
  0
VERTEX
  5
1DC1
  8
0
 10
465.83723556375412
 20
164.98242873224049
 30
0.0
  0
VERTEX
  5
1DC2
  8
0
 10
465.85082831804198
 20
164.98387770604779
 30
0.0
  0
VERTEX
  5
1DC3
  8
0
 10
465.86215973717287
 20
164.98508562382321
 30
0.0
  0
VERTEX
  5
1DC4
  8
0
 10
465.87122757228752
 20
164.98605224584051
 30
0.0
  0
VERTEX
  5
1DC5
  8
0
 10
465.87491206589777
 20
164.98644500911871
 30
0.0
  0
VERTEX
  5
1DC6
  8
0
 10
465.87803002376262
 20
164.98677738026171
 30
0.0
  0
VERTEX
  5
1DC7
  8
0
 10
465.88256574156821
 20
164.987260883175
 30
0.0
  0
VERTEX
  5
1DC8
  8
0
 10
465.88483382553562
 20
164.9875026586233
 30
0.0
  0
VERTEX
  5
1DC9
  8
0
 10
465.88511734658181
 20
164.98753288167899
 30
0.0
  0
SEQEND
  5
1DCA
  8
0
  0
LINE
  5
1AF1
  8
0
 10
465.88511734658181
 20
184.9981927801561
 30
0.0
 11
425.98511734658177
 21
184.9981927801561
 31
0.0
  0
LINE
  5
1AF2
  8
0
 10
425.98511734658177
 20
184.9981927801561
 30
0.0
 11
425.98511734658189
 21
184.59819278015621
 31
0.0
  0
LINE
  5
1AF4
  8
0
 10
312.56030237628499
 20
148.6432632655559
 30
0.0
 11
455.01992957365599
 21
163.82931489573261
 31
0.0
  0
LINE
  5
1AF5
  8
0
 10
425.98511734658189
 20
184.59819278015621
 30
0.0
 11
310.66245662948103
 21
175.78372189732039
 31
0.0
  0
LINE
  5
1AF6
  8
0
 10
303.88511734658192
 20
128.9981927801561
 30
0.0
 11
277.88511734658192
 21
128.9981927801561
 31
0.0
  0
LINE
  5
1AF8
  8
0
 10
308.13511734658192
 20
129.19819278015609
 30
0.0
 11
273.63511734658192
 21
129.19819278015609
 31
0.0
  0
LINE
  5
1AFA
  8
0
 10
311.81274863655722
 20
143.9981927801561
 30
0.0
 11
269.95748605660663
 21
143.9981927801561
 31
0.0
  0
LINE
  5
1AFB
  8
0
 10
307.55135590983701
 20
183.4981927801561
 30
0.0
 11
274.21887878332672
 21
183.4981927801561
 31
0.0
  0
LINE
  5
1AFD
  8
2
 10
277.38511734658192
 20
180.7331927801562
 30
0.0
 11
304.38511734658192
 21
180.7331927801562
 31
0.0
  0
LINE
  5
1B04
  8
0
 10
312.81031268681699
 20
145.0679492539002
 30
0.0
 11
268.95992200634669
 21
145.0679492539002
 31
0.0
  0
LINE
  5
1B05
  8
0
 10
310.316355909837
 20
180.7331927801562
 30
0.0
 11
271.45387878332667
 21
180.7331927801562
 31
0.0
  0
LINE
  5
1B06
  8
2
 10
298.88511734658181
 20
158.9981927801561
 30
0.0
 11
282.88511734658192
 21
158.9981927801561
 31
0.0
  0
LINE
  5
1B08
  8
2
 10
298.88511734658181
 20
130.0981927801561
 30
0.0
 11
282.88511734658192
 21
130.0981927801561
 31
0.0
  0
LINE
  5
1B10
  8
1
 10
290.88511734658192
 20
185.9922816812477
 30
0.0
 11
290.88511734658192
 21
126.5041038790646
 31
0.0
  0
CIRCLE
  5
1B37
  8
0
 10
450.88511734658181
 20
357.24703452904032
 30
0.0
 40
12.0
  0
LINE
  5
1B40
  8
1
 10
450.88511734658181
 20
337.93493805504568
 30
0.0
 11
450.88511734658181
 21
375.91105229849131
 31
0.0
  0
ARC
  5
1B42
  8
0
 10
290.88511734658192
 20
357.24703452904032
 30
0.0
 40
21.92763128997532
 50
59.912758164660758
 51
300.08724183533923
  0
LINE
  5
1B45
  8
0
 10
295.63460963329032
 20
376.52834525647438
 30
0.0
 11
448.40596530003472
 21
368.98815053775542
 31
0.0
  0
LINE
  5
1B46
  8
0
 10
454.50839457945278
 20
368.6869585713477
 30
0.0
 11
455.01992957365599
 21
368.66171121103662
 31
0.0
  0
ARC
  5
1B47
  8
0
 10
454.45654591801042
 20
357.24703452904032
 30
0.0
 40
11.42857142857142
 50
272.82560195609062
 51
87.17439804390942
  0
LINE
  5
1B48
  8
0
 10
425.98511734658177
 20
344.39931343333109
 30
0.0
 11
425.98511734658177
 21
370.09475562474961
 31
0.0
  0
LINE
  5
1B49
  8
0
 10
455.01992957365599
 20
345.83235784704402
 30
0.0
 11
454.50839457945182
 21
345.80711048673288
 31
0.0
  0
LINE
  5
1B4A
  8
0
 10
448.40596530003461
 20
345.50591852032528
 30
0.0
 11
295.63460963329021
 21
337.96572380160632
 31
0.0
  0
CIRCLE
  5
1B4F
  8
0
 10
290.88511734658192
 20
357.24703452904032
 30
0.0
 40
16.666238563255138
  0
CIRCLE
  5
1B50
  8
0
 10
290.88511734658192
 20
357.24703452904032
 30
0.0
 40
14.037461554765789
  0
CIRCLE
  5
1B51
  8
0
 10
290.88511734658192
 20
357.24703452904032
 30
0.0
 40
13.5
  0
POLYLINE
  5
1B53
  8
0
 66
     1
 10
0.0
 20
0.0
 30
0.0
  0
VERTEX
  5
1DCB
  8
0
 10
295.63460963329021
 20
376.52834525647438
 30
0.0
  0
VERTEX
  5
1DCC
  8
0
 10
295.87063317047051
 20
376.46736631078352
 30
0.0
  0
VERTEX
  5
1DCD
  8
0
 10
296.34034886722441
 20
376.3367510847786
 30
0.0
  0
VERTEX
  5
1DCE
  8
0
 10
296.80672092560081
 20
376.19465890766469
 30
0.0
  0
VERTEX
  5
1DCF
  8
0
 10
297.03856538597398
 20
376.11933539034828
 30
0.0
  0
VERTEX
  5
1DD0
  8
0
 10
297.26946895750189
 20
376.0411752068477
 30
0.0
  0
VERTEX
  5
1DD1
  8
0
 10
297.72831475363512
 20
375.87639225844538
 30
0.0
  0
VERTEX
  5
1DD2
  8
0
 10
298.18298245077563
 20
375.70040913180941
 30
0.0
  0
VERTEX
  5
1DD3
  8
0
 10
298.63319869761858
 20
375.51333162996377
 30
0.0
  0
VERTEX
  5
1DD4
  8
0
 10
299.07869281912082
 20
375.3152722259951
 30
0.0
  0
VERTEX
  5
1DD5
  8
0
 10
299.51919697923358
 20
375.10634999543231
 30
0.0
  0
VERTEX
  5
1DD6
  8
0
 10
299.73749494095551
 20
374.99785431909908
 30
0.0
  0
VERTEX
  5
1DD7
  8
0
 10
299.9544463419291
 20
374.88669054465709
 30
0.0
  0
VERTEX
  5
1DD8
  8
0
 10
300.38417923042198
 20
374.6564259353882
 30
0.0
  0
VERTEX
  5
1DD9
  8
0
 10
300.80813728449328
 20
374.4156946052841
 30
0.0
  0
VERTEX
  5
1DDA
  8
0
 10
301.2260656158191
 20
374.16464128471318
 30
0.0
  0
VERTEX
  5
1DDB
  8
0
 10
301.637712961212
 20
373.90341690973958
 30
0.0
  0
VERTEX
  5
1DDC
  8
0
 10
302.04283183368392
 20
373.63217853137951
 30
0.0
  0
VERTEX
  5
1DDD
  8
0
 10
302.2428668221097
 20
373.49285481826712
 30
0.0
  0
VERTEX
  5
1DDE
  8
0
 10
302.44117867123731
 20
373.35108922117962
 30
0.0
  0
VERTEX
  5
1DDF
  8
0
 10
302.83251398329799
 20
373.06031797317712
 30
0.0
  0
VERTEX
  5
1DE0
  8
0
 10
303.21660249469949
 20
372.76003960229872
 30
0.0
  0
VERTEX
  5
1DE1
  8
0
 10
303.40585686417722
 20
372.60639144130101
 30
0.0
  0
VERTEX
  5
1DE2
  8
0
 10
303.5932132871327
 20
372.45043463925941
 30
0.0
  0
VERTEX
  5
1DE3
  8
0
 10
303.96211993797681
 20
372.1316892220259
 30
0.0
  0
VERTEX
  5
1DE4
  8
0
 10
304.32310065642719
 20
371.80399498390818
 30
0.0
  0
VERTEX
  5
1DE5
  8
0
 10
304.50055078076377
 20
371.63685341677359
 30
0.0
  0
VERTEX
  5
1DE6
  8
0
 10
304.67593841683839
 20
371.46754893834742
 30
0.0
  0
VERTEX
  5
1DE7
  8
0
 10
305.0204210892025
 20
371.12255336046928
 30
0.0
  0
VERTEX
  5
1DE8
  8
0
 10
305.35634156668391
 20
370.76921566547389
 30
0.0
  0
VERTEX
  5
1DE9
  8
0
 10
305.68349789013411
 20
370.40774828393569
 30
0.0
  0
VERTEX
  5
1DEA
  8
0
 10
306.0016933695124
 20
370.03836853408723
 30
0.0
  0
VERTEX
  5
1DEB
  8
0
 10
306.31073670213772
 20
369.66129849116561
 30
0.0
  0
VERTEX
  5
1DEC
  8
0
 10
306.46176803280781
 20
369.46995027625769
 30
0.0
  0
VERTEX
  5
1DED
  8
0
 10
306.61044208770159
 20
369.2767648538981
 30
0.0
  0
VERTEX
  5
1DEE
  8
0
 10
306.90062933997427
 20
368.88499880820848
 30
0.0
  0
VERTEX
  5
1DEF
  8
0
 10
307.18112399513399
 20
368.48623588822522
 30
0.0
  0
VERTEX
  5
1DF0
  8
0
 10
307.45175741665668
 20
368.0807158346758
 30
0.0
  0
VERTEX
  5
1DF1
  8
0
 10
307.71236689670252
 20
367.66868245075239
 30
0.0
  0
VERTEX
  5
1DF2
  8
0
 10
307.96279575393692
 20
367.25038345553372
 30
0.0
  0
VERTEX
  5
1DF3
  8
0
 10
308.08414515721239
 20
367.03896280004687
 30
0.0
  0
VERTEX
  5
1DF4
  8
0
 10
308.20289342772998
 20
366.82607033505428
 30
0.0
  0
VERTEX
  5
1DF5
  8
0
 10
308.432515568675
 20
366.39599819110811
 30
0.0
  0
VERTEX
  5
1DF6
  8
0
 10
308.6515241253723
 20
365.96042558787838
 30
0.0
  0
VERTEX
  5
1DF7
  8
0
 10
308.8597874274281
 20
365.51961439648608
 30
0.0
  0
VERTEX
  5
1DF8
  8
0
 10
309.05718026461579
 20
365.07382963754969
 30
0.0
  0
VERTEX
  5
1DF9
  8
0
 10
309.24358396215382
 20
364.6233393218526
 30
0.0
  0
VERTEX
  5
1DFA
  8
0
 10
309.3326296023605
 20
364.3964141115934
 30
0.0
  0
VERTEX
  5
1DFB
  8
0
 10
309.41888645205438
 20
364.16841428921111
 30
0.0
  0
VERTEX
  5
1DFC
  8
0
 10
309.58298234049983
 20
363.70932804564302
 30
0.0
  0
VERTEX
  5
1DFD
  8
0
 10
309.73577297120659
 20
363.246356598933
 30
0.0
  0
VERTEX
  5
1DFE
  8
0
 10
309.87716648473861
 20
362.77977829269292
 30
0.0
  0
VERTEX
  5
1DFF
  8
0
 10
310.00707787373392
 20
362.30987363901909
 30
0.0
  0
VERTEX
  5
1E00
  8
0
 10
310.1254290340126
 20
361.8369251498454
 30
0.0
  0
VERTEX
  5
1E01
  8
0
 10
310.1802470200571
 20
361.59939825697978
 30
0.0
  0
VERTEX
  5
1E02
  8
0
 10
310.23214881153319
 20
361.361217167093
 30
0.0
  0
VERTEX
  5
1E03
  8
0
 10
310.32717304517189
 20
360.883035691722
 30
0.0
  0
VERTEX
  5
1E04
  8
0
 10
310.41044460529668
 20
360.40266821178398
 30
0.0
  0
VERTEX
  5
1E05
  8
0
 10
310.48191342811418
 20
359.9204035295806
 30
0.0
  0
VERTEX
  5
1E06
  8
0
 10
310.54153654576862
 20
359.43653158803272
 30
0.0
  0
VERTEX
  5
1E07
  8
0
 10
310.5892781121749
 20
358.95134329636369
 30
0.0
  0
VERTEX
  5
1E08
  8
0
 10
310.60868406450908
 20
358.70834664955839
 30
0.0
  0
VERTEX
  5
1E09
  8
0
 10
310.62510942456942
 20
358.46513035520138
 30
0.0
  0
VERTEX
  5
1E0A
  8
0
 10
310.64900894076612
 20
357.97818508120417
 30
0.0
  0
VERTEX
  5
1E0B
  8
0
 10
310.66096229210882
 20
357.49080023131722
 30
0.0
  0
VERTEX
  5
1E0C
  8
0
 10
310.66245662948103
 20
357.24703452904032
 30
0.0
  0
VERTEX
  5
1E0D
  8
0
 10
310.66096229210882
 20
357.00326882676347
 30
0.0
  0
VERTEX
  5
1E0E
  8
0
 10
310.64900894076612
 20
356.51588397687652
 30
0.0
  0
VERTEX
  5
1E0F
  8
0
 10
310.62510942456942
 20
356.0289387028792
 30
0.0
  0
VERTEX
  5
1E10
  8
0
 10
310.60868406450908
 20
355.7857224085223
 30
0.0
  0
VERTEX
  5
1E11
  8
0
 10
310.5892781121749
 20
355.54272576171689
 30
0.0
  0
VERTEX
  5
1E12
  8
0
 10
310.54153654576862
 20
355.05753747004792
 30
0.0
  0
VERTEX
  5
1E13
  8
0
 10
310.48191342811418
 20
354.5736655285001
 30
0.0
  0
VERTEX
  5
1E14
  8
0
 10
310.41044460529668
 20
354.09140084629672
 30
0.0
  0
VERTEX
  5
1E15
  8
0
 10
310.32717304517189
 20
353.61103336635858
 30
0.0
  0
VERTEX
  5
1E16
  8
0
 10
310.23214881153319
 20
353.13285189098769
 30
0.0
  0
VERTEX
  5
1E17
  8
0
 10
310.18024702005698
 20
352.8946708011008
 30
0.0
  0
VERTEX
  5
1E18
  8
0
 10
310.1254290340126
 20
352.6571439082353
 30
0.0
  0
VERTEX
  5
1E19
  8
0
 10
310.00707787373392
 20
352.1841954190615
 30
0.0
  0
VERTEX
  5
1E1A
  8
0
 10
309.87716648473861
 20
351.71429076538777
 30
0.0
  0
VERTEX
  5
1E1B
  8
0
 10
309.73577297120659
 20
351.24771245914769
 30
0.0
  0
VERTEX
  5
1E1C
  8
0
 10
309.58298234049983
 20
350.78474101243762
 30
0.0
  0
VERTEX
  5
1E1D
  8
0
 10
309.41888645205438
 20
350.32565476886953
 30
0.0
  0
VERTEX
  5
1E1E
  8
0
 10
309.3326296023605
 20
350.09765494648718
 30
0.0
  0
VERTEX
  5
1E1F
  8
0
 10
309.24358396215382
 20
349.87072973622799
 30
0.0
  0
VERTEX
  5
1E20
  8
0
 10
309.05718026461579
 20
349.42023942053078
 30
0.0
  0
VERTEX
  5
1E21
  8
0
 10
308.8597874274281
 20
348.97445466159462
 30
0.0
  0
VERTEX
  5
1E22
  8
0
 10
308.6515241253723
 20
348.53364347020232
 30
0.0
  0
VERTEX
  5
1E23
  8
0
 10
308.432515568675
 20
348.09807086697248
 30
0.0
  0
VERTEX
  5
1E24
  8
0
 10
308.20289342772998
 20
347.66799872302641
 30
0.0
  0
VERTEX
  5
1E25
  8
0
 10
308.08414515721239
 20
347.45510625803382
 30
0.0
  0
VERTEX
  5
1E26
  8
0
 10
307.96279575393692
 20
347.24368560254698
 30
0.0
  0
VERTEX
  5
1E27
  8
0
 10
307.71236689670252
 20
346.82538660732831
 30
0.0
  0
VERTEX
  5
1E28
  8
0
 10
307.45175741665668
 20
346.41335322340478
 30
0.0
  0
VERTEX
  5
1E29
  8
0
 10
307.18112399513399
 20
346.00783316985542
 30
0.0
  0
VERTEX
  5
1E2A
  8
0
 10
306.90062933997427
 20
345.6090702498721
 30
0.0
  0
VERTEX
  5
1E2B
  8
0
 10
306.61044208770159
 20
345.21730420418248
 30
0.0
  0
VERTEX
  5
1E2C
  8
0
 10
306.46176803280781
 20
345.02411878182289
 30
0.0
  0
VERTEX
  5
1E2D
  8
0
 10
306.31073670213772
 20
344.83277056691509
 30
0.0
  0
VERTEX
  5
1E2E
  8
0
 10
306.0016933695124
 20
344.45570052399341
 30
0.0
  0
VERTEX
  5
1E2F
  8
0
 10
305.68349789013411
 20
344.08632077414501
 30
0.0
  0
VERTEX
  5
1E30
  8
0
 10
305.35634156668391
 20
343.72485339260669
 30
0.0
  0
VERTEX
  5
1E31
  8
0
 10
305.0204210892025
 20
343.37151569761141
 30
0.0
  0
VERTEX
  5
1E32
  8
0
 10
304.67593841683839
 20
343.02652011973328
 30
0.0
  0
VERTEX
  5
1E33
  8
0
 10
304.50055078076377
 20
342.85721564130699
 30
0.0
  0
VERTEX
  5
1E34
  8
0
 10
304.32310065642719
 20
342.69007407417251
 30
0.0
  0
VERTEX
  5
1E35
  8
0
 10
303.96211993797681
 20
342.36237983605469
 30
0.0
  0
VERTEX
  5
1E36
  8
0
 10
303.5932132871327
 20
342.04363441882128
 30
0.0
  0
VERTEX
  5
1E37
  8
0
 10
303.40585686417722
 20
341.88767761677963
 30
0.0
  0
VERTEX
  5
1E38
  8
0
 10
303.21660249469937
 20
341.73402945578198
 30
0.0
  0
VERTEX
  5
1E39
  8
0
 10
302.83251398329799
 20
341.43375108490352
 30
0.0
  0
VERTEX
  5
1E3A
  8
0
 10
302.4411786712372
 20
341.14297983690108
 30
0.0
  0
VERTEX
  5
1E3B
  8
0
 10
302.24286682210959
 20
341.00121423981352
 30
0.0
  0
VERTEX
  5
1E3C
  8
0
 10
302.04283183368381
 20
340.86189052670107
 30
0.0
  0
VERTEX
  5
1E3D
  8
0
 10
301.637712961212
 20
340.59065214834101
 30
0.0
  0
VERTEX
  5
1E3E
  8
0
 10
301.2260656158191
 20
340.3294277733674
 30
0.0
  0
VERTEX
  5
1E3F
  8
0
 10
300.80813728449328
 20
340.0783744527966
 30
0.0
  0
VERTEX
  5
1E40
  8
0
 10
300.38417923042198
 20
339.8376431226925
 30
0.0
  0
VERTEX
  5
1E41
  8
0
 10
299.9544463419291
 20
339.60737851342361
 30
0.0
  0
VERTEX
  5
1E42
  8
0
 10
299.73749494095551
 20
339.49621473898151
 30
0.0
  0
VERTEX
  5
1E43
  8
0
 10
299.51919697923358
 20
339.38771906264839
 30
0.0
  0
VERTEX
  5
1E44
  8
0
 10
299.07869281912082
 20
339.17879683208548
 30
0.0
  0
VERTEX
  5
1E45
  8
0
 10
298.63319869761858
 20
338.98073742811692
 30
0.0
  0
VERTEX
  5
1E46
  8
0
 10
298.18298245077563
 20
338.79365992627118
 30
0.0
  0
VERTEX
  5
1E47
  8
0
 10
297.72831475363512
 20
338.61767679963521
 30
0.0
  0
VERTEX
  5
1E48
  8
0
 10
297.26946895750177
 20
338.45289385123289
 30
0.0
  0
VERTEX
  5
1E49
  8
0
 10
297.03856538597398
 20
338.37473366773241
 30
0.0
  0
VERTEX
  5
1E4A
  8
0
 10
296.80672092560081
 20
338.29941015041601
 30
0.0
  0
VERTEX
  5
1E4B
  8
0
 10
296.34034886722441
 20
338.15731797330199
 30
0.0
  0
VERTEX
  5
1E4C
  8
0
 10
295.87063317047051
 20
338.02670274729712
 30
0.0
  0
VERTEX
  5
1E4D
  8
0
 10
295.63460963329021
 20
337.96572380160632
 30
0.0
  0
SEQEND
  5
1E4E
  8
0
  0
ARC
  5
1B56
  8
0
 10
290.88511734658192
 20
357.24703452904032
 30
0.0
 40
21.925195340235149
 50
59.925114392074427
 51
300.07488560792552
  0
CIRCLE
  5
1B58
  8
0
 10
290.88511734658192
 20
357.24703452904032
 30
0.0
 40
19.431238563255139
  0
LINE
  5
1B60
  8
1
 10
259.72381805545729
 20
357.24703452904021
 30
0.0
 11
478.42697537682938
 21
357.24703452904021
 31
0.0
  0
LINE
  5
1B61
  8
1
 10
290.88511734658192
 20
325.01250979505062
 30
0.0
 11
290.88511734658192
 21
385.93252613100549
 31
0.0
  0
POINT
  5
1B62
  8
0
 10
450.88511734658181
 20
357.24703452904032
 30
56.0
  0
POINT
  5
1B63
  8
0
 10
450.88511734658181
 20
357.24703452904032
 30
56.0
  0
LINE
  5
1B8D
  8
0
 10
597.62546321839807
 20
185.29819278015611
 30
0.0
 11
597.62546321839807
 21
184.9981927801561
 31
0.0
  0
LINE
  5
1B8E
  8
0
 10
611.50046321839818
 20
184.9981927801561
 30
0.0
 11
611.50046321839818
 21
185.29819278015611
 31
0.0
  0
LINE
  5
1B8F
  8
0
 10
595.31296321839818
 20
211.9981927801561
 30
0.0
 11
595.31296321839818
 21
185.29819278015611
 31
0.0
  0
LINE
  5
1B90
  8
0
 10
613.81296321839807
 20
185.29819278015611
 30
0.0
 11
613.81296321839807
 21
211.9981927801561
 31
0.0
  0
ARC
  5
1B91
  8
0
 10
613.81296321839807
 20
214.74819278015619
 30
0.0
 40
2.75
 50
270.0
 51
0.0
  0
ARC
  5
1B92
  8
0
 10
595.31296321839818
 20
214.74819278015619
 30
0.0
 40
2.7499999999999938
 50
180.0
 51
270.0
  0
LINE
  5
1B93
  8
0
 10
592.56296321839818
 20
252.99819278015619
 30
0.0
 11
592.56296321839818
 21
214.74819278015619
 31
0.0
  0
LINE
  5
1B94
  8
0
 10
616.56296321839807
 20
214.74819278015619
 30
0.0
 11
616.56296321839807
 21
252.99819278015619
 31
0.0
  0
ARC
  5
1B95
  8
0
 10
604.56296321839807
 20
252.99819278015619
 30
0.0
 40
12.000000000000011
 50
0.0
 51
180.0
  0
LINE
  5
1B9B
  8
0
 10
611.50046321839818
 20
184.9981927801561
 30
0.0
 11
597.62546321839807
 21
184.9981927801561
 31
0.0
  0
LINE
  5
1B9D
  8
0
 10
613.81296321839807
 20
185.29819278015611
 30
0.0
 11
595.31296321839818
 21
185.29819278015611
 31
0.0
  0
LINE
  5
1B9E
  8
0
 10
613.81296321839807
 20
211.9981927801561
 30
0.0
 11
595.31296321839818
 21
211.9981927801561
 31
0.0
  0
LINE
  5
1B9F
  8
0
 10
616.56296321839807
 20
214.74819278015619
 30
0.0
 11
592.56296321839818
 21
214.74819278015619
 31
0.0
  0
LINE
  5
1BA0
  8
0
 10
616.56296321839807
 20
252.99819278015619
 30
0.0
 11
592.56296321839818
 21
252.99819278015619
 31
0.0
  0
LINE
  5
1BA8
  8
1
 10
604.56296321839807
 20
115.24530994232759
 30
0.0
 11
604.56296321839807
 21
278.7676371296584
 31
0.0
  0
LINE
  5
1BAA
  8
0
 10
591.56296321839807
 20
129.19819278015609
 30
0.0
 11
591.56296321839807
 21
128.9981927801561
 31
0.0
  0
LINE
  5
1BAB
  8
0
 10
617.56296321839818
 20
128.9981927801561
 30
0.0
 11
617.56296321839818
 21
129.19819278015609
 31
0.0
  0
LINE
  5
1BAC
  8
0
 10
587.31296321839818
 20
143.9981927801561
 30
0.0
 11
587.31296321839818
 21
129.19819278015609
 31
0.0
  0
LINE
  5
1BAD
  8
0
 10
621.81296321839807
 20
129.19819278015609
 30
0.0
 11
621.81296321839807
 21
143.9981927801561
 31
0.0
  0
ARC
  5
1BAE
  8
0
 10
625.49059450837353
 20
144.9981927801561
 30
0.0
 40
1.00000000000001
 50
270.0
 51
3.9999999999993281
  0
ARC
  5
1BAF
  8
0
 10
583.63533192842283
 20
144.9981927801561
 30
0.0
 40
1.00000000000001
 50
176.00000000000071
 51
270.0
  0
LINE
  5
1BB0
  8
0
 10
587.89672465514309
 20
183.4981927801561
 30
0.0
 11
585.13172465514288
 21
180.7331927801562
 31
0.0
  0
LINE
  5
1BB1
  8
0
 10
623.99420178165337
 20
180.7331927801562
 30
0.0
 11
621.22920178165316
 21
183.4981927801561
 31
0.0
  0
LINE
  5
1BB4
  8
0
 10
585.13172465514288
 20
180.7331927801562
 30
0.0
 11
582.63776787816289
 21
145.0679492539002
 31
0.0
  0
LINE
  5
1BB5
  8
0
 10
626.48815855863336
 20
145.0679492539002
 30
0.0
 11
623.99420178165337
 21
180.7331927801562
 31
0.0
  0
LINE
  5
1BC0
  8
0
 10
615.97763990039448
 20
184.9981927801561
 30
0.0
 11
615.97763990039448
 21
163.82931489573261
 31
0.0
  0
POLYLINE
  5
1BC1
  8
0
 66
     1
 10
0.0
 20
0.0
 30
0.0
  0
VERTEX
  5
1E4F
  8
0
 10
593.14828653640177
 20
163.82931489573261
 30
0.0
  0
VERTEX
  5
1E50
  8
0
 10
593.15735579034879
 20
163.84645028094371
 30
0.0
  0
VERTEX
  5
1E51
  8
0
 10
593.18228279734626
 20
163.88067169487121
 30
0.0
  0
VERTEX
  5
1E52
  8
0
 10
593.21624389879992
 20
163.91480466813869
 30
0.0
  0
VERTEX
  5
1E53
  8
0
 10
593.23660408995374
 20
163.9318295189799
 30
0.0
  0
VERTEX
  5
1E54
  8
0
 10
593.25921213605784
 20
163.94882210566121
 30
0.0
  0
VERTEX
  5
1E55
  8
0
 10
593.31115340051701
 20
163.98269700406701
 30
0.0
  0
VERTEX
  5
1E56
  8
0
 10
593.37202646069807
 20
164.01640247313321
 30
0.0
  0
VERTEX
  5
1E57
  8
0
 10
593.44178299497571
 20
164.04991175713181
 30
0.0
  0
VERTEX
  5
1E58
  8
0
 10
593.52036762993635
 20
164.0831982560683
 30
0.0
  0
VERTEX
  5
1E59
  8
0
 10
593.60771798433552
 20
164.11623554679699
 30
0.0
  0
VERTEX
  5
1E5A
  8
0
 10
593.65465890805388
 20
164.1326525353725
 30
0.0
  0
VERTEX
  5
1E5B
  8
0
 10
593.70376471861425
 20
164.14899740399619
 30
0.0
  0
VERTEX
  5
1E5C
  8
0
 10
593.80843158994435
 20
164.1814578209862
 30
0.0
  0
VERTEX
  5
1E5D
  8
0
 10
593.92163551274837
 20
164.21359103037321
 30
0.0
  0
VERTEX
  5
1E5E
  8
0
 10
594.04328662465468
 20
164.24537152450389
 30
0.0
  0
VERTEX
  5
1E5F
  8
0
 10
594.17328835783155
 20
164.2767740757142
 30
0.0
  0
VERTEX
  5
1E60
  8
0
 10
594.31153751564239
 20
164.30777375635429
 30
0.0
  0
VERTEX
  5
1E61
  8
0
 10
594.38372083732611
 20
164.32311481723019
 30
0.0
  0
VERTEX
  5
1E62
  8
0
 10
594.45792435456565
 20
164.33834595857729
 30
0.0
  0
VERTEX
  5
1E63
  8
0
 10
594.61233267130933
 20
164.36846641387251
 30
0.0
  0
VERTEX
  5
1E64
  8
0
 10
594.77463989505463
 20
164.39811121233069
 30
0.0
  0
VERTEX
  5
1E65
  8
0
 10
594.85871557639325
 20
164.41274787113099
 30
0.0
  0
VERTEX
  5
1E66
  8
0
 10
594.94471718475336
 20
164.42725682162319
 30
0.0
  0
VERTEX
  5
1E67
  8
0
 10
595.12242953140446
 20
164.45588010568301
 30
0.0
  0
VERTEX
  5
1E68
  8
0
 10
595.30763586522414
 20
164.48395834306959
 30
0.0
  0
VERTEX
  5
1E69
  8
0
 10
595.40300356323053
 20
164.4977860866305
 30
0.0
  0
VERTEX
  5
1E6A
  8
0
 10
595.50018916762883
 20
164.51146924500591
 30
0.0
  0
VERTEX
  5
1E6B
  8
0
 10
595.69993658794033
 20
164.53839097307139
 30
0.0
  0
VERTEX
  5
1E6C
  8
0
 10
595.90671956471988
 20
164.56470215653709
 30
0.0
  0
VERTEX
  5
1E6D
  8
0
 10
596.12037395163543
 20
164.5903819093306
 30
0.0
  0
VERTEX
  5
1E6E
  8
0
 10
596.34073014776357
 20
164.61540984661519
 30
0.0
  0
VERTEX
  5
1E6F
  8
0
 10
596.56761323221929
 20
164.6397661009716
 30
0.0
  0
VERTEX
  5
1E70
  8
0
 10
596.68344627420288
 20
164.6516862838543
 30
0.0
  0
VERTEX
  5
1E71
  8
0
 10
596.80084310301049
 20
164.663431338169
 30
0.0
  0
VERTEX
  5
1E72
  8
0
 10
597.04023462000441
 20
164.68638677251249
 30
0.0
  0
VERTEX
  5
1E73
  8
0
 10
597.2855977518941
 20
164.70861418175599
 30
0.0
  0
VERTEX
  5
1E74
  8
0
 10
597.53673772704656
 20
164.73009592156629
 30
0.0
  0
VERTEX
  5
1E75
  8
0
 10
597.79345518811442
 20
164.75081493953019
 30
0.0
  0
VERTEX
  5
1E76
  8
0
 10
598.05554635028852
 20
164.7707547886904
 30
0.0
  0
VERTEX
  5
1E77
  8
0
 10
598.18854221564288
 20
164.7804275540723
 30
0.0
  0
VERTEX
  5
1E78
  8
0
 10
598.32280316306333
 20
164.78989964060131
 30
0.0
  0
VERTEX
  5
1E79
  8
0
 10
598.59501347538935
 20
164.80823429789379
 30
0.0
  0
VERTEX
  5
1E7A
  8
0
 10
598.87196120408169
 20
164.82574420633921
 30
0.0
  0
VERTEX
  5
1E7B
  8
0
 10
599.15342650534876
 20
164.8424154664024
 30
0.0
  0
VERTEX
  5
1E7C
  8
0
 10
599.43918594930483
 20
164.8582348442755
 30
0.0
  0
VERTEX
  5
1E7D
  8
0
 10
599.72901269733302
 20
164.87318978238309
 30
0.0
  0
VERTEX
  5
1E7E
  8
0
 10
599.87537953549145
 20
164.88033934965401
 30
0.0
  0
VERTEX
  5
1E7F
  8
0
 10
600.02267668215097
 20
164.88726840935021
 30
0.0
  0
VERTEX
  5
1E80
  8
0
 10
600.31994479044045
 20
164.90045954942619
 30
0.0
  0
VERTEX
  5
1E81
  8
0
 10
600.6205810478948
 20
164.91275273135639
 30
0.0
  0
VERTEX
  5
1E82
  8
0
 10
600.92434680653832
 20
164.92413819669369
 30
0.0
  0
VERTEX
  5
1E83
  8
0
 10
601.23100093416645
 20
164.93460690754529
 30
0.0
  0
VERTEX
  5
1E84
  8
0
 10
601.54030000576006
 20
164.94415055374699
 30
0.0
  0
VERTEX
  5
1E85
  8
0
 10
601.69586474580206
 20
164.9485730813015
 30
0.0
  0
VERTEX
  5
1E86
  8
0
 10
601.85199849671699
 20
164.95276155945999
 30
0.0
  0
VERTEX
  5
1E87
  8
0
 10
602.1658489777534
 20
164.96043308918439
 30
0.0
  0
VERTEX
  5
1E88
  8
0
 10
602.48160231131442
 20
164.96715905318561
 30
0.0
  0
VERTEX
  5
1E89
  8
0
 10
602.79900784934284
 20
164.9729341123282
 30
0.0
  0
VERTEX
  5
1E8A
  8
0
 10
603.11781363224486
 20
164.9777536823141
 30
0.0
  0
VERTEX
  5
1E8B
  8
0
 10
603.43776658889954
 20
164.98161393732209
 30
0.0
  0
VERTEX
  5
1E8C
  8
0
 10
603.59809391814747
 20
164.98318333429589
 30
0.0
  0
VERTEX
  5
1E8D
  8
0
 10
603.75861273754754
 20
164.98451181304429
 30
0.0
  0
VERTEX
  5
1E8E
  8
0
 10
604.08009738740566
 20
164.98644500911871
 30
0.0
  0
VERTEX
  5
1E8F
  8
0
 10
604.40196534084203
 20
164.98741199095579
 30
0.0
  0
VERTEX
  5
1E90
  8
0
 10
604.56296321839807
 20
164.98753288167899
 30
0.0
  0
VERTEX
  5
1E91
  8
0
 10
604.72396109595434
 20
164.98741199095579
 30
0.0
  0
VERTEX
  5
1E92
  8
0
 10
605.04582904939059
 20
164.98644500911871
 30
0.0
  0
VERTEX
  5
1E93
  8
0
 10
605.36731369924871
 20
164.98451181304429
 30
0.0
  0
VERTEX
  5
1E94
  8
0
 10
605.52783251864878
 20
164.98318333429589
 30
0.0
  0
VERTEX
  5
1E95
  8
0
 10
605.68815984789683
 20
164.98161393732209
 30
0.0
  0
VERTEX
  5
1E96
  8
0
 10
606.00811280455139
 20
164.9777536823141
 30
0.0
  0
VERTEX
  5
1E97
  8
0
 10
606.32691858745352
 20
164.9729341123282
 30
0.0
  0
VERTEX
  5
1E98
  8
0
 10
606.64432412548194
 20
164.96715905318561
 30
0.0
  0
VERTEX
  5
1E99
  8
0
 10
606.96007745904285
 20
164.96043308918439
 30
0.0
  0
VERTEX
  5
1E9A
  8
0
 10
607.27392794007926
 20
164.95276155945999
 30
0.0
  0
VERTEX
  5
1E9B
  8
0
 10
607.43006169099431
 20
164.9485730813015
 30
0.0
  0
VERTEX
  5
1E9C
  8
0
 10
607.58562643103608
 20
164.94415055374699
 30
0.0
  0
VERTEX
  5
1E9D
  8
0
 10
607.8949255026298
 20
164.93460690754529
 30
0.0
  0
VERTEX
  5
1E9E
  8
0
 10
608.20157963025804
 20
164.92413819669369
 30
0.0
  0
VERTEX
  5
1E9F
  8
0
 10
608.50534538890145
 20
164.91275273135639
 30
0.0
  0
VERTEX
  5
1EA0
  8
0
 10
608.8059816463558
 20
164.90045954942619
 30
0.0
  0
VERTEX
  5
1EA1
  8
0
 10
609.10324975464528
 20
164.88726840935021
 30
0.0
  0
VERTEX
  5
1EA2
  8
0
 10
609.2505469013048
 20
164.88033934965401
 30
0.0
  0
VERTEX
  5
1EA3
  8
0
 10
609.39691373946323
 20
164.87318978238309
 30
0.0
  0
VERTEX
  5
1EA4
  8
0
 10
609.68674048749153
 20
164.8582348442755
 30
0.0
  0
VERTEX
  5
1EA5
  8
0
 10
609.97249993144749
 20
164.8424154664024
 30
0.0
  0
VERTEX
  5
1EA6
  8
0
 10
610.25396523271445
 20
164.82574420633921
 30
0.0
  0
VERTEX
  5
1EA7
  8
0
 10
610.53091296140701
 20
164.80823429789379
 30
0.0
  0
VERTEX
  5
1EA8
  8
0
 10
610.80312327373304
 20
164.78989964060131
 30
0.0
  0
VERTEX
  5
1EA9
  8
0
 10
610.93738422115337
 20
164.7804275540723
 30
0.0
  0
VERTEX
  5
1EAA
  8
0
 10
611.07038008650773
 20
164.7707547886904
 30
0.0
  0
VERTEX
  5
1EAB
  8
0
 10
611.33247124868183
 20
164.75081493953019
 30
0.0
  0
VERTEX
  5
1EAC
  8
0
 10
611.58918870974981
 20
164.73009592156629
 30
0.0
  0
VERTEX
  5
1EAD
  8
0
 10
611.84032868490215
 20
164.70861418175599
 30
0.0
  0
VERTEX
  5
1EAE
  8
0
 10
612.08569181679195
 20
164.68638677251249
 30
0.0
  0
VERTEX
  5
1EAF
  8
0
 10
612.32508333378576
 20
164.663431338169
 30
0.0
  0
VERTEX
  5
1EB0
  8
0
 10
612.44248016259337
 20
164.6516862838543
 30
0.0
  0
VERTEX
  5
1EB1
  8
0
 10
612.55831320457696
 20
164.6397661009716
 30
0.0
  0
VERTEX
  5
1EB2
  8
0
 10
612.78519628903268
 20
164.61540984661519
 30
0.0
  0
VERTEX
  5
1EB3
  8
0
 10
613.00555248516093
 20
164.5903819093306
 30
0.0
  0
VERTEX
  5
1EB4
  8
0
 10
613.21920687207637
 20
164.56470215653709
 30
0.0
  0
VERTEX
  5
1EB5
  8
0
 10
613.42598984885603
 20
164.53839097307139
 30
0.0
  0
VERTEX
  5
1EB6
  8
0
 10
613.62573726916753
 20
164.51146924500591
 30
0.0
  0
VERTEX
  5
1EB7
  8
0
 10
613.72292287356584
 20
164.4977860866305
 30
0.0
  0
VERTEX
  5
1EB8
  8
0
 10
613.81829057157222
 20
164.48395834306959
 30
0.0
  0
VERTEX
  5
1EB9
  8
0
 10
614.00349690539167
 20
164.45588010568301
 30
0.0
  0
VERTEX
  5
1EBA
  8
0
 10
614.18120925204289
 20
164.42725682162319
 30
0.0
  0
VERTEX
  5
1EBB
  8
0
 10
614.26721086040311
 20
164.41274787113099
 30
0.0
  0
VERTEX
  5
1EBC
  8
0
 10
614.35128654174173
 20
164.39811121233069
 30
0.0
  0
VERTEX
  5
1EBD
  8
0
 10
614.51359376548703
 20
164.36846641387251
 30
0.0
  0
VERTEX
  5
1EBE
  8
0
 10
614.6680020822306
 20
164.33834595857729
 30
0.0
  0
VERTEX
  5
1EBF
  8
0
 10
614.74220559947025
 20
164.32311481723019
 30
0.0
  0
VERTEX
  5
1EC0
  8
0
 10
614.81438892115386
 20
164.30777375635429
 30
0.0
  0
VERTEX
  5
1EC1
  8
0
 10
614.95263807896481
 20
164.2767740757142
 30
0.0
  0
VERTEX
  5
1EC2
  8
0
 10
615.08263981214157
 20
164.24537152450389
 30
0.0
  0
VERTEX
  5
1EC3
  8
0
 10
615.20429092404788
 20
164.21359103037321
 30
0.0
  0
VERTEX
  5
1EC4
  8
0
 10
615.31749484685179
 20
164.1814578209862
 30
0.0
  0
VERTEX
  5
1EC5
  8
0
 10
615.422161718182
 20
164.14899740399619
 30
0.0
  0
VERTEX
  5
1EC6
  8
0
 10
615.47126752874237
 20
164.1326525353725
 30
0.0
  0
VERTEX
  5
1EC7
  8
0
 10
615.51820845246084
 20
164.11623554679699
 30
0.0
  0
VERTEX
  5
1EC8
  8
0
 10
615.6055588068599
 20
164.0831982560683
 30
0.0
  0
VERTEX
  5
1EC9
  8
0
 10
615.68414344182065
 20
164.04991175713181
 30
0.0
  0
VERTEX
  5
1ECA
  8
0
 10
615.75389997609818
 20
164.01640247313321
 30
0.0
  0
VERTEX
  5
1ECB
  8
0
 10
615.81477303627935
 20
163.98269700406701
 30
0.0
  0
VERTEX
  5
1ECC
  8
0
 10
615.86671430073841
 20
163.94882210566121
 30
0.0
  0
VERTEX
  5
1ECD
  8
0
 10
615.8893223468425
 20
163.9318295189799
 30
0.0
  0
VERTEX
  5
1ECE
  8
0
 10
615.90968253799645
 20
163.91480466813869
 30
0.0
  0
VERTEX
  5
1ECF
  8
0
 10
615.94364363944976
 20
163.88067169487121
 30
0.0
  0
VERTEX
  5
1ED0
  8
0
 10
615.96857064644735
 20
163.84645028094371
 30
0.0
  0
VERTEX
  5
1ED1
  8
0
 10
615.97763990039448
 20
163.82931489573261
 30
0.0
  0
SEQEND
  5
1ED2
  8
0
  0
LINE
  5
1BC2
  8
0
 10
615.97763990039448
 20
163.82931489573261
 30
0.0
 11
623.5547071271626
 21
147.4644064377627
 31
0.0
  0
LINE
  5
1BC3
  8
0
 10
617.41068431410747
 20
184.59819278015621
 30
0.0
 11
617.41068431410747
 21
184.9981927801561
 31
0.0
  0
LINE
  5
1BC4
  8
0
 10
591.71524212268878
 20
184.9981927801561
 30
0.0
 11
591.71524212268878
 21
184.59819278015621
 31
0.0
  0
LINE
  5
1BC5
  8
0
 10
617.41068431410747
 20
184.9981927801561
 30
0.0
 11
591.71524212268878
 21
184.9981927801561
 31
0.0
  0
LINE
  5
1BC6
  8
0
 10
593.14828653640177
 20
184.9981927801561
 30
0.0
 11
593.14828653640177
 21
163.82931489573261
 31
0.0
  0
LINE
  5
1BC7
  8
0
 10
585.57121930963365
 20
147.4644064377627
 30
0.0
 11
593.14828653640177
 21
163.82931489573261
 31
0.0
  0
LINE
  5
1BC8
  8
0
 10
623.84427394583236
 20
174.63509664920389
 30
0.0
 11
617.41068431410747
 21
184.59819278015621
 31
0.0
  0
LINE
  5
1BCA
  8
0
 10
591.71524212268878
 20
184.59819278015621
 30
0.0
 11
585.28165249096389
 21
174.63509664920389
 31
0.0
  0
LINE
  5
1BCB
  8
0
 10
617.56296321839818
 20
128.9981927801561
 30
0.0
 11
591.56296321839807
 21
128.9981927801561
 31
0.0
  0
LINE
  5
1BCC
  8
0
 10
621.81296321839807
 20
129.19819278015609
 30
0.0
 11
587.31296321839818
 21
129.19819278015609
 31
0.0
  0
LINE
  5
1BCD
  8
0
 10
625.49059450837353
 20
143.9981927801561
 30
0.0
 11
583.63533192842283
 21
143.9981927801561
 31
0.0
  0
LINE
  5
1BCF
  8
0
 10
621.22920178165316
 20
183.4981927801561
 30
0.0
 11
618.13479468675916
 21
183.4981927801561
 31
0.0
  0
LINE
  5
1BD0
  8
0
 10
590.99113175003708
 20
183.4981927801561
 30
0.0
 11
587.89672465514309
 21
183.4981927801561
 31
0.0
  0
POLYLINE
  5
1BD1
  8
0
 66
     1
 10
0.0
 20
0.0
 30
0.0
  0
VERTEX
  5
1ED3
  8
0
 10
623.5547071271626
 20
147.4644064377627
 30
0.0
  0
VERTEX
  5
1ED4
  8
0
 10
623.60607446948893
 20
153.79292486530119
 30
0.0
  0
VERTEX
  5
1ED5
  8
0
 10
623.70450990845939
 20
164.1878542510392
 30
0.0
  0
VERTEX
  5
1ED6
  8
0
 10
623.75978819882062
 20
168.95255791592379
 30
0.0
  0
VERTEX
  5
1ED7
  8
0
 10
623.77534477839356
 20
170.1468679619629
 30
0.0
  0
VERTEX
  5
1ED8
  8
0
 10
623.79080743799409
 20
171.26864150162379
 30
0.0
  0
VERTEX
  5
1ED9
  8
0
 10
623.79850545220495
 20
171.80258881727971
 30
0.0
  0
VERTEX
  5
1EDA
  8
0
 10
623.80618225775424
 20
172.31870884656601
 30
0.0
  0
VERTEX
  5
1EDB
  8
0
 10
623.82147520867511
 20
173.29784281666039
 30
0.0
  0
VERTEX
  5
1EDC
  8
0
 10
623.83669216072008
 20
174.20676018863401
 30
0.0
  0
VERTEX
  5
1EDD
  8
0
 10
623.84427394583236
 20
174.63509664920389
 30
0.0
  0
SEQEND
  5
1EDE
  8
0
  0
POLYLINE
  5
1BD3
  8
0
 66
     1
 10
0.0
 20
0.0
 30
0.0
  0
VERTEX
  5
1EDF
  8
0
 10
585.28165249096389
 20
174.63509664920389
 30
0.0
  0
VERTEX
  5
1EE0
  8
0
 10
585.28923427607617
 20
174.20676018863401
 30
0.0
  0
VERTEX
  5
1EE1
  8
0
 10
585.30445122812125
 20
173.29784281666051
 30
0.0
  0
VERTEX
  5
1EE2
  8
0
 10
585.319744179042
 20
172.3187088465661
 30
0.0
  0
VERTEX
  5
1EE3
  8
0
 10
585.32742098459119
 20
171.8025888172798
 30
0.0
  0
VERTEX
  5
1EE4
  8
0
 10
585.33511899880216
 20
171.2686415016239
 30
0.0
  0
VERTEX
  5
1EE5
  8
0
 10
585.35058165840269
 20
170.14686796196301
 30
0.0
  0
VERTEX
  5
1EE6
  8
0
 10
585.36613823797575
 20
168.9525579159239
 30
0.0
  0
VERTEX
  5
1EE7
  8
0
 10
585.42141652833686
 20
164.18785425103931
 30
0.0
  0
VERTEX
  5
1EE8
  8
0
 10
585.51985196730743
 20
153.79292486530119
 30
0.0
  0
VERTEX
  5
1EE9
  8
0
 10
585.57121930963365
 20
147.4644064377627
 30
0.0
  0
SEQEND
  5
1EEA
  8
0
  0
POLYLINE
  5
1BD4
  8
0
 66
     1
 10
0.0
 20
0.0
 30
0.0
  0
VERTEX
  5
1EEB
  8
0
 10
585.57121930963365
 20
147.4644064377627
 30
0.0
  0
VERTEX
  5
1EEC
  8
0
 10
585.67737417382739
 20
147.48412029498789
 30
0.0
  0
VERTEX
  5
1EED
  8
0
 10
585.89507562162873
 20
147.52321182898541
 30
0.0
  0
VERTEX
  5
1EEE
  8
0
 10
586.11989655505135
 20
147.5618427164529
 30
0.0
  0
VERTEX
  5
1EEF
  8
0
 10
586.23495013988213
 20
147.5809808066912
 30
0.0
  0
VERTEX
  5
1EF0
  8
0
 10
586.35175123277088
 20
147.5999982244941
 30
0.0
  0
VERTEX
  5
1EF1
  8
0
 10
586.59055123096164
 20
147.63766380151131
 30
0.0
  0
VERTEX
  5
1EF2
  8
0
 10
586.83620547701855
 20
147.67482508275481
 30
0.0
  0
VERTEX
  5
1EF3
  8
0
 10
587.08862028429053
 20
147.71146789580109
 30
0.0
  0
VERTEX
  5
1EF4
  8
0
 10
587.34769938780983
 20
147.7475782659582
 30
0.0
  0
VERTEX
  5
1EF5
  8
0
 10
587.61334398100644
 20
147.78314242159499
 30
0.0
  0
VERTEX
  5
1EF6
  8
0
 10
587.74859677346444
 20
147.80071542215219
 30
0.0
  0
VERTEX
  5
1EF7
  8
0
 10
587.88545275338879
 20
147.81814679939359
 30
0.0
  0
VERTEX
  5
1EF8
  8
0
 10
588.16392192918261
 20
147.85257804952181
 30
0.0
  0
VERTEX
  5
1EF9
  8
0
 10
588.44864530690779
 20
147.88642304072491
 30
0.0
  0
VERTEX
  5
1EFA
  8
0
 10
588.73951429988108
 20
147.91966886533299
 30
0.0
  0
VERTEX
  5
1EFB
  8
0
 10
589.0364179776293
 20
147.95230284418409
 30
0.0
  0
VERTEX
  5
1EFC
  8
0
 10
589.33924310819407
 20
147.98431253145981
 30
0.0
  0
VERTEX
  5
1EFD
  8
0
 10
589.49284021459334
 20
148.00007944141319
 30
0.0
  0
VERTEX
  5
1EFE
  8
0
 10
589.64787420131711
 20
148.0156857194311
 30
0.0
  0
VERTEX
  5
1EFF
  8
0
 10
589.96219355248456
 20
148.04641044311501
 30
0.0
  0
VERTEX
  5
1F00
  8
0
 10
590.28208128781762
 20
148.07647498483701
 30
0.0
  0
VERTEX
  5
1F01
  8
0
 10
590.44407525700694
 20
148.09125609441429
 30
0.0
  0
VERTEX
  5
1F02
  8
0
 10
590.60741540978836
 20
148.10586787870039
 30
0.0
  0
VERTEX
  5
1F03
  8
0
 10
590.93807184374805
 20
148.13457791495881
 30
0.0
  0
VERTEX
  5
1F04
  8
0
 10
591.27392448524495
 20
148.16259414429129
 30
0.0
  0
VERTEX
  5
1F05
  8
0
 10
591.44375943297439
 20
148.17633873193739
 30
0.0
  0
VERTEX
  5
1F06
  8
0
 10
591.61484524811817
 20
148.1899058819786
 30
0.0
  0
VERTEX
  5
1F07
  8
0
 10
591.96070411334699
 20
148.21650271197731
 30
0.0
  0
VERTEX
  5
1F08
  8
0
 10
592.31136917863603
 20
148.24237449089301
 30
0.0
  0
VERTEX
  5
1F09
  8
0
 10
592.66670670872065
 20
148.26751135184841
 30
0.0
  0
VERTEX
  5
1F0A
  8
0
 10
593.02658118636998
 20
148.291903708246
 30
0.0
  0
VERTEX
  5
1F0B
  8
0
 10
593.39085536406947
 20
148.31554225742491
 30
0.0
  0
VERTEX
  5
1F0C
  8
0
 10
593.57459899033358
 20
148.32707602574001
 30
0.0
  0
VERTEX
  5
1F0D
  8
0
 10
593.75939031636494
 20
148.33841798420809
 30
0.0
  0
VERTEX
  5
1F0E
  8
0
 10
594.13204549284387
 20
148.36052216434089
 30
0.0
  0
VERTEX
  5
1F0F
  8
0
 10
594.50867877173982
 20
148.3818463678177
 30
0.0
  0
VERTEX
  5
1F10
  8
0
 10
594.88914651413234
 20
148.40238246209771
 30
0.0
  0
VERTEX
  5
1F11
  8
0
 10
595.27330361872885
 20
148.42212261520601
 30
0.0
  0
VERTEX
  5
1F12
  8
0
 10
595.66100357720234
 20
148.44105929872049
 30
0.0
  0
VERTEX
  5
1F13
  8
0
 10
595.85613597179463
 20
148.45022407045991
 30
0.0
  0
VERTEX
  5
1F14
  8
0
 10
596.05209853006613
 20
148.45918529064321
 30
0.0
  0
VERTEX
  5
1F15
  8
0
 10
596.44643932306349
 20
148.47649367815461
 30
0.0
  0
VERTEX
  5
1F16
  8
0
 10
596.8438755640525
 20
148.49297786024991
 30
0.0
  0
VERTEX
  5
1F17
  8
0
 10
597.24425568036099
 20
148.5086315502565
 30
0.0
  0
VERTEX
  5
1F18
  8
0
 10
597.64742697659358
 20
148.52344877823151
 30
0.0
  0
VERTEX
  5
1F19
  8
0
 10
598.05323569286531
 20
148.53742389323881
 30
0.0
  0
VERTEX
  5
1F1A
  8
0
 10
598.25708075690363
 20
148.54409398022329
 30
0.0
  0
VERTEX
  5
1F1B
  8
0
 10
598.46152706344253
 20
148.55055156550401
 30
0.0
  0
VERTEX
  5
1F1C
  8
0
 10
598.87214537576665
 20
148.5628267884469
 30
0.0
  0
VERTEX
  5
1F1D
  8
0
 10
599.28493402983895
 20
148.57424488059129
 30
0.0
  0
VERTEX
  5
1F1E
  8
0
 10
599.69973559794494
 20
148.58480148735009
 30
0.0
  0
VERTEX
  5
1F1F
  8
0
 10
600.11639188469189
 20
148.59449258268609
 30
0.0
  0
VERTEX
  5
1F20
  8
0
 10
600.53474398734249
 20
148.60331447064729
 30
0.0
  0
VERTEX
  5
1F21
  8
0
 10
600.74450613401984
 20
148.60739839748459
 30
0.0
  0
VERTEX
  5
1F22
  8
0
 10
600.95463235641569
 20
148.61126378677679
 30
0.0
  0
VERTEX
  5
1F23
  8
0
 10
601.37589685653495
 20
148.61833749939581
 30
0.0
  0
VERTEX
  5
1F24
  8
0
 10
601.79837682750087
 20
148.6245329107594
 30
0.0
  0
VERTEX
  5
1F25
  8
0
 10
602.22191114556165
 20
148.62984765808599
 30
0.0
  0
VERTEX
  5
1F26
  8
0
 10
602.64633828486353
 20
148.63427971445819
 30
0.0
  0
VERTEX
  5
1F27
  8
0
 10
603.07149637905172
 20
148.6378273895956
 30
0.0
  0
VERTEX
  5
1F28
  8
0
 10
603.2842988730763
 20
148.6392691481993
 30
0.0
  0
VERTEX
  5
1F29
  8
0
 10
603.49722328300265
 20
148.64048933050009
 30
0.0
  0
VERTEX
  5
1F2A
  8
0
 10
603.92335663466292
 20
148.64226452197079
 30
0.0
  0
VERTEX
  5
1F2B
  8
0
 10
604.34973391696872
 20
148.64315228699229
 30
0.0
  0
VERTEX
  5
1F2C
  8
0
 10
604.56296321839807
 20
148.6432632655559
 30
0.0
  0
VERTEX
  5
1F2D
  8
0
 10
604.77619251982765
 20
148.64315228699229
 30
0.0
  0
VERTEX
  5
1F2E
  8
0
 10
605.20256980213344
 20
148.64226452197079
 30
0.0
  0
VERTEX
  5
1F2F
  8
0
 10
605.62870315379359
 20
148.64048933050009
 30
0.0
  0
VERTEX
  5
1F30
  8
0
 10
605.84162756371995
 20
148.6392691481993
 30
0.0
  0
VERTEX
  5
1F31
  8
0
 10
606.05443005774464
 20
148.6378273895956
 30
0.0
  0
VERTEX
  5
1F32
  8
0
 10
606.47958815193283
 20
148.63427971445819
 30
0.0
  0
VERTEX
  5
1F33
  8
0
 10
606.9040152912346
 20
148.62984765808599
 30
0.0
  0
VERTEX
  5
1F34
  8
0
 10
607.32754960929549
 20
148.6245329107594
 30
0.0
  0
VERTEX
  5
1F35
  8
0
 10
607.7500295802613
 20
148.61833749939581
 30
0.0
  0
VERTEX
  5
1F36
  8
0
 10
608.17129408038056
 20
148.61126378677679
 30
0.0
  0
VERTEX
  5
1F37
  8
0
 10
608.38142030277629
 20
148.60739839748459
 30
0.0
  0
VERTEX
  5
1F38
  8
0
 10
608.59118244945387
 20
148.60331447064729
 30
0.0
  0
VERTEX
  5
1F39
  8
0
 10
609.00953455210436
 20
148.59449258268609
 30
0.0
  0
VERTEX
  5
1F3A
  8
0
 10
609.42619083885143
 20
148.58480148735009
 30
0.0
  0
VERTEX
  5
1F3B
  8
0
 10
609.8409924069573
 20
148.57424488059129
 30
0.0
  0
VERTEX
  5
1F3C
  8
0
 10
610.2537810610296
 20
148.5628267884469
 30
0.0
  0
VERTEX
  5
1F3D
  8
0
 10
610.66439937335383
 20
148.55055156550401
 30
0.0
  0
VERTEX
  5
1F3E
  8
0
 10
610.86884567989273
 20
148.54409398022329
 30
0.0
  0
VERTEX
  5
1F3F
  8
0
 10
611.07269074393105
 20
148.53742389323881
 30
0.0
  0
VERTEX
  5
1F40
  8
0
 10
611.47849946020267
 20
148.52344877823151
 30
0.0
  0
VERTEX
  5
1F41
  8
0
 10
611.88167075643526
 20
148.5086315502565
 30
0.0
  0
VERTEX
  5
1F42
  8
0
 10
612.28205087274375
 20
148.49297786024991
 30
0.0
  0
VERTEX
  5
1F43
  8
0
 10
612.67948711373276
 20
148.47649367815461
 30
0.0
  0
VERTEX
  5
1F44
  8
0
 10
613.07382790673034
 20
148.45918529064321
 30
0.0
  0
VERTEX
  5
1F45
  8
0
 10
613.26979046500185
 20
148.45022407045991
 30
0.0
  0
VERTEX
  5
1F46
  8
0
 10
613.46492285959391
 20
148.44105929872049
 30
0.0
  0
VERTEX
  5
1F47
  8
0
 10
613.85262281806763
 20
148.42212261520601
 30
0.0
  0
VERTEX
  5
1F48
  8
0
 10
614.23677992266414
 20
148.40238246209771
 30
0.0
  0
VERTEX
  5
1F49
  8
0
 10
614.61724766505665
 20
148.3818463678177
 30
0.0
  0
VERTEX
  5
1F4A
  8
0
 10
614.99388094395238
 20
148.36052216434089
 30
0.0
  0
VERTEX
  5
1F4B
  8
0
 10
615.36653612043142
 20
148.33841798420809
 30
0.0
  0
VERTEX
  5
1F4C
  8
0
 10
615.55132744646266
 20
148.32707602574001
 30
0.0
  0
VERTEX
  5
1F4D
  8
0
 10
615.7350710727269
 20
148.31554225742491
 30
0.0
  0
VERTEX
  5
1F4E
  8
0
 10
616.09934525042638
 20
148.291903708246
 30
0.0
  0
VERTEX
  5
1F4F
  8
0
 10
616.4592197280756
 20
148.26751135184841
 30
0.0
  0
VERTEX
  5
1F50
  8
0
 10
616.81455725816033
 20
148.24237449089301
 30
0.0
  0
VERTEX
  5
1F51
  8
0
 10
617.16522232344926
 20
148.21650271197731
 30
0.0
  0
VERTEX
  5
1F52
  8
0
 10
617.51108118867808
 20
148.1899058819786
 30
0.0
  0
VERTEX
  5
1F53
  8
0
 10
617.68216700382186
 20
148.17633873193739
 30
0.0
  0
VERTEX
  5
1F54
  8
0
 10
617.8520019515513
 20
148.16259414429129
 30
0.0
  0
VERTEX
  5
1F55
  8
0
 10
618.1878545930482
 20
148.13457791495881
 30
0.0
  0
VERTEX
  5
1F56
  8
0
 10
618.51851102700789
 20
148.10586787870039
 30
0.0
  0
VERTEX
  5
1F57
  8
0
 10
618.68185117978931
 20
148.09125609441429
 30
0.0
  0
VERTEX
  5
1F58
  8
0
 10
618.84384514897874
 20
148.07647498483701
 30
0.0
  0
VERTEX
  5
1F59
  8
0
 10
619.1637328843118
 20
148.04641044311501
 30
0.0
  0
VERTEX
  5
1F5A
  8
0
 10
619.47805223547925
 20
148.0156857194311
 30
0.0
  0
VERTEX
  5
1F5B
  8
0
 10
619.63308622220302
 20
148.00007944141319
 30
0.0
  0
VERTEX
  5
1F5C
  8
0
 10
619.78668332860218
 20
147.98431253145981
 30
0.0
  0
VERTEX
  5
1F5D
  8
0
 10
620.08950845916695
 20
147.95230284418409
 30
0.0
  0
VERTEX
  5
1F5E
  8
0
 10
620.38641213691506
 20
147.91966886533299
 30
0.0
  0
VERTEX
  5
1F5F
  8
0
 10
620.67728112988846
 20
147.88642304072491
 30
0.0
  0
VERTEX
  5
1F60
  8
0
 10
620.96200450761376
 20
147.85257804952181
 30
0.0
  0
VERTEX
  5
1F61
  8
0
 10
621.24047368340746
 20
147.81814679939359
 30
0.0
  0
VERTEX
  5
1F62
  8
0
 10
621.37732966333192
 20
147.80071542215219
 30
0.0
  0
VERTEX
  5
1F63
  8
0
 10
621.51258245578993
 20
147.78314242159499
 30
0.0
  0
VERTEX
  5
1F64
  8
0
 10
621.77822704898654
 20
147.7475782659582
 30
0.0
  0
VERTEX
  5
1F65
  8
0
 10
622.03730615250595
 20
147.71146789580109
 30
0.0
  0
VERTEX
  5
1F66
  8
0
 10
622.2897209597777
 20
147.67482508275481
 30
0.0
  0
VERTEX
  5
1F67
  8
0
 10
622.53537520583473
 20
147.63766380151131
 30
0.0
  0
VERTEX
  5
1F68
  8
0
 10
622.77417520402537
 20
147.5999982244941
 30
0.0
  0
VERTEX
  5
1F69
  8
0
 10
622.89097629691423
 20
147.58098080669109
 30
0.0
  0
VERTEX
  5
1F6A
  8
0
 10
623.00602988174489
 20
147.5618427164529
 30
0.0
  0
VERTEX
  5
1F6B
  8
0
 10
623.23085081516763
 20
147.52321182898541
 30
0.0
  0
VERTEX
  5
1F6C
  8
0
 10
623.44855226296886
 20
147.48412029498789
 30
0.0
  0
VERTEX
  5
1F6D
  8
0
 10
623.5547071271626
 20
147.4644064377627
 30
0.0
  0
SEQEND
  5
1F6E
  8
0
  0
LINE
  5
1BD5
  8
0
 10
626.48815855863336
 20
145.0679492539002
 30
0.0
 11
582.63776787816289
 21
145.0679492539002
 31
0.0
  0
LINE
  5
1BD7
  8
0
 10
623.99420178165337
 20
180.7331927801562
 30
0.0
 11
619.92169793028609
 21
180.7331927801562
 31
0.0
  0
LINE
  5
1BD8
  8
0
 10
589.20422850651005
 20
180.7331927801562
 30
0.0
 11
585.13172465514288
 21
180.7331927801562
 31
0.0
  0
POINT
  5
1BE3
  8
0
 10
604.56296321839807
 20
184.9981927801561
 30
160.0
210
0.0
220
1.0
230
0.0
  0
POINT
  5
1BE4
  8
0
 10
604.56296321839807
 20
184.9981927801561
 30
160.0
210
0.0
220
1.0
230
0.0
  0
LINE
  5
1C07
  8
2
 10
298.46912920002842
 20
171.9981927801561
 30
0.0
 11
283.30110549313542
 21
171.9981927801561
 31
0.0
  0
LINE
  5
1C08
  8
2
 10
283.4240940522663
 20
172.12429063333769
 30
0.0
 11
277.80087181783762
 21
166.3589067900395
 31
0.0
  0
LINE
  5
1C0A
  8
2
 10
298.34614064089737
 20
172.12429063333769
 30
0.0
 11
303.96936287532623
 21
166.3589067900395
 31
0.0
  0
POINT
  5
1C0B
  8
0
 10
115.3343099849285
 20
184.9981927801561
 30
160.0
210
0.0
220
1.0
230
0.0
  0
POINT
  5
1C0C
  8
0
 10
115.3343099849285
 20
184.9981927801561
 30
160.0
210
0.0
220
1.0
230
0.0
  0
LINE
  5
1C0D
  8
0
 10
99.975575273040533
 20
180.7331927801562
 30
0.0
 11
95.90307142167336
 21
180.7331927801562
 31
0.0
  0
LINE
  5
1C0E
  8
0
 10
134.7655485481836
 20
180.7331927801562
 30
0.0
 11
99.975575273040533
 21
180.7331927801562
 31
0.0
  0
LINE
  5
1C0F
  8
0
 10
137.25950532516359
 20
145.0679492539002
 30
0.0
 11
93.409114644693375
 21
145.0679492539002
 31
0.0
  0
LINE
  5
1C13
  8
0
 10
128.90614145328959
 20
183.4981927801561
 30
0.0
 11
98.668071421673346
 21
183.4981927801561
 31
0.0
  0
LINE
  5
1C14
  8
0
 10
132.00054854818359
 20
183.4981927801561
 30
0.0
 11
128.90614145328959
 21
183.4981927801561
 31
0.0
  0
LINE
  5
1C15
  8
0
 10
136.26194127490379
 20
143.9981927801561
 30
0.0
 11
94.406678694953186
 21
143.9981927801561
 31
0.0
  0
LINE
  5
1C16
  8
0
 10
132.5843099849285
 20
129.19819278015609
 30
0.0
 11
98.084309984928495
 21
129.19819278015609
 31
0.0
  0
LINE
  5
1C17
  8
0
 10
128.3343099849285
 20
128.9981927801561
 30
0.0
 11
102.3343099849285
 21
128.9981927801561
 31
0.0
  0
LINE
  5
1C18
  8
0
 10
102.48658888921921
 20
184.59819278015621
 30
0.0
 11
101.7762726881227
 21
183.4981927801561
 31
0.0
  0
LINE
  5
1C19
  8
0
 10
128.89234728173429
 20
183.4981927801561
 30
0.0
 11
128.18203108063781
 21
184.59819278015621
 31
0.0
  0
LINE
  5
1C1C
  8
0
 10
128.18203108063781
 20
184.9981927801561
 30
0.0
 11
102.48658888921921
 21
184.9981927801561
 31
0.0
  0
LINE
  5
1C1D
  8
0
 10
102.48658888921921
 20
184.9981927801561
 30
0.0
 11
102.48658888921921
 21
184.59819278015621
 31
0.0
  0
LINE
  5
1C1E
  8
0
 10
128.18203108063781
 20
184.59819278015621
 30
0.0
 11
128.18203108063781
 21
184.9981927801561
 31
0.0
  0
LINE
  5
1C22
  8
0
 10
137.25950532516359
 20
145.0679492539002
 30
0.0
 11
134.7655485481836
 21
180.7331927801562
 31
0.0
  0
LINE
  5
1C23
  8
0
 10
95.90307142167336
 20
180.7331927801562
 30
0.0
 11
93.409114644693375
 21
145.0679492539002
 31
0.0
  0
LINE
  5
1C24
  8
0
 10
134.7655485481836
 20
180.7331927801562
 30
0.0
 11
132.00054854818359
 21
183.4981927801561
 31
0.0
  0
LINE
  5
1C25
  8
0
 10
98.668071421673346
 20
183.4981927801561
 30
0.0
 11
95.90307142167336
 21
180.7331927801562
 31
0.0
  0
ARC
  5
1C26
  8
0
 10
94.406678694953186
 20
144.9981927801561
 30
0.0
 40
1.00000000000001
 50
176.00000000000071
 51
270.0
  0
ARC
  5
1C27
  8
0
 10
136.26194127490379
 20
144.9981927801561
 30
0.0
 40
1.00000000000001
 50
270.0
 51
3.9999999999993281
  0
LINE
  5
1C28
  8
0
 10
132.5843099849285
 20
129.19819278015609
 30
0.0
 11
132.5843099849285
 21
143.9981927801561
 31
0.0
  0
LINE
  5
1C29
  8
0
 10
98.084309984928495
 20
143.9981927801561
 30
0.0
 11
98.084309984928495
 21
129.19819278015609
 31
0.0
  0
LINE
  5
1C2A
  8
0
 10
128.3343099849285
 20
128.9981927801561
 30
0.0
 11
128.3343099849285
 21
129.19819278015609
 31
0.0
  0
LINE
  5
1C2B
  8
0
 10
102.3343099849285
 20
129.19819278015609
 30
0.0
 11
102.3343099849285
 21
128.9981927801561
 31
0.0
  0
LINE
  5
1C2C
  8
1
 10
115.3343099849285
 20
115.24530994232759
 30
0.0
 11
115.3343099849285
 21
278.7676371296584
 31
0.0
  0
LINE
  5
1C2D
  8
0
 10
127.3343099849285
 20
252.99819278015619
 30
0.0
 11
103.3343099849285
 21
252.99819278015619
 31
0.0
  0
LINE
  5
1C2E
  8
0
 10
127.3343099849285
 20
214.74819278015619
 30
0.0
 11
103.3343099849285
 21
214.74819278015619
 31
0.0
  0
LINE
  5
1C2F
  8
0
 10
124.5843099849285
 20
211.9981927801561
 30
0.0
 11
106.0843099849285
 21
211.9981927801561
 31
0.0
  0
LINE
  5
1C30
  8
0
 10
124.5843099849285
 20
185.29819278015611
 30
0.0
 11
106.0843099849285
 21
185.29819278015611
 31
0.0
  0
LINE
  5
1C31
  8
0
 10
122.2718099849285
 20
184.9981927801561
 30
0.0
 11
108.3968099849285
 21
184.9981927801561
 31
0.0
  0
ARC
  5
1C32
  8
0
 10
115.3343099849285
 20
252.99819278015619
 30
0.0
 40
12.000000000000011
 50
0.0
 51
180.0
  0
LINE
  5
1C33
  8
0
 10
127.3343099849285
 20
214.74819278015619
 30
0.0
 11
127.3343099849285
 21
252.99819278015619
 31
0.0
  0
LINE
  5
1C34
  8
0
 10
103.3343099849285
 20
252.99819278015619
 30
0.0
 11
103.3343099849285
 21
214.74819278015619
 31
0.0
  0
ARC
  5
1C35
  8
0
 10
106.0843099849285
 20
214.74819278015619
 30
0.0
 40
2.7499999999999938
 50
180.0
 51
270.0
  0
ARC
  5
1C36
  8
0
 10
124.5843099849285
 20
214.74819278015619
 30
0.0
 40
2.75
 50
270.0
 51
0.0
  0
LINE
  5
1C37
  8
0
 10
124.5843099849285
 20
185.29819278015611
 30
0.0
 11
124.5843099849285
 21
211.9981927801561
 31
0.0
  0
LINE
  5
1C38
  8
0
 10
106.0843099849285
 20
211.9981927801561
 30
0.0
 11
106.0843099849285
 21
185.29819278015611
 31
0.0
  0
LINE
  5
1C39
  8
0
 10
122.2718099849285
 20
184.9981927801561
 30
0.0
 11
122.2718099849285
 21
185.29819278015611
 31
0.0
  0
LINE
  5
1C3A
  8
0
 10
108.3968099849285
 20
185.29819278015611
 30
0.0
 11
108.3968099849285
 21
184.9981927801561
 31
0.0
  0
LINE
  5
1C46
  8
0
 10
277.88511734658192
 20
129.19819278015609
 30
0.0
 11
277.88511734658192
 21
128.9981927801561
 31
0.0
  0
LINE
  5
1C47
  8
0
 10
303.88511734658192
 20
129.19819278015609
 30
0.0
 11
303.88511734658192
 21
128.9981927801561
 31
0.0
  0
TEXT
  5
1CEF
  8
0
 62
     3
 10
0.0
 20
0.0
 30
0.0
 40
10.0
  1
BCHN160R
  7
STANDARD1
  0
ENDSEC
  0
EOF
