  0
SECTION
  2
HEADER
  9
$ACADVER
  1
AC1009
  9
$INSBASE
 10
0.0
 20
0.0
 30
0.0
  9
$EXTMIN
 10
0.0
 20
-2.960436562073669
 30
0.0
  9
$EXTMAX
 10
223.4071285671472
 20
135.37190500496601
 30
0.0
  9
$LIMMIN
 10
0.0
 20
0.0
  9
$LIMMAX
 10
187.5
 20
135.0
  9
$ORTHOMODE
 70
     1
  9
$REGENMODE
 70
     1
  9
$FILLMODE
 70
     1
  9
$QTEXTMODE
 70
     0
  9
$MIRRTEXT
 70
     0
  9
$DRAGMODE
 70
     2
  9
$LTSCALE
 40
5.0
  9
$OSMODE
 70
  3071
  9
$ATTMODE
 70
     1
  9
$TEXTSIZE
 40
4.000000000000048
  9
$TRACEWID
 40
0.05
  9
$TEXTSTYLE
  7
STANDARD
  9
$CLAYER
  8
0
  9
$CELTYPE
  6
BYLAYER
  9
$CECOLOR
 62
   256
  9
$DIMSCALE
 40
0.5
  9
$DIMASZ
 40
3.0
  9
$DIMEXO
 40
2.0
  9
$DIMDLI
 40
0.38
  9
$DIMRND
 40
0.0
  9
$DIMDLE
 40
0.0
  9
$DIMEXE
 40
2.0
  9
$DIMTP
 40
0.0
  9
$DIMTM
 40
0.0
  9
$DIMTXT
 40
3.2000000000000002
  9
$DIMCEN
 40
0.0
  9
$DIMTSZ
 40
0.0
  9
$DIMTOL
 70
     0
  9
$DIMLIM
 70
     0
  9
$DIMTIH
 70
     0
  9
$DIMTOH
 70
     0
  9
$DIMSE1
 70
     0
  9
$DIMSE2
 70
     0
  9
$DIMTAD
 70
     1
  9
$DIMZIN
 70
     0
  9
$DIMBLK
  1

  9
$DIMASO
 70
     1
  9
$DIMSHO
 70
     0
  9
$DIMPOST
  1

  9
$DIMAPOST
  1

  9
$DIMALT
 70
     0
  9
$DIMALTD
 70
     2
  9
$DIMALTF
 40
25.399999999999999
  9
$DIMLFAC
 40
1.0
  9
$DIMTOFL
 70
     1
  9
$DIMTVP
 40
1.6000000000000001
  9
$DIMTIX
 70
     1
  9
$DIMSOXD
 70
     0
  9
$DIMSAH
 70
     0
  9
$DIMBLK1
  1

  9
$DIMBLK2
  1

  9
$DIMSTYLE
  2
STANDARD
  9
$DIMCLRD
 70
     0
  9
$DIMCLRE
 70
     0
  9
$DIMCLRT
 70
     0
  9
$DIMTFAC
 40
1.0
  9
$DIMGAP
 40
0.09
  9
$LUNITS
 70
     2
  9
$LUPREC
 70
     4
  9
$SKETCHINC
 40
0.1
  9
$FILLETRAD
 40
1.0
  9
$AUNITS
 70
     1
  9
$AUPREC
 70
     4
  9
$MENU
  1
E:\r13\win\SUPPORT\ACAD
  9
$ELEVATION
 40
0.0
  9
$PELEVATION
 40
0.0
  9
$THICKNESS
 40
0.0
  9
$LIMCHECK
 70
     0
  9
$BLIPMODE
 70
     0
  9
$CHAMFERA
 40
3.0
  9
$CHAMFERB
 40
3.0
  9
$SKPOLY
 70
     0
  9
$TDCREATE
 40
2449839.7904861118
  9
$TDUPDATE
 40
2456597.594309445
  9
$TDINDWG
 40
0.0731329977
  9
$TDUSRTIMER
 40
0.0731329977
  9
$USRTIMER
 70
     1
  9
$ANGBASE
 50
0.0
  9
$ANGDIR
 70
     0
  9
$PDMODE
 70
     0
  9
$PDSIZE
 40
0.0
  9
$PLINEWID
 40
0.0
  9
$COORDS
 70
     1
  9
$SPLFRAME
 70
     0
  9
$SPLINETYPE
 70
     6
  9
$SPLINESEGS
 70
     8
  9
$ATTDIA
 70
     0
  9
$ATTREQ
 70
     1
  9
$HANDLING
 70
     1
  9
$HANDSEED
  5
AA8
  9
$SURFTAB1
 70
     6
  9
$SURFTAB2
 70
     6
  9
$SURFTYPE
 70
     6
  9
$SURFU
 70
     6
  9
$SURFV
 70
     6
  9
$UCSNAME
  2

  9
$UCSORG
 10
0.0
 20
0.0
 30
0.0
  9
$UCSXDIR
 10
1.0
 20
0.0
 30
0.0
  9
$UCSYDIR
 10
0.0
 20
1.0
 30
0.0
  9
$PUCSNAME
  2

  9
$PUCSORG
 10
0.0
 20
0.0
 30
0.0
  9
$PUCSXDIR
 10
1.0
 20
0.0
 30
0.0
  9
$PUCSYDIR
 10
0.0
 20
1.0
 30
0.0
  9
$USERI1
 70
     0
  9
$USERI2
 70
     1
  9
$USERI3
 70
     1
  9
$USERI4
 70
     0
  9
$USERI5
 70
     0
  9
$USERR1
 40
0.0
  9
$USERR2
 40
0.0
  9
$USERR3
 40
0.0
  9
$USERR4
 40
0.0
  9
$USERR5
 40
0.0
  9
$WORLDVIEW
 70
     1
  9
$SHADEDGE
 70
     3
  9
$SHADEDIF
 70
    70
  9
$TILEMODE
 70
     1
  9
$MAXACTVP
 70
    16
  9
$PLIMCHECK
 70
     0
  9
$PEXTMIN
 10
1.0000000000000000E+020
 20
1.0000000000000000E+020
 30
1.0000000000000000E+020
  9
$PEXTMAX
 10
-1.0000000000000000E+020
 20
-1.0000000000000000E+020
 30
-1.0000000000000000E+020
  9
$PLIMMIN
 10
0.0
 20
0.0
  9
$PLIMMAX
 10
12.0
 20
9.0
  9
$UNITMODE
 70
     0
  9
$VISRETAIN
 70
     0
  9
$PLINEGEN
 70
     0
  9
$PSLTSCALE
 70
     0
  0
ENDSEC
  0
SECTION
  2
TABLES
  0
TABLE
  2
VPORT
 70
     1
  0
VPORT
  2
*ACTIVE
 70
     0
 10
0.0
 20
0.0
 11
1.0
 21
1.0
 12
115.5381544851456
 22
66.203876677012687
 13
0.0
 23
0.0
 14
5.0
 24
5.0
 15
5.0
 25
5.0
 16
0.0
 26
0.0
 36
1.0
 17
0.0
 27
0.0
 37
0.0
 40
139.585075962442
 41
1.831871345029239
 42
50.0
 43
0.0
 44
0.0
 50
0.0
 51
0.0
 71
     0
 72
   500
 73
     1
 74
     0
 75
     0
 76
     0
 77
     0
 78
     2
  0
ENDTAB
  0
TABLE
  2
LTYPE
 70
     4
  0
LTYPE
  2
CONTINUOUS
 70
     0
  3
Solid Line
 72
    65
 73
     0
 40
0.0
  0
LTYPE
  2
CENTER
 70
     0
  3
____ _ ____ _ ____ _ ____ _ ____ _ ____ _ ____
 72
    65
 73
     4
 40
2.0
 49
1.25
 49
-0.25
 49
0.25
 49
-0.25
  0
LTYPE
  2
HIDDEN
 70
     0
  3
_ _ _ _ _ _ _ _ _ _ _ _ _ _ _ _ _ _ _ _ _ _ _
 72
    65
 73
     2
 40
0.375
 49
0.25
 49
-0.125
  0
LTYPE
  2
PHANTOM2
 70
     0
  3
___ _ _ ___ _ _ ___ _ _ ___ _ _
 72
    65
 73
     6
 40
1.25
 49
0.625
 49
-0.125
 49
0.125
 49
-0.125
 49
0.125
 49
-0.125
  0
ENDTAB
  0
TABLE
  2
LAYER
 70
     4
  0
LAYER
  2
0
 70
     0
 62
     7
  6
CONTINUOUS
  0
LAYER
  2
1
 70
     0
 62
     1
  6
CENTER
  0
LAYER
  2
2
 70
     0
 62
     2
  6
HIDDEN
  0
LAYER
  2
DEFPOINTS
 70
     0
 62
     7
  6
CONTINUOUS
  0
ENDTAB
  0
TABLE
  2
STYLE
 70
     2
  0
STYLE
  2
STANDARD
 70
     0
 40
0.0
 41
1.0
 50
0.0
 71
     0
 42
4.000000000000048
  3
TXT
  4
BIGFONT
  0
STYLE
  2
STANDARD1
 70
     0
 40
0.0
 41
1.0
 50
0.0
 71
     0
 42
3.0
  3
txt
  4

  0
ENDTAB
  0
TABLE
  2
VIEW
 70
     1
  0
VIEW
  2
ALL
 70
     0
 40
135.0
 10
110.4957983193277
 20
67.5
 41
0.0
 11
0.0
 21
0.0
 31
1.0
 12
0.0
 22
0.0
 32
0.0
 42
0.0
 43
0.0
 44
0.0
 50
0.0
 71
     0
  0
ENDTAB
  0
TABLE
  2
UCS
 70
     0
  0
ENDTAB
  0
TABLE
  2
APPID
 70
     3
  0
APPID
  2
ACAD
 70
     0
  0
APPID
  2
ACAD_MLEADERVER
 70
     0
  0
APPID
  2
ACAD_NAV_VCDISPLAY
 70
     0
  0
ENDTAB
  0
TABLE
  2
DIMSTYLE
 70
     1
  0
DIMSTYLE
  2
STANDARD
 70
     0
  3

  4

  5

  6

  7

 40
1.0
 41
0.18
 42
0.0625
 43
0.38
 44
0.18
 45
0.0
 46
0.0
 47
0.0
 48
0.0
140
0.18
141
0.09
142
0.0
143
25.399999999999999
144
1.0
145
0.0
146
1.0
147
0.09
 71
     0
 72
     0
 73
     1
 74
     1
 75
     0
 76
     0
 77
     0
 78
     0
170
     0
171
     2
172
     0
173
     0
174
     0
175
     0
176
     0
177
     0
178
     0
  0
ENDTAB
  0
ENDSEC
  0
SECTION
  2
BLOCKS
  0
BLOCK
  8
0
  2
$MODEL_SPACE
 70
     0
 10
0.0
 20
0.0
 30
0.0
  3
$MODEL_SPACE
  1

  0
ENDBLK
  5
13F
  8
0
  0
BLOCK
 67
     1
  8
0
  2
$PAPER_SPACE
 70
     0
 10
0.0
 20
0.0
 30
0.0
  3
$PAPER_SPACE
  1

  0
ENDBLK
  5
13D
 67
     1
  8
0
  0
ENDSEC
  0
SECTION
  2
ENTITIES
  0
LINE
  5
26C
  8
1
 10
99.043894184343003
 20
53.427163412620253
 30
0.0
 11
99.043894184343003
 21
18.927163412620239
 31
0.0
  0
LINE
  5
274
  8
2
 10
102.043894184343
 20
21.989663412620249
 30
0.0
 11
96.043894184343003
 21
21.989663412620249
 31
0.0
  0
LINE
  5
275
  8
2
 10
102.606394184343
 20
21.427163412620239
 30
0.0
 11
95.481394184343003
 21
21.427163412620239
 31
0.0
  0
LINE
  5
276
  8
2
 10
102.043894184343
 20
39.427163412620253
 30
0.0
 11
96.043894184343003
 21
39.427163412620253
 31
0.0
  0
LINE
  5
277
  8
0
 10
108.9607395146399
 20
49.492163412620243
 30
0.0
 11
89.127048854046066
 21
49.492163412620243
 31
0.0
  0
LINE
  5
278
  8
0
 10
110.2190895245781
 20
31.49691988636437
 30
0.0
 11
87.868698844107897
 21
31.49691988636437
 31
0.0
  0
LINE
  5
27F
  8
2
 10
92.543894184343003
 20
49.492163412620243
 30
0.0
 11
105.543894184343
 21
49.492163412620243
 31
0.0
  0
LINE
  5
281
  8
0
 10
107.52573951463989
 20
50.927163412620253
 30
0.0
 11
90.562048854046054
 21
50.927163412620253
 31
0.0
  0
LINE
  5
282
  8
0
 10
109.2215254743183
 20
30.427163412620249
 30
0.0
 11
88.866262894367708
 21
30.427163412620249
 31
0.0
  0
LINE
  5
283
  8
0
 10
90.043894184343003
 20
30.427163412620249
 30
0.0
 11
108.043894184343
 21
30.427163412620249
 31
0.0
  0
LINE
  5
284
  8
0
 10
108.043894184343
 20
21.627163412620249
 30
0.0
 11
90.043894184343003
 21
21.627163412620249
 31
0.0
  0
LINE
  5
285
  8
0
 10
91.543894184343003
 20
21.627163412620249
 30
0.0
 11
106.543894184343
 21
21.627163412620249
 31
0.0
  0
LINE
  5
286
  8
0
 10
106.543894184343
 20
21.427163412620239
 30
0.0
 11
91.543894184343003
 21
21.427163412620239
 31
0.0
  0
LINE
  5
287
  8
0
 10
144.39389418434291
 20
52.02716341262024
 30
0.0
 11
109.0893360443214
 21
47.653147359874211
 31
0.0
  0
LINE
  5
288
  8
0
 10
110.08029231689051
 20
33.481812430869553
 30
0.0
 11
152.21379939761309
 21
39.282802536186431
 31
0.0
  0
LINE
  5
28A
  8
0
 10
144.393894184343
 20
52.427163412620239
 30
0.0
 11
144.393894184343
 21
52.02716341262024
 31
0.0
  0
LINE
  5
28B
  8
0
 10
156.793894184343
 20
52.427163412620239
 30
0.0
 11
144.393894184343
 21
52.427163412620239
 31
0.0
  0
POLYLINE
  5
28C
  8
0
 66
     1
 10
0.0
 20
0.0
 30
0.0
  0
VERTEX
  5
7D0
  8
0
 10
156.793894184343
 20
39.913395296678218
 30
0.0
  0
VERTEX
  5
7D1
  8
0
 10
156.79377574745979
 20
39.913378990150818
 30
0.0
  0
VERTEX
  5
7D2
  8
0
 10
156.79282828605949
 20
39.91324854256672
 30
0.0
  0
VERTEX
  5
7D3
  8
0
 10
156.79093354279971
 20
39.912987672117907
 30
0.0
  0
VERTEX
  5
7D4
  8
0
 10
156.78963104566461
 20
39.912808342802208
 30
0.0
  0
VERTEX
  5
7D5
  8
0
 10
156.7880918767282
 20
39.912596428238508
 30
0.0
  0
VERTEX
  5
7D6
  8
0
 10
156.78430382633161
 20
39.912074885067952
 30
0.0
  0
VERTEX
  5
7D7
  8
0
 10
156.779570109433
 20
39.911423141436998
 30
0.0
  0
VERTEX
  5
7D8
  8
0
 10
156.7738916230567
 20
39.910641320848953
 30
0.0
  0
VERTEX
  5
7D9
  8
0
 10
156.76726944325739
 20
39.909729571456289
 30
0.0
  0
VERTEX
  5
7DA
  8
0
 10
156.7597048249167
 20
39.908688066032582
 30
0.0
  0
VERTEX
  5
7DB
  8
0
 10
156.75556954228409
 20
39.908118715525177
 30
0.0
  0
VERTEX
  5
7DC
  8
0
 10
156.7511992015055
 20
39.907517001939731
 30
0.0
  0
VERTEX
  5
7DD
  8
0
 10
156.74175418481181
 20
39.906216601090598
 30
0.0
  0
VERTEX
  5
7DE
  8
0
 10
156.73137156463591
 20
39.904787109906948
 30
0.0
  0
VERTEX
  5
7DF
  8
0
 10
156.72005330845059
 20
39.903228799272753
 30
0.0
  0
VERTEX
  5
7E0
  8
0
 10
156.70780156102899
 20
39.901541964482817
 30
0.0
  0
VERTEX
  5
7E1
  8
0
 10
156.69461864403749
 20
39.899726925186897
 30
0.0
  0
VERTEX
  5
7E2
  8
0
 10
156.68767877073569
 20
39.898771435384482
 30
0.0
  0
VERTEX
  5
7E3
  8
0
 10
156.68050705559651
 20
39.897784025329081
 30
0.0
  0
VERTEX
  5
7E4
  8
0
 10
156.66546946980631
 20
39.8957136330826
 30
0.0
  0
VERTEX
  5
7E5
  8
0
 10
156.64950873624079
 20
39.893516140780093
 30
0.0
  0
VERTEX
  5
7E6
  8
0
 10
156.64118312738299
 20
39.89236986129967
 30
0.0
  0
VERTEX
  5
7E7
  8
0
 10
156.63262787940741
 20
39.891191964839258
 30
0.0
  0
VERTEX
  5
7E8
  8
0
 10
156.614830098174
 20
39.888741545683942
 30
0.0
  0
VERTEX
  5
7E9
  8
0
 10
156.5961187651626
 20
39.886165347660629
 30
0.0
  0
VERTEX
  5
7EA
  8
0
 10
156.5864216180388
 20
39.884830233201562
 30
0.0
  0
VERTEX
  5
7EB
  8
0
 10
156.57649742611031
 20
39.883463858950542
 30
0.0
  0
VERTEX
  5
7EC
  8
0
 10
156.5559697991975
 20
39.88063759147704
 30
0.0
  0
VERTEX
  5
7ED
  8
0
 10
156.5345397743433
 20
39.877687080808691
 30
0.0
  0
VERTEX
  5
7EE
  8
0
 10
156.51221141246791
 20
39.87461288605774
 30
0.0
  0
VERTEX
  5
7EF
  8
0
 10
156.4889889447239
 20
39.871415589774152
 30
0.0
  0
VERTEX
  5
7F0
  8
0
 10
156.46487677169381
 20
39.868095797835231
 30
0.0
  0
VERTEX
  5
7F1
  8
0
 10
156.45248846700261
 20
39.866390161682077
 30
0.0
  0
VERTEX
  5
7F2
  8
0
 10
156.4398794625566
 20
39.864654139330817
 30
0.0
  0
VERTEX
  5
7F3
  8
0
 10
156.41400175422149
 20
39.861091266444113
 30
0.0
  0
VERTEX
  5
7F4
  8
0
 10
156.38724855043071
 20
39.857407854327988
 30
0.0
  0
VERTEX
  5
7F5
  8
0
 10
156.3596249208299
 20
39.853604600977143
 30
0.0
  0
VERTEX
  5
7F6
  8
0
 10
156.33113610000751
 20
39.849682227095791
 30
0.0
  0
VERTEX
  5
7F7
  8
0
 10
156.301787486503
 20
39.845641475961123
 30
0.0
  0
VERTEX
  5
7F8
  8
0
 10
156.2867924891178
 20
39.84357694733562
 30
0.0
  0
VERTEX
  5
7F9
  8
0
 10
156.27158464178399
 20
39.841483113282408
 30
0.0
  0
VERTEX
  5
7FA
  8
0
 10
156.2405332891918
 20
39.837207927055957
 30
0.0
  0
VERTEX
  5
7FB
  8
0
 10
156.20863931285751
 20
39.832816727415718
 30
0.0
  0
VERTEX
  5
7FC
  8
0
 10
156.17590875658641
 20
39.82831034647986
 30
0.0
  0
VERTEX
  5
7FD
  8
0
 10
156.14234782271339
 20
39.823689638192988
 30
0.0
  0
VERTEX
  5
7FE
  8
0
 10
156.10796287092691
 20
39.818955478164412
 30
0.0
  0
VERTEX
  5
7FF
  8
0
 10
156.09046341844919
 20
39.816546133258058
 30
0.0
  0
VERTEX
  5
800
  8
0
 10
156.0727604170641
 20
39.814108763502148
 30
0.0
  0
VERTEX
  5
801
  8
0
 10
156.03674713187641
 20
39.809150412642957
 30
0.0
  0
VERTEX
  5
802
  8
0
 10
155.9999298397648
 20
39.80408136517832
 30
0.0
  0
VERTEX
  5
803
  8
0
 10
155.96231551748721
 20
39.798902581676337
 30
0.0
  0
VERTEX
  5
804
  8
0
 10
155.92391129283629
 20
39.793615043499763
 30
0.0
  0
VERTEX
  5
805
  8
0
 10
155.88472444328841
 20
39.788219752619987
 30
0.0
  0
VERTEX
  5
806
  8
0
 10
155.86483984898001
 20
39.785482018621003
 30
0.0
  0
VERTEX
  5
807
  8
0
 10
155.84476239462509
 20
39.782717731427198
 30
0.0
  0
VERTEX
  5
808
  8
0
 10
155.8040327195252
 20
39.777110022536647
 30
0.0
  0
VERTEX
  5
809
  8
0
 10
155.76254313613069
 20
39.771397688591023
 30
0.0
  0
VERTEX
  5
80A
  8
0
 10
155.72030150658361
 20
39.765581812059182
 30
0.0
  0
VERTEX
  5
80B
  8
0
 10
155.67731583553609
 20
39.7596634950309
 30
0.0
  0
VERTEX
  5
80C
  8
0
 10
155.63359426863411
 20
39.75364385900815
 30
0.0
  0
VERTEX
  5
80D
  8
0
 10
155.6114601079255
 20
39.750596402098992
 30
0.0
  0
VERTEX
  5
80E
  8
0
 10
155.58914509097309
 20
39.747524044692511
 30
0.0
  0
VERTEX
  5
80F
  8
0
 10
155.54397672552869
 20
39.741305211769017
 30
0.0
  0
VERTEX
  5
810
  8
0
 10
155.49809773156031
 20
39.734988538686409
 30
0.0
  0
VERTEX
  5
811
  8
0
 10
155.47489446051461
 20
39.731793885426491
 30
0.0
  0
VERTEX
  5
812
  8
0
 10
155.451516802989
 20
39.728575222433818
 30
0.0
  0
VERTEX
  5
813
  8
0
 10
155.40424276675
 20
39.72206647831397
 30
0.0
  0
VERTEX
  5
814
  8
0
 10
155.35628458112069
 20
39.715463539712829
 30
0.0
  0
VERTEX
  5
815
  8
0
 10
155.33205176724269
 20
39.712127137802092
 30
0.0
  0
VERTEX
  5
816
  8
0
 10
155.3076513340221
 20
39.708767657865941
 30
0.0
  0
VERTEX
  5
817
  8
0
 10
155.25835224129759
 20
39.701980101621253
 30
0.0
  0
VERTEX
  5
818
  8
0
 10
155.2083966449658
 20
39.695102157198761
 30
0.0
  0
VERTEX
  5
819
  8
0
 10
155.1577940114509
 20
39.688135127946701
 30
0.0
  0
VERTEX
  5
81A
  8
0
 10
155.1065539297883
 20
39.681080334094602
 30
0.0
  0
VERTEX
  5
81B
  8
0
 10
155.0546861098081
 20
39.67393911250312
 30
0.0
  0
VERTEX
  5
81C
  8
0
 10
155.02851986484791
 20
39.670336513559342
 30
0.0
  0
VERTEX
  5
81D
  8
0
 10
155.00220038029431
 20
39.666712816410651
 30
0.0
  0
VERTEX
  5
81E
  8
0
 10
154.94910668712339
 20
39.659402815176968
 30
0.0
  0
VERTEX
  5
81F
  8
0
 10
154.8954150913784
 20
39.652010494023678
 30
0.0
  0
VERTEX
  5
820
  8
0
 10
154.8411357674434
 20
39.644537253771752
 30
0.0
  0
VERTEX
  5
821
  8
0
 10
154.78627900107469
 20
39.63698451057607
 30
0.0
  0
VERTEX
  5
822
  8
0
 10
154.73085518745251
 20
39.62935369565708
 30
0.0
  0
VERTEX
  5
823
  8
0
 10
154.70293391585119
 20
39.625509462610509
 30
0.0
  0
VERTEX
  5
824
  8
0
 10
154.6748748292103
 20
39.621646255029518
 30
0.0
  0
VERTEX
  5
825
  8
0
 10
154.618348534445
 20
39.613863649228499
 30
0.0
  0
VERTEX
  5
826
  8
0
 10
154.56128701470689
 20
39.60600735303268
 30
0.0
  0
VERTEX
  5
827
  8
0
 10
154.5037010829696
 20
39.598078855184788
 30
0.0
  0
VERTEX
  5
828
  8
0
 10
154.4456016515812
 20
39.590079658109573
 30
0.0
  0
VERTEX
  5
829
  8
0
 10
154.38699973019601
 20
39.582011277629
 30
0.0
  0
VERTEX
  5
82A
  8
0
 10
154.3575138023659
 20
39.577951620898759
 30
0.0
  0
VERTEX
  5
82B
  8
0
 10
154.32790642368889
 20
39.573875242675122
 30
0.0
  0
VERTEX
  5
82C
  8
0
 10
154.26833293005041
 20
39.565673095000257
 30
0.0
  0
VERTEX
  5
82D
  8
0
 10
154.2082905382652
 20
39.5574063888849
 30
0.0
  0
VERTEX
  5
82E
  8
0
 10
154.14779062617239
 20
39.549076690843151
 30
0.0
  0
VERTEX
  5
82F
  8
0
 10
154.08684465831001
 20
39.540685579325853
 30
0.0
  0
VERTEX
  5
830
  8
0
 10
154.0254641837418
 20
39.532234644421528
 30
0.0
  0
VERTEX
  5
831
  8
0
 10
153.9946146380999
 20
39.527987243209978
 30
0.0
  0
VERTEX
  5
832
  8
0
 10
153.9636608338696
 20
39.523725487555069
 30
0.0
  0
VERTEX
  5
833
  8
0
 10
153.9014463202283
 20
39.515159721184162
 30
0.0
  0
VERTEX
  5
834
  8
0
 10
153.83883243226731
 20
39.506538968493878
 30
0.0
  0
VERTEX
  5
835
  8
0
 10
153.775831035116
 20
39.497864863089013
 30
0.0
  0
VERTEX
  5
836
  8
0
 10
153.7124540673357
 20
39.489139048684457
 30
0.0
  0
VERTEX
  5
837
  8
0
 10
153.64871353865689
 20
39.480363178793908
 30
0.0
  0
VERTEX
  5
838
  8
0
 10
153.61671071092201
 20
39.475956992366633
 30
0.0
  0
VERTEX
  5
839
  8
0
 10
153.5846215277038
 20
39.471538916416307
 30
0.0
  0
VERTEX
  5
83A
  8
0
 10
153.52019017970551
 20
39.462667933720887
 30
0.0
  0
VERTEX
  5
83B
  8
0
 10
153.45543170419421
 20
39.453751911730187
 30
0.0
  0
VERTEX
  5
83C
  8
0
 10
153.4229336261138
 20
39.44927753866115
 30
0.0
  0
VERTEX
  5
83D
  8
0
 10
153.39035837269171
 20
39.444792540001593
 30
0.0
  0
VERTEX
  5
83E
  8
0
 10
153.32498251638401
 20
39.435791516307063
 30
0.0
  0
VERTEX
  5
83F
  8
0
 10
153.25931652378489
 20
39.426750546311517
 30
0.0
  0
VERTEX
  5
840
  8
0
 10
153.22637861288439
 20
39.42221561654987
 30
0.0
  0
VERTEX
  5
841
  8
0
 10
153.19337283838749
 20
39.417671343249573
 30
0.0
  0
VERTEX
  5
842
  8
0
 10
153.1271639563073
 20
39.40855562760084
 30
0.0
  0
VERTEX
  5
843
  8
0
 10
153.0607024239134
 20
39.399405126764002
 30
0.0
  0
VERTEX
  5
844
  8
0
 10
152.99400083545149
 20
39.390221574729402
 30
0.0
  0
VERTEX
  5
845
  8
0
 10
152.92707183065701
 20
39.381006711750452
 30
0.0
  0
VERTEX
  5
846
  8
0
 10
152.85992809236021
 20
39.371762284013933
 30
0.0
  0
VERTEX
  5
847
  8
0
 10
152.82627967272521
 20
39.367129530585927
 30
0.0
  0
VERTEX
  5
848
  8
0
 10
152.7925823440824
 20
39.362490043309023
 30
0.0
  0
VERTEX
  5
849
  8
0
 10
152.72504734762541
 20
39.353191746695373
 30
0.0
  0
VERTEX
  5
84A
  8
0
 10
152.65733590065281
 20
39.34386915617015
 30
0.0
  0
VERTEX
  5
84B
  8
0
 10
152.5894608342648
 20
39.334524038334131
 30
0.0
  0
VERTEX
  5
84C
  8
0
 10
152.5214350105675
 20
39.325158164056958
 30
0.0
  0
VERTEX
  5
84D
  8
0
 10
152.45327132023439
 20
39.31577330814153
 30
0.0
  0
VERTEX
  5
84E
  8
0
 10
152.41914181062549
 20
39.311074317688139
 30
0.0
  0
VERTEX
  5
84F
  8
0
 10
152.3849826800647
 20
39.30637124898773
 30
0.0
  0
VERTEX
  5
850
  8
0
 10
152.3165820305349
 20
39.296953768255378
 30
0.0
  0
VERTEX
  5
851
  8
0
 10
152.2480823333473
 20
39.28752265052664
 30
0.0
  0
VERTEX
  5
852
  8
0
 10
152.21379939761309
 20
39.282802536186431
 30
0.0
  0
SEQEND
  5
853
  8
0
  0
POLYLINE
  5
28D
  8
0
 66
     1
 10
0.0
 20
0.0
 30
0.0
  0
VERTEX
  5
854
  8
0
 10
152.21379939761309
 20
39.282802536186431
 30
0.0
  0
VERTEX
  5
855
  8
0
 10
152.2480823333473
 20
39.28752265052664
 30
0.0
  0
VERTEX
  5
856
  8
0
 10
152.3165820305349
 20
39.296953768255378
 30
0.0
  0
VERTEX
  5
857
  8
0
 10
152.3849826800647
 20
39.30637124898773
 30
0.0
  0
VERTEX
  5
858
  8
0
 10
152.41914181062549
 20
39.311074317688139
 30
0.0
  0
VERTEX
  5
859
  8
0
 10
152.45327132023439
 20
39.31577330814153
 30
0.0
  0
VERTEX
  5
85A
  8
0
 10
152.5214350105675
 20
39.325158164056958
 30
0.0
  0
VERTEX
  5
85B
  8
0
 10
152.5894608342648
 20
39.334524038334131
 30
0.0
  0
VERTEX
  5
85C
  8
0
 10
152.65733590065281
 20
39.34386915617015
 30
0.0
  0
VERTEX
  5
85D
  8
0
 10
152.72504734762541
 20
39.353191746695373
 30
0.0
  0
VERTEX
  5
85E
  8
0
 10
152.7925823440824
 20
39.362490043309023
 30
0.0
  0
VERTEX
  5
85F
  8
0
 10
152.82627967272521
 20
39.367129530585927
 30
0.0
  0
VERTEX
  5
860
  8
0
 10
152.85992809236021
 20
39.371762284013933
 30
0.0
  0
VERTEX
  5
861
  8
0
 10
152.92707183065701
 20
39.381006711750452
 30
0.0
  0
VERTEX
  5
862
  8
0
 10
152.99400083545149
 20
39.390221574729402
 30
0.0
  0
VERTEX
  5
863
  8
0
 10
153.0607024239134
 20
39.399405126764002
 30
0.0
  0
VERTEX
  5
864
  8
0
 10
153.1271639563073
 20
39.40855562760084
 30
0.0
  0
VERTEX
  5
865
  8
0
 10
153.19337283838749
 20
39.417671343249573
 30
0.0
  0
VERTEX
  5
866
  8
0
 10
153.22637861288439
 20
39.42221561654987
 30
0.0
  0
VERTEX
  5
867
  8
0
 10
153.25931652378489
 20
39.426750546311517
 30
0.0
  0
VERTEX
  5
868
  8
0
 10
153.32498251638401
 20
39.435791516307063
 30
0.0
  0
VERTEX
  5
869
  8
0
 10
153.39035837269171
 20
39.444792540001593
 30
0.0
  0
VERTEX
  5
86A
  8
0
 10
153.4229336261138
 20
39.44927753866115
 30
0.0
  0
VERTEX
  5
86B
  8
0
 10
153.45543170419421
 20
39.453751911730187
 30
0.0
  0
VERTEX
  5
86C
  8
0
 10
153.52019017970551
 20
39.462667933720887
 30
0.0
  0
VERTEX
  5
86D
  8
0
 10
153.5846215277038
 20
39.471538916416307
 30
0.0
  0
VERTEX
  5
86E
  8
0
 10
153.61671071092201
 20
39.475956992366633
 30
0.0
  0
VERTEX
  5
86F
  8
0
 10
153.64871353865689
 20
39.480363178793901
 30
0.0
  0
VERTEX
  5
870
  8
0
 10
153.7124540673357
 20
39.489139048684457
 30
0.0
  0
VERTEX
  5
871
  8
0
 10
153.775831035116
 20
39.497864863089013
 30
0.0
  0
VERTEX
  5
872
  8
0
 10
153.83883243226731
 20
39.506538968493878
 30
0.0
  0
VERTEX
  5
873
  8
0
 10
153.9014463202283
 20
39.515159721184162
 30
0.0
  0
VERTEX
  5
874
  8
0
 10
153.9636608338696
 20
39.523725487555069
 30
0.0
  0
VERTEX
  5
875
  8
0
 10
153.9946146380999
 20
39.527987243209978
 30
0.0
  0
VERTEX
  5
876
  8
0
 10
154.0254641837418
 20
39.532234644421528
 30
0.0
  0
VERTEX
  5
877
  8
0
 10
154.08684465831001
 20
39.540685579325853
 30
0.0
  0
VERTEX
  5
878
  8
0
 10
154.14779062617239
 20
39.549076690843151
 30
0.0
  0
VERTEX
  5
879
  8
0
 10
154.2082905382652
 20
39.5574063888849
 30
0.0
  0
VERTEX
  5
87A
  8
0
 10
154.26833293005041
 20
39.565673095000257
 30
0.0
  0
VERTEX
  5
87B
  8
0
 10
154.32790642368889
 20
39.573875242675122
 30
0.0
  0
VERTEX
  5
87C
  8
0
 10
154.3575138023659
 20
39.577951620898759
 30
0.0
  0
VERTEX
  5
87D
  8
0
 10
154.38699973019601
 20
39.582011277629
 30
0.0
  0
VERTEX
  5
87E
  8
0
 10
154.4456016515812
 20
39.590079658109573
 30
0.0
  0
VERTEX
  5
87F
  8
0
 10
154.5037010829696
 20
39.598078855184788
 30
0.0
  0
VERTEX
  5
880
  8
0
 10
154.56128701470689
 20
39.60600735303268
 30
0.0
  0
VERTEX
  5
881
  8
0
 10
154.618348534445
 20
39.613863649228499
 30
0.0
  0
VERTEX
  5
882
  8
0
 10
154.6748748292103
 20
39.621646255029518
 30
0.0
  0
VERTEX
  5
883
  8
0
 10
154.70293391585119
 20
39.625509462610509
 30
0.0
  0
VERTEX
  5
884
  8
0
 10
154.73085518745251
 20
39.62935369565708
 30
0.0
  0
VERTEX
  5
885
  8
0
 10
154.78627900107469
 20
39.63698451057607
 30
0.0
  0
VERTEX
  5
886
  8
0
 10
154.8411357674434
 20
39.644537253771752
 30
0.0
  0
VERTEX
  5
887
  8
0
 10
154.8954150913784
 20
39.652010494023678
 30
0.0
  0
VERTEX
  5
888
  8
0
 10
154.94910668712339
 20
39.659402815176968
 30
0.0
  0
VERTEX
  5
889
  8
0
 10
155.00220038029431
 20
39.666712816410651
 30
0.0
  0
VERTEX
  5
88A
  8
0
 10
155.02851986484791
 20
39.670336513559342
 30
0.0
  0
VERTEX
  5
88B
  8
0
 10
155.0546861098081
 20
39.67393911250312
 30
0.0
  0
VERTEX
  5
88C
  8
0
 10
155.1065539297883
 20
39.681080334094602
 30
0.0
  0
VERTEX
  5
88D
  8
0
 10
155.1577940114509
 20
39.688135127946701
 30
0.0
  0
VERTEX
  5
88E
  8
0
 10
155.2083966449658
 20
39.695102157198761
 30
0.0
  0
VERTEX
  5
88F
  8
0
 10
155.25835224129759
 20
39.701980101621253
 30
0.0
  0
VERTEX
  5
890
  8
0
 10
155.3076513340221
 20
39.708767657865941
 30
0.0
  0
VERTEX
  5
891
  8
0
 10
155.33205176724269
 20
39.712127137802092
 30
0.0
  0
VERTEX
  5
892
  8
0
 10
155.35628458112069
 20
39.715463539712829
 30
0.0
  0
VERTEX
  5
893
  8
0
 10
155.40424276675
 20
39.72206647831397
 30
0.0
  0
VERTEX
  5
894
  8
0
 10
155.451516802989
 20
39.728575222433818
 30
0.0
  0
VERTEX
  5
895
  8
0
 10
155.47489446051461
 20
39.731793885426491
 30
0.0
  0
VERTEX
  5
896
  8
0
 10
155.49809773156031
 20
39.734988538686409
 30
0.0
  0
VERTEX
  5
897
  8
0
 10
155.54397672552869
 20
39.741305211769017
 30
0.0
  0
VERTEX
  5
898
  8
0
 10
155.58914509097309
 20
39.747524044692511
 30
0.0
  0
VERTEX
  5
899
  8
0
 10
155.6114601079255
 20
39.750596402098992
 30
0.0
  0
VERTEX
  5
89A
  8
0
 10
155.63359426863411
 20
39.75364385900815
 30
0.0
  0
VERTEX
  5
89B
  8
0
 10
155.67731583553609
 20
39.7596634950309
 30
0.0
  0
VERTEX
  5
89C
  8
0
 10
155.72030150658361
 20
39.765581812059182
 30
0.0
  0
VERTEX
  5
89D
  8
0
 10
155.76254313613069
 20
39.771397688591023
 30
0.0
  0
VERTEX
  5
89E
  8
0
 10
155.8040327195252
 20
39.777110022536647
 30
0.0
  0
VERTEX
  5
89F
  8
0
 10
155.84476239462509
 20
39.782717731427198
 30
0.0
  0
VERTEX
  5
8A0
  8
0
 10
155.86483984898001
 20
39.785482018621003
 30
0.0
  0
VERTEX
  5
8A1
  8
0
 10
155.88472444328841
 20
39.788219752619987
 30
0.0
  0
VERTEX
  5
8A2
  8
0
 10
155.92391129283629
 20
39.793615043499763
 30
0.0
  0
VERTEX
  5
8A3
  8
0
 10
155.96231551748721
 20
39.798902581676337
 30
0.0
  0
VERTEX
  5
8A4
  8
0
 10
155.9999298397648
 20
39.80408136517832
 30
0.0
  0
VERTEX
  5
8A5
  8
0
 10
156.03674713187641
 20
39.809150412642957
 30
0.0
  0
VERTEX
  5
8A6
  8
0
 10
156.0727604170641
 20
39.814108763502148
 30
0.0
  0
VERTEX
  5
8A7
  8
0
 10
156.09046341844919
 20
39.816546133258058
 30
0.0
  0
VERTEX
  5
8A8
  8
0
 10
156.10796287092691
 20
39.818955478164412
 30
0.0
  0
VERTEX
  5
8A9
  8
0
 10
156.14234782271339
 20
39.823689638192988
 30
0.0
  0
VERTEX
  5
8AA
  8
0
 10
156.17590875658641
 20
39.82831034647986
 30
0.0
  0
VERTEX
  5
8AB
  8
0
 10
156.20863931285751
 20
39.832816727415718
 30
0.0
  0
VERTEX
  5
8AC
  8
0
 10
156.2405332891918
 20
39.837207927055957
 30
0.0
  0
VERTEX
  5
8AD
  8
0
 10
156.27158464178399
 20
39.841483113282408
 30
0.0
  0
VERTEX
  5
8AE
  8
0
 10
156.2867924891178
 20
39.84357694733562
 30
0.0
  0
VERTEX
  5
8AF
  8
0
 10
156.301787486503
 20
39.845641475961123
 30
0.0
  0
VERTEX
  5
8B0
  8
0
 10
156.33113610000751
 20
39.849682227095791
 30
0.0
  0
VERTEX
  5
8B1
  8
0
 10
156.3596249208299
 20
39.853604600977143
 30
0.0
  0
VERTEX
  5
8B2
  8
0
 10
156.38724855043071
 20
39.857407854327988
 30
0.0
  0
VERTEX
  5
8B3
  8
0
 10
156.41400175422149
 20
39.861091266444113
 30
0.0
  0
VERTEX
  5
8B4
  8
0
 10
156.4398794625566
 20
39.864654139330817
 30
0.0
  0
VERTEX
  5
8B5
  8
0
 10
156.45248846700261
 20
39.866390161682077
 30
0.0
  0
VERTEX
  5
8B6
  8
0
 10
156.46487677169381
 20
39.868095797835231
 30
0.0
  0
VERTEX
  5
8B7
  8
0
 10
156.4889889447239
 20
39.871415589774152
 30
0.0
  0
VERTEX
  5
8B8
  8
0
 10
156.51221141246791
 20
39.87461288605774
 30
0.0
  0
VERTEX
  5
8B9
  8
0
 10
156.5345397743433
 20
39.877687080808691
 30
0.0
  0
VERTEX
  5
8BA
  8
0
 10
156.5559697991975
 20
39.88063759147704
 30
0.0
  0
VERTEX
  5
8BB
  8
0
 10
156.57649742611031
 20
39.883463858950542
 30
0.0
  0
VERTEX
  5
8BC
  8
0
 10
156.5864216180388
 20
39.884830233201562
 30
0.0
  0
VERTEX
  5
8BD
  8
0
 10
156.5961187651626
 20
39.886165347660629
 30
0.0
  0
VERTEX
  5
8BE
  8
0
 10
156.614830098174
 20
39.888741545683942
 30
0.0
  0
VERTEX
  5
8BF
  8
0
 10
156.63262787940741
 20
39.891191964839258
 30
0.0
  0
VERTEX
  5
8C0
  8
0
 10
156.64118312738299
 20
39.89236986129967
 30
0.0
  0
VERTEX
  5
8C1
  8
0
 10
156.64950873624079
 20
39.893516140780093
 30
0.0
  0
VERTEX
  5
8C2
  8
0
 10
156.66546946980631
 20
39.8957136330826
 30
0.0
  0
VERTEX
  5
8C3
  8
0
 10
156.68050705559651
 20
39.897784025329081
 30
0.0
  0
VERTEX
  5
8C4
  8
0
 10
156.68767877073569
 20
39.898771435384482
 30
0.0
  0
VERTEX
  5
8C5
  8
0
 10
156.69461864403749
 20
39.899726925186897
 30
0.0
  0
VERTEX
  5
8C6
  8
0
 10
156.70780156102899
 20
39.901541964482817
 30
0.0
  0
VERTEX
  5
8C7
  8
0
 10
156.72005330845059
 20
39.903228799272753
 30
0.0
  0
VERTEX
  5
8C8
  8
0
 10
156.73137156463591
 20
39.904787109906948
 30
0.0
  0
VERTEX
  5
8C9
  8
0
 10
156.74175418481181
 20
39.906216601090598
 30
0.0
  0
VERTEX
  5
8CA
  8
0
 10
156.7511992015055
 20
39.907517001939731
 30
0.0
  0
VERTEX
  5
8CB
  8
0
 10
156.75556954228409
 20
39.908118715525177
 30
0.0
  0
VERTEX
  5
8CC
  8
0
 10
156.7597048249167
 20
39.908688066032582
 30
0.0
  0
VERTEX
  5
8CD
  8
0
 10
156.76726944325739
 20
39.909729571456289
 30
0.0
  0
VERTEX
  5
8CE
  8
0
 10
156.7738916230567
 20
39.910641320848953
 30
0.0
  0
VERTEX
  5
8CF
  8
0
 10
156.779570109433
 20
39.911423141436998
 30
0.0
  0
VERTEX
  5
8D0
  8
0
 10
156.78430382633161
 20
39.912074885067952
 30
0.0
  0
VERTEX
  5
8D1
  8
0
 10
156.7880918767282
 20
39.912596428238508
 30
0.0
  0
VERTEX
  5
8D2
  8
0
 10
156.78963104566461
 20
39.912808342802208
 30
0.0
  0
VERTEX
  5
8D3
  8
0
 10
156.79093354279971
 20
39.912987672117907
 30
0.0
  0
VERTEX
  5
8D4
  8
0
 10
156.79282828605949
 20
39.91324854256672
 30
0.0
  0
VERTEX
  5
8D5
  8
0
 10
156.79377574745979
 20
39.913378990150818
 30
0.0
  0
VERTEX
  5
8D6
  8
0
 10
156.793894184343
 20
39.913395296678218
 30
0.0
  0
SEQEND
  5
8D7
  8
0
  0
LINE
  5
292
  8
2
 10
96.043894184343003
 20
21.989663412620249
 30
0.0
 11
95.481394184343003
 21
21.427163412620239
 31
0.0
  0
LINE
  5
293
  8
2
 10
102.606394184343
 20
21.427163412620239
 30
0.0
 11
102.043894184343
 21
21.989663412620249
 31
0.0
  0
LINE
  5
294
  8
2
 10
96.043894184343003
 20
39.427163412620253
 30
0.0
 11
96.043894184343003
 21
21.989663412620249
 31
0.0
  0
LINE
  5
295
  8
2
 10
102.043894184343
 20
21.989663412620249
 30
0.0
 11
102.043894184343
 21
39.427163412620253
 31
0.0
  0
LINE
  5
296
  8
2
 10
99.043894184343003
 20
41.159214220189128
 30
0.0
 11
96.043894184343003
 21
39.427163412620253
 31
0.0
  0
LINE
  5
297
  8
2
 10
102.043894184343
 20
39.427163412620253
 30
0.0
 11
99.043894184343003
 21
41.159214220189128
 31
0.0
  0
LINE
  5
298
  8
0
 10
110.2190895245781
 20
31.49691988636437
 30
0.0
 11
110.08029231689039
 21
33.481812430869539
 31
0.0
  0
LINE
  5
299
  8
0
 10
109.0893360443214
 20
47.653147359874211
 30
0.0
 11
108.9607395146399
 21
49.492163412620243
 31
0.0
  0
LINE
  5
29A
  8
0
 10
89.127048854046066
 20
49.492163412620243
 30
0.0
 11
87.868698844107897
 21
31.49691988636437
 31
0.0
  0
LINE
  5
29B
  8
2
 10
105.543894184343
 20
49.492163412620243
 30
0.0
 11
105.8228299279556
 21
50.927163412620253
 31
0.0
  0
LINE
  5
29C
  8
2
 10
92.264958440730368
 20
50.927163412620253
 30
0.0
 11
92.543894184343003
 21
49.492163412620243
 31
0.0
  0
LINE
  5
29D
  8
0
 10
108.9607395146399
 20
49.492163412620243
 30
0.0
 11
107.52573951463989
 21
50.927163412620253
 31
0.0
  0
LINE
  5
29E
  8
0
 10
90.562048854046054
 20
50.927163412620253
 30
0.0
 11
89.127048854046066
 21
49.492163412620243
 31
0.0
  0
ARC
  5
29F
  8
0
 10
88.866262894367708
 20
31.427163412620249
 30
0.0
 40
0.9999999999999959
 50
176.0
 51
270.0
  0
ARC
  5
2A0
  8
0
 10
109.2215254743183
 20
31.427163412620249
 30
0.0
 40
0.9999999999999965
 50
270.0
 51
3.999999999999964
  0
LINE
  5
2A1
  8
0
 10
108.043894184343
 20
21.627163412620249
 30
0.0
 11
108.043894184343
 21
30.427163412620249
 31
0.0
  0
LINE
  5
2A2
  8
0
 10
90.043894184343003
 20
30.427163412620249
 30
0.0
 11
90.043894184343003
 21
21.627163412620249
 31
0.0
  0
LINE
  5
2A3
  8
0
 10
106.543894184343
 20
21.427163412620239
 30
0.0
 11
106.543894184343
 21
21.627163412620249
 31
0.0
  0
LINE
  5
2A4
  8
0
 10
91.543894184343003
 20
21.627163412620249
 30
0.0
 11
91.543894184343003
 21
21.427163412620239
 31
0.0
  0
LINE
  5
2A5
  8
0
 10
156.793894184343
 20
39.913395296678218
 30
0.0
 11
156.793894184343
 21
52.427163412620239
 31
0.0
  0
LINE
  5
2A7
  8
1
 10
149.043894184343
 20
36.322782424043247
 30
0.0
 11
149.043894184343
 21
89.927163412620274
 31
0.0
  0
LINE
  5
2AE
  8
0
 10
156.043894184343
 20
80.427163412620246
 30
0.0
 11
142.043894184343
 21
80.427163412620246
 31
0.0
  0
LINE
  5
2AF
  8
0
 10
156.043894184343
 20
63.927163412620239
 30
0.0
 11
142.043894184343
 21
63.927163412620239
 31
0.0
  0
LINE
  5
2B0
  8
0
 10
154.543894184343
 20
52.727163412620243
 30
0.0
 11
143.543894184343
 21
52.727163412620243
 31
0.0
  0
LINE
  5
2B1
  8
0
 10
153.168894184343
 20
52.427163412620239
 30
0.0
 11
144.918894184343
 21
52.427163412620239
 31
0.0
  0
ARC
  5
2B6
  8
0
 10
149.043894184343
 20
80.427163412620246
 30
0.0
 40
7.0000000000000142
 50
0.0
 51
180.0
  0
LINE
  5
2B7
  8
0
 10
156.043894184343
 20
63.927163412620239
 30
0.0
 11
156.043894184343
 21
80.427163412620246
 31
0.0
  0
LINE
  5
2B8
  8
0
 10
142.043894184343
 20
80.427163412620246
 30
0.0
 11
142.043894184343
 21
63.927163412620239
 31
0.0
  0
ARC
  5
2B9
  8
0
 10
143.543894184343
 20
63.927163412620267
 30
0.0
 40
1.5000000000000211
 50
180.0
 51
270.0
  0
ARC
  5
2BA
  8
0
 10
154.543894184343
 20
63.927163412620267
 30
0.0
 40
1.5000000000000211
 50
270.0
 51
0.0
  0
LINE
  5
2BC
  8
0
 10
154.543894184343
 20
52.72716341262025
 30
0.0
 11
154.543894184343
 21
62.427163412620239
 31
0.0
  0
LINE
  5
2BD
  8
0
 10
143.543894184343
 20
62.427163412620239
 30
0.0
 11
143.543894184343
 21
52.72716341262025
 31
0.0
  0
LINE
  5
2BE
  8
0
 10
153.168894184343
 20
52.427163412620239
 30
0.0
 11
153.168894184343
 21
52.727163412620243
 31
0.0
  0
LINE
  5
2BF
  8
0
 10
144.918894184343
 20
52.72716341262025
 30
0.0
 11
144.918894184343
 21
52.427163412620239
 31
0.0
  0
LINE
  5
39D
  8
0
 10
204.85730843126331
 20
49.492163412620243
 30
0.0
 11
202.31508789661521
 21
49.492163412620243
 31
0.0
  0
LINE
  5
39E
  8
0
 10
222.14877855720911
 20
49.492163412620243
 30
0.0
 11
219.60655802256099
 21
49.492163412620243
 31
0.0
  0
LINE
  5
3A0
  8
0
 10
223.4071285671472
 20
31.49691988636437
 30
0.0
 11
201.05673788667701
 21
31.49691988636437
 31
0.0
  0
POLYLINE
  5
3A1
  8
0
 66
     1
 10
0.0
 20
0.0
 30
0.0
  0
VERTEX
  5
8D8
  8
0
 10
203.32366999465921
 20
32.869252490402211
 30
0.0
  0
VERTEX
  5
8D9
  8
0
 10
203.3814162018331
 20
32.879739107968909
 30
0.0
  0
VERTEX
  5
8DA
  8
0
 10
203.49885774691811
 20
32.900505827190699
 30
0.0
  0
VERTEX
  5
8DB
  8
0
 10
203.61886925297401
 20
32.920992107654598
 30
0.0
  0
VERTEX
  5
8DC
  8
0
 10
203.67982773410409
 20
32.931128196116582
 30
0.0
  0
VERTEX
  5
8DD
  8
0
 10
203.74141540313141
 20
32.94119192067788
 30
0.0
  0
VERTEX
  5
8DE
  8
0
 10
203.86646013462831
 20
32.961099321879203
 30
0.0
  0
VERTEX
  5
8DF
  8
0
 10
203.99396664942239
 20
32.98070845292785
 30
0.0
  0
VERTEX
  5
8E0
  8
0
 10
204.12389742502049
 20
33.000013543267798
 30
0.0
  0
VERTEX
  5
8E1
  8
0
 10
204.2562142255201
 20
33.019008911815803
 30
0.0
  0
VERTEX
  5
8E2
  8
0
 10
204.3908781128616
 20
33.037688968633269
 30
0.0
  0
VERTEX
  5
8E3
  8
0
 10
204.459077856774
 20
33.046909033614973
 30
0.0
  0
VERTEX
  5
8E4
  8
0
 10
204.52784945828699
 20
33.056048216571199
 30
0.0
  0
VERTEX
  5
8E5
  8
0
 10
204.66708795400189
 20
33.07408125288795
 30
0.0
  0
VERTEX
  5
8E6
  8
0
 10
204.8085526250369
 20
33.091782770839117
 30
0.0
  0
VERTEX
  5
8E7
  8
0
 10
204.95220184130611
 20
33.109147561239169
 30
0.0
  0
VERTEX
  5
8E8
  8
0
 10
205.09799332985759
 20
33.12617051399446
 30
0.0
  0
VERTEX
  5
8E9
  8
0
 10
205.24588418731369
 20
33.142846619606978
 30
0.0
  0
VERTEX
  5
8EA
  8
0
 10
205.32060330279671
 20
33.151053067136608
 30
0.0
  0
VERTEX
  5
8EB
  8
0
 10
205.39583089249649
 20
33.159170970648582
 30
0.0
  0
VERTEX
  5
8EC
  8
0
 10
205.54778931923531
 20
33.175138763205076
 30
0.0
  0
VERTEX
  5
8ED
  8
0
 10
205.70171474935171
 20
33.19074529828999
 30
0.0
  0
VERTEX
  5
8EE
  8
0
 10
205.7794009576038
 20
33.198411654879429
 30
0.0
  0
VERTEX
  5
8EF
  8
0
 10
205.85756188581979
 20
33.205985983227322
 30
0.0
  0
VERTEX
  5
8F0
  8
0
 10
206.0152848660955
 20
33.220856333003127
 30
0.0
  0
VERTEX
  5
8F1
  8
0
 10
206.17483727561341
 20
33.235351971585303
 30
0.0
  0
VERTEX
  5
8F2
  8
0
 10
206.2552848642012
 20
33.242457936786053
 30
0.0
  0
VERTEX
  5
8F3
  8
0
 10
206.33617216144529
 20
33.2494686332114
 30
0.0
  0
VERTEX
  5
8F4
  8
0
 10
206.4992420461179
 20
33.26320216364396
 30
0.0
  0
VERTEX
  5
8F5
  8
0
 10
206.66399894158371
 20
33.276548521392961
 30
0.0
  0
VERTEX
  5
8F6
  8
0
 10
206.83039436334349
 20
33.289503778905242
 30
0.0
  0
VERTEX
  5
8F7
  8
0
 10
206.99837934471429
 20
33.302064123720172
 30
0.0
  0
VERTEX
  5
8F8
  8
0
 10
207.16790445123891
 20
33.314225859591687
 30
0.0
  0
VERTEX
  5
8F9
  8
0
 10
207.2532289788362
 20
33.320156126142578
 30
0.0
  0
VERTEX
  5
8FA
  8
0
 10
207.33891979523349
 20
33.325985407575992
 30
0.0
  0
VERTEX
  5
8FB
  8
0
 10
207.51137505046881
 20
33.337339307084683
 30
0.0
  0
VERTEX
  5
8FC
  8
0
 10
207.6852194669799
 20
33.348284216903252
 30
0.0
  0
VERTEX
  5
8FD
  8
0
 10
207.86040188600049
 20
33.358816916174291
 30
0.0
  0
VERTEX
  5
8FE
  8
0
 10
208.0368707550187
 20
33.368934305345263
 30
0.0
  0
VERTEX
  5
8FF
  8
0
 10
208.2145741429469
 20
33.37863340708072
 30
0.0
  0
VERTEX
  5
900
  8
0
 10
208.30387245327961
 20
33.383325203377879
 30
0.0
  0
VERTEX
  5
901
  8
0
 10
208.3934597554049
 20
33.387911367138408
 30
0.0
  0
VERTEX
  5
902
  8
0
 10
208.57347495010819
 20
33.39676545520927
 30
0.0
  0
VERTEX
  5
903
  8
0
 10
208.75456675236029
 20
33.405193065720873
 30
0.0
  0
VERTEX
  5
904
  8
0
 10
208.93668187064131
 20
33.413191718604153
 30
0.0
  0
VERTEX
  5
905
  8
0
 10
209.11976671229121
 20
33.420759060023322
 30
0.0
  0
VERTEX
  5
906
  8
0
 10
209.30376739928059
 20
33.4278928630685
 30
0.0
  0
VERTEX
  5
907
  8
0
 10
209.396094273763
 20
33.43129652665985
 30
0.0
  0
VERTEX
  5
908
  8
0
 10
209.48862978406601
 20
33.434591028411049
 30
0.0
  0
VERTEX
  5
909
  8
0
 10
209.67429946552431
 20
33.440851584921383
 30
0.0
  0
VERTEX
  5
90A
  8
0
 10
209.860721804962
 20
33.446672690249002
 30
0.0
  0
VERTEX
  5
90B
  8
0
 10
210.0478419421942
 20
33.452052631364687
 30
0.0
  0
VERTEX
  5
90C
  8
0
 10
210.23560481168849
 20
33.45698982506461
 30
0.0
  0
VERTEX
  5
90D
  8
0
 10
210.42395515877001
 20
33.461482818436181
 30
0.0
  0
VERTEX
  5
90E
  8
0
 10
210.51833332160189
 20
33.463562321696187
 30
0.0
  0
VERTEX
  5
90F
  8
0
 10
210.61283755588161
 20
33.465530289285681
 30
0.0
  0
VERTEX
  5
910
  8
0
 10
210.80219641889479
 20
33.469131046527323
 30
0.0
  0
VERTEX
  5
911
  8
0
 10
210.99197602346729
 20
33.47228403053375
 30
0.0
  0
VERTEX
  5
912
  8
0
 10
211.1821205214415
 20
33.474988313447909
 30
0.0
  0
VERTEX
  5
913
  8
0
 10
211.37257395727909
 20
33.477243099456032
 30
0.0
  0
VERTEX
  5
914
  8
0
 10
211.56328028452791
 20
33.4790477250219
 30
0.0
  0
VERTEX
  5
915
  8
0
 10
211.6587107471145
 20
33.479781056502397
 30
0.0
  0
VERTEX
  5
916
  8
0
 10
211.75418338231529
 20
33.480401659082048
 30
0.0
  0
VERTEX
  5
917
  8
0
 10
211.945227071863
 20
33.481304503202068
 30
0.0
  0
VERTEX
  5
918
  8
0
 10
212.13635513301949
 20
33.481755991693873
 30
0.0
  0
VERTEX
  5
919
  8
0
 10
212.2319332269121
 20
33.481812430869532
 30
0.0
  0
VERTEX
  5
91A
  8
0
 10
212.32751132080469
 20
33.481755991693873
 30
0.0
  0
VERTEX
  5
91B
  8
0
 10
212.51863938196121
 20
33.481304503202068
 30
0.0
  0
VERTEX
  5
91C
  8
0
 10
212.70968307150889
 20
33.480401659082048
 30
0.0
  0
VERTEX
  5
91D
  8
0
 10
212.8051557067098
 20
33.479781056502397
 30
0.0
  0
VERTEX
  5
91E
  8
0
 10
212.9005861692963
 20
33.4790477250219
 30
0.0
  0
VERTEX
  5
91F
  8
0
 10
213.09129249654521
 20
33.477243099456032
 30
0.0
  0
VERTEX
  5
920
  8
0
 10
213.28174593238279
 20
33.474988313447909
 30
0.0
  0
VERTEX
  5
921
  8
0
 10
213.47189043035701
 20
33.47228403053375
 30
0.0
  0
VERTEX
  5
922
  8
0
 10
213.6616700349295
 20
33.469131046527323
 30
0.0
  0
VERTEX
  5
923
  8
0
 10
213.85102889794271
 20
33.465530289285681
 30
0.0
  0
VERTEX
  5
924
  8
0
 10
213.94553313222241
 20
33.463562321696187
 30
0.0
  0
VERTEX
  5
925
  8
0
 10
214.03991129505431
 20
33.461482818436181
 30
0.0
  0
VERTEX
  5
926
  8
0
 10
214.22826164213581
 20
33.45698982506461
 30
0.0
  0
VERTEX
  5
927
  8
0
 10
214.41602451163001
 20
33.452052631364687
 30
0.0
  0
VERTEX
  5
928
  8
0
 10
214.60314464886221
 20
33.446672690249002
 30
0.0
  0
VERTEX
  5
929
  8
0
 10
214.7895669882999
 20
33.440851584921383
 30
0.0
  0
VERTEX
  5
92A
  8
0
 10
214.97523666975829
 20
33.434591028411049
 30
0.0
  0
VERTEX
  5
92B
  8
0
 10
215.0677721800613
 20
33.43129652665985
 30
0.0
  0
VERTEX
  5
92C
  8
0
 10
215.16009905454359
 20
33.4278928630685
 30
0.0
  0
VERTEX
  5
92D
  8
0
 10
215.34409974153311
 20
33.420759060023322
 30
0.0
  0
VERTEX
  5
92E
  8
0
 10
215.5271845831829
 20
33.413191718604153
 30
0.0
  0
VERTEX
  5
92F
  8
0
 10
215.709299701464
 20
33.405193065720873
 30
0.0
  0
VERTEX
  5
930
  8
0
 10
215.8903915037161
 20
33.396765455209277
 30
0.0
  0
VERTEX
  5
931
  8
0
 10
216.0704066984193
 20
33.387911367138422
 30
0.0
  0
VERTEX
  5
932
  8
0
 10
216.15999400054471
 20
33.383325203377879
 30
0.0
  0
VERTEX
  5
933
  8
0
 10
216.24929231087731
 20
33.37863340708072
 30
0.0
  0
VERTEX
  5
934
  8
0
 10
216.4269956988056
 20
33.36893430534527
 30
0.0
  0
VERTEX
  5
935
  8
0
 10
216.60346456782369
 20
33.358816916174291
 30
0.0
  0
VERTEX
  5
936
  8
0
 10
216.77864698684439
 20
33.348284216903252
 30
0.0
  0
VERTEX
  5
937
  8
0
 10
216.95249140335551
 20
33.337339307084683
 30
0.0
  0
VERTEX
  5
938
  8
0
 10
217.1249466585908
 20
33.325985407575978
 30
0.0
  0
VERTEX
  5
939
  8
0
 10
217.210637474988
 20
33.320156126142571
 30
0.0
  0
VERTEX
  5
93A
  8
0
 10
217.29596200258541
 20
33.314225859591687
 30
0.0
  0
VERTEX
  5
93B
  8
0
 10
217.46548710911
 20
33.302064123720172
 30
0.0
  0
VERTEX
  5
93C
  8
0
 10
217.63347209048081
 20
33.289503778905242
 30
0.0
  0
VERTEX
  5
93D
  8
0
 10
217.79986751224061
 20
33.276548521392961
 30
0.0
  0
VERTEX
  5
93E
  8
0
 10
217.9646244077064
 20
33.26320216364396
 30
0.0
  0
VERTEX
  5
93F
  8
0
 10
218.12769429237889
 20
33.2494686332114
 30
0.0
  0
VERTEX
  5
940
  8
0
 10
218.20858158962309
 20
33.242457936786053
 30
0.0
  0
VERTEX
  5
941
  8
0
 10
218.28902917821091
 20
33.235351971585303
 30
0.0
  0
VERTEX
  5
942
  8
0
 10
218.44858158772871
 20
33.220856333003127
 30
0.0
  0
VERTEX
  5
943
  8
0
 10
218.6063045680045
 20
33.205985983227322
 30
0.0
  0
VERTEX
  5
944
  8
0
 10
218.68446549622041
 20
33.198411654879429
 30
0.0
  0
VERTEX
  5
945
  8
0
 10
218.76215170447259
 20
33.19074529828999
 30
0.0
  0
VERTEX
  5
946
  8
0
 10
218.91607713458899
 20
33.175138763205076
 30
0.0
  0
VERTEX
  5
947
  8
0
 10
219.06803556132769
 20
33.159170970648582
 30
0.0
  0
VERTEX
  5
948
  8
0
 10
219.1432631510275
 20
33.151053067136608
 30
0.0
  0
VERTEX
  5
949
  8
0
 10
219.2179822665106
 20
33.142846619606978
 30
0.0
  0
VERTEX
  5
94A
  8
0
 10
219.36587312396671
 20
33.12617051399446
 30
0.0
  0
VERTEX
  5
94B
  8
0
 10
219.5116646125181
 20
33.109147561239169
 30
0.0
  0
VERTEX
  5
94C
  8
0
 10
219.65531382878731
 20
33.091782770839117
 30
0.0
  0
VERTEX
  5
94D
  8
0
 10
219.7967784998223
 20
33.074081252887957
 30
0.0
  0
VERTEX
  5
94E
  8
0
 10
219.93601699553719
 20
33.056048216571199
 30
0.0
  0
VERTEX
  5
94F
  8
0
 10
220.00478859705009
 20
33.046909033614973
 30
0.0
  0
VERTEX
  5
950
  8
0
 10
220.0729883409627
 20
33.037688968633269
 30
0.0
  0
VERTEX
  5
951
  8
0
 10
220.2076522283042
 20
33.019008911815803
 30
0.0
  0
VERTEX
  5
952
  8
0
 10
220.33996902880369
 20
33.000013543267798
 30
0.0
  0
VERTEX
  5
953
  8
0
 10
220.4698998044019
 20
32.98070845292785
 30
0.0
  0
VERTEX
  5
954
  8
0
 10
220.5974063191959
 20
32.961099321879203
 30
0.0
  0
VERTEX
  5
955
  8
0
 10
220.7224510506928
 20
32.94119192067788
 30
0.0
  0
VERTEX
  5
956
  8
0
 10
220.78403871972009
 20
32.931128196116582
 30
0.0
  0
VERTEX
  5
957
  8
0
 10
220.8449972008502
 20
32.920992107654598
 30
0.0
  0
VERTEX
  5
958
  8
0
 10
220.9650087069061
 20
32.900505827190699
 30
0.0
  0
VERTEX
  5
959
  8
0
 10
221.08245025199119
 20
32.879739107968909
 30
0.0
  0
VERTEX
  5
95A
  8
0
 10
221.140196459165
 20
32.869252490402211
 30
0.0
  0
SEQEND
  5
95B
  8
0
  0
POLYLINE
  5
3A2
  8
0
 66
     1
 10
0.0
 20
0.0
 30
0.0
  0
VERTEX
  5
95C
  8
0
 10
203.1377447418939
 20
46.951383373920372
 30
0.0
  0
VERTEX
  5
95D
  8
0
 10
203.16759258971379
 20
45.060675708248077
 30
0.0
  0
VERTEX
  5
95E
  8
0
 10
203.22848656188219
 20
40.744205239778658
 30
0.0
  0
VERTEX
  5
95F
  8
0
 10
203.2913514208403
 20
35.68764603943432
 30
0.0
  0
VERTEX
  5
960
  8
0
 10
203.32366999465921
 20
32.869252490402211
 30
0.0
  0
SEQEND
  5
961
  8
0
  0
POLYLINE
  5
3A4
  8
0
 66
     1
 10
0.0
 20
0.0
 30
0.0
  0
VERTEX
  5
962
  8
0
 10
221.140196459165
 20
32.869252490402211
 30
0.0
  0
VERTEX
  5
963
  8
0
 10
221.17251503298399
 20
35.687646039446122
 30
0.0
  0
VERTEX
  5
964
  8
0
 10
221.2353798919423
 20
40.744205239799797
 30
0.0
  0
VERTEX
  5
965
  8
0
 10
221.29627386411059
 20
45.060675708259787
 30
0.0
  0
VERTEX
  5
966
  8
0
 10
221.3261217119304
 20
46.951383373920372
 30
0.0
  0
SEQEND
  5
967
  8
0
  0
LINE
  5
3A5
  8
0
 10
205.83589030166539
 20
50.927163412620253
 30
0.0
 11
203.75008789661521
 21
50.927163412620253
 31
0.0
  0
LINE
  5
3A6
  8
0
 10
220.71377855720911
 20
50.927163412620253
 30
0.0
 11
218.62797615215891
 21
50.927163412620253
 31
0.0
  0
LINE
  5
3A8
  8
0
 10
222.40956451688751
 20
30.427163412620249
 30
0.0
 11
202.05430193693681
 21
30.427163412620249
 31
0.0
  0
LINE
  5
3A9
  8
0
 10
221.2319332269121
 20
21.627163412620249
 30
0.0
 11
203.2319332269121
 21
21.627163412620249
 31
0.0
  0
LINE
  5
3AA
  8
0
 10
219.7319332269121
 20
21.427163412620239
 30
0.0
 11
204.7319332269121
 21
21.427163412620239
 31
0.0
  0
LINE
  5
3AB
  8
0
 10
206.5905444730445
 20
52.02716341262024
 30
0.0
 11
203.1377447418939
 21
46.951383373920351
 31
0.0
  0
LINE
  5
3AD
  8
0
 10
221.3261217119304
 20
46.951383373920372
 30
0.0
 11
217.87332198077971
 21
52.02716341262024
 31
0.0
  0
LINE
  5
3AE
  8
0
 10
203.32366999465921
 20
32.869252490402197
 30
0.0
 11
207.24959646472229
 21
39.282802536186438
 31
0.0
  0
LINE
  5
3AF
  8
0
 10
207.24959646472229
 20
52.427163412620239
 30
0.0
 11
207.24959646472229
 21
39.282802536186438
 31
0.0
  0
LINE
  5
3B0
  8
0
 10
217.87332198077971
 20
52.427163412620239
 30
0.0
 11
206.5905444730445
 21
52.427163412620239
 31
0.0
  0
LINE
  5
3B1
  8
0
 10
206.5905444730445
 20
52.427163412620239
 30
0.0
 11
206.5905444730445
 21
52.02716341262024
 31
0.0
  0
LINE
  5
3B2
  8
0
 10
217.87332198077971
 20
52.02716341262024
 30
0.0
 11
217.87332198077971
 21
52.427163412620239
 31
0.0
  0
LINE
  5
3B3
  8
0
 10
217.21426998910201
 20
39.282802536186431
 30
0.0
 11
221.140196459165
 21
32.869252490402197
 31
0.0
  0
POLYLINE
  5
3B4
  8
0
 66
     1
 10
0.0
 20
0.0
 30
0.0
  0
VERTEX
  5
968
  8
0
 10
207.24959646472229
 20
39.282802536186431
 30
0.0
  0
VERTEX
  5
969
  8
0
 10
207.2558487200105
 20
39.292239802374262
 30
0.0
  0
VERTEX
  5
96A
  8
0
 10
207.27118072292359
 20
39.311074317688139
 30
0.0
  0
VERTEX
  5
96B
  8
0
 10
207.29027273398111
 20
39.32984358491376
 30
0.0
  0
VERTEX
  5
96C
  8
0
 10
207.30122433147449
 20
39.339199302582763
 30
0.0
  0
VERTEX
  5
96D
  8
0
 10
207.3131102823711
 20
39.348533377863127
 30
0.0
  0
VERTEX
  5
96E
  8
0
 10
207.3396760583469
 20
39.367129530585927
 30
0.0
  0
VERTEX
  5
96F
  8
0
 10
207.3699499263478
 20
39.385617948106479
 30
0.0
  0
VERTEX
  5
970
  8
0
 10
207.40390894026021
 20
39.403984617107191
 30
0.0
  0
VERTEX
  5
971
  8
0
 10
207.44152736080991
 20
39.42221561654987
 30
0.0
  0
VERTEX
  5
972
  8
0
 10
207.48277667507131
 20
39.440297128227222
 30
0.0
  0
VERTEX
  5
973
  8
0
 10
207.50475325390971
 20
39.44927753866115
 30
0.0
  0
VERTEX
  5
974
  8
0
 10
207.5276256180783
 20
39.458215447236412
 30
0.0
  0
VERTEX
  5
975
  8
0
 10
207.57604019652251
 20
39.475956992366633
 30
0.0
  0
VERTEX
  5
976
  8
0
 10
207.62798371451771
 20
39.493508316393083
 30
0.0
  0
VERTEX
  5
977
  8
0
 10
207.6834168014137
 20
39.510856116269252
 30
0.0
  0
VERTEX
  5
978
  8
0
 10
207.7422974416379
 20
39.527987243209978
 30
0.0
  0
VERTEX
  5
979
  8
0
 10
207.8045810065401
 20
39.544888712657652
 30
0.0
  0
VERTEX
  5
97A
  8
0
 10
207.83698423306339
 20
39.553249315477913
 30
0.0
  0
VERTEX
  5
97B
  8
0
 10
207.8702202882198
 20
39.561547714123762
 30
0.0
  0
VERTEX
  5
97C
  8
0
 10
207.9391655353071
 20
39.577951620898759
 30
0.0
  0
VERTEX
  5
97D
  8
0
 10
208.0113644906713
 20
39.594087999622367
 30
0.0
  0
VERTEX
  5
97E
  8
0
 10
208.04866710314411
 20
39.602052035731049
 30
0.0
  0
VERTEX
  5
97F
  8
0
 10
208.08676243103019
 20
39.609944619707512
 30
0.0
  0
VERTEX
  5
980
  8
0
 10
208.16530220842679
 20
39.625509462610509
 30
0.0
  0
VERTEX
  5
981
  8
0
 10
208.2469242935455
 20
39.640770730940538
 30
0.0
  0
VERTEX
  5
982
  8
0
 10
208.28887195850379
 20
39.648283900631633
 30
0.0
  0
VERTEX
  5
983
  8
0
 10
208.33156682083151
 20
39.655716857401472
 30
0.0
  0
VERTEX
  5
984
  8
0
 10
208.4191656353826
 20
39.670336513559342
 30
0.0
  0
VERTEX
  5
985
  8
0
 10
208.5096543415753
 20
39.684618618428701
 30
0.0
  0
VERTEX
  5
986
  8
0
 10
208.6029643533891
 20
39.69855234687153
 30
0.0
  0
VERTEX
  5
987
  8
0
 10
208.6990249463918
 20
39.712127137802092
 30
0.0
  0
VERTEX
  5
988
  8
0
 10
208.79776331134491
 20
39.725332702191793
 30
0.0
  0
VERTEX
  5
989
  8
0
 10
208.8481133489008
 20
39.731793885426491
 30
0.0
  0
VERTEX
  5
98A
  8
0
 10
208.89910460938961
 20
39.738159030867678
 30
0.0
  0
VERTEX
  5
98B
  8
0
 10
209.0029720287709
 20
39.750596402098992
 30
0.0
  0
VERTEX
  5
98C
  8
0
 10
209.10928684305711
 20
39.76263538896572
 30
0.0
  0
VERTEX
  5
98D
  8
0
 10
209.2179684708108
 20
39.774266866503709
 30
0.0
  0
VERTEX
  5
98E
  8
0
 10
209.3289345366656
 20
39.785482018621003
 30
0.0
  0
VERTEX
  5
98F
  8
0
 10
209.44210093376239
 20
39.796272344779972
 30
0.0
  0
VERTEX
  5
990
  8
0
 10
209.49948251534019
 20
39.801505629582039
 30
0.0
  0
VERTEX
  5
991
  8
0
 10
209.55738188749859
 20
39.806629666440337
 30
0.0
  0
VERTEX
  5
992
  8
0
 10
209.67469002054091
 20
39.816546133258058
 30
0.0
  0
VERTEX
  5
993
  8
0
 10
209.7939364190531
 20
39.826014229035557
 30
0.0
  0
VERTEX
  5
994
  8
0
 10
209.91503070008849
 20
39.835026777418598
 30
0.0
  0
VERTEX
  5
995
  8
0
 10
210.0378810800953
 20
39.84357694733562
 30
0.0
  0
VERTEX
  5
996
  8
0
 10
210.1623944444851
 20
39.851658258175377
 30
0.0
  0
VERTEX
  5
997
  8
0
 10
210.2252453009076
 20
39.85552116329356
 30
0.0
  0
VERTEX
  5
998
  8
0
 10
210.28847641820801
 20
39.859264584698877
 30
0.0
  0
VERTEX
  5
999
  8
0
 10
210.416031437285
 20
39.866390161682077
 30
0.0
  0
VERTEX
  5
99A
  8
0
 10
210.54496282124069
 20
39.873029588285597
 30
0.0
  0
VERTEX
  5
99B
  8
0
 10
210.67517284638231
 20
39.879177832148287
 30
0.0
  0
VERTEX
  5
99C
  8
0
 10
210.80656281986961
 20
39.884830233201562
 30
0.0
  0
VERTEX
  5
99D
  8
0
 10
210.93903315451871
 20
39.889982507201438
 30
0.0
  0
VERTEX
  5
99E
  8
0
 10
211.00564211029979
 20
39.89236986129967
 30
0.0
  0
VERTEX
  5
99F
  8
0
 10
211.0724834442851
 20
39.894630748975828
 30
0.0
  0
VERTEX
  5
9A0
  8
0
 10
211.20681254036609
 20
39.898771435384482
 30
0.0
  0
VERTEX
  5
9A1
  8
0
 10
211.3419186278667
 20
39.902401427989268
 30
0.0
  0
VERTEX
  5
9A2
  8
0
 10
211.47769930297051
 20
39.905517975433099
 30
0.0
  0
VERTEX
  5
9A3
  8
0
 10
211.61405165055621
 20
39.908118715525177
 30
0.0
  0
VERTEX
  5
9A4
  8
0
 10
211.75087232220321
 20
39.910201677031552
 30
0.0
  0
VERTEX
  5
9A5
  8
0
 10
211.81942588395921
 20
39.911048482080488
 30
0.0
  0
VERTEX
  5
9A6
  8
0
 10
211.8880576145238
 20
39.911765281169082
 30
0.0
  0
VERTEX
  5
9A7
  8
0
 10
212.02550354776571
 20
39.912808342802208
 30
0.0
  0
VERTEX
  5
9A8
  8
0
 10
212.16310594462371
 20
39.91333007134115
 30
0.0
  0
VERTEX
  5
9A9
  8
0
 10
212.2319332269121
 20
39.913395296678218
 30
0.0
  0
VERTEX
  5
9AA
  8
0
 10
212.3007605092005
 20
39.91333007134115
 30
0.0
  0
VERTEX
  5
9AB
  8
0
 10
212.4383629060585
 20
39.912808342802208
 30
0.0
  0
VERTEX
  5
9AC
  8
0
 10
212.57580883930049
 20
39.911765281169082
 30
0.0
  0
VERTEX
  5
9AD
  8
0
 10
212.644440569865
 20
39.911048482080488
 30
0.0
  0
VERTEX
  5
9AE
  8
0
 10
212.712994131621
 20
39.910201677031552
 30
0.0
  0
VERTEX
  5
9AF
  8
0
 10
212.849814803268
 20
39.908118715525177
 30
0.0
  0
VERTEX
  5
9B0
  8
0
 10
212.98616715085379
 20
39.905517975433099
 30
0.0
  0
VERTEX
  5
9B1
  8
0
 10
213.12194782595751
 20
39.902401427989268
 30
0.0
  0
VERTEX
  5
9B2
  8
0
 10
213.25705391345821
 20
39.898771435384482
 30
0.0
  0
VERTEX
  5
9B3
  8
0
 10
213.3913830095392
 20
39.894630748975828
 30
0.0
  0
VERTEX
  5
9B4
  8
0
 10
213.45822434352451
 20
39.89236986129967
 30
0.0
  0
VERTEX
  5
9B5
  8
0
 10
213.52483329930561
 20
39.889982507201438
 30
0.0
  0
VERTEX
  5
9B6
  8
0
 10
213.65730363395471
 20
39.884830233201562
 30
0.0
  0
VERTEX
  5
9B7
  8
0
 10
213.7886936074419
 20
39.879177832148287
 30
0.0
  0
VERTEX
  5
9B8
  8
0
 10
213.91890363258349
 20
39.873029588285597
 30
0.0
  0
VERTEX
  5
9B9
  8
0
 10
214.0478350165393
 20
39.866390161682077
 30
0.0
  0
VERTEX
  5
9BA
  8
0
 10
214.1753900356162
 20
39.859264584698877
 30
0.0
  0
VERTEX
  5
9BB
  8
0
 10
214.23862115291669
 20
39.85552116329356
 30
0.0
  0
VERTEX
  5
9BC
  8
0
 10
214.30147200933919
 20
39.851658258175377
 30
0.0
  0
VERTEX
  5
9BD
  8
0
 10
214.42598537372891
 20
39.84357694733562
 30
0.0
  0
VERTEX
  5
9BE
  8
0
 10
214.5488357537358
 20
39.835026777418598
 30
0.0
  0
VERTEX
  5
9BF
  8
0
 10
214.66993003477111
 20
39.826014229035557
 30
0.0
  0
VERTEX
  5
9C0
  8
0
 10
214.78917643328339
 20
39.816546133258072
 30
0.0
  0
VERTEX
  5
9C1
  8
0
 10
214.9064845663257
 20
39.806629666440337
 30
0.0
  0
VERTEX
  5
9C2
  8
0
 10
214.96438393848399
 20
39.801505629582039
 30
0.0
  0
VERTEX
  5
9C3
  8
0
 10
215.0217655200619
 20
39.796272344779972
 30
0.0
  0
VERTEX
  5
9C4
  8
0
 10
215.1349319171587
 20
39.785482018621003
 30
0.0
  0
VERTEX
  5
9C5
  8
0
 10
215.24589798301349
 20
39.774266866503709
 30
0.0
  0
VERTEX
  5
9C6
  8
0
 10
215.3545796107671
 20
39.76263538896572
 30
0.0
  0
VERTEX
  5
9C7
  8
0
 10
215.4608944250534
 20
39.750596402098992
 30
0.0
  0
VERTEX
  5
9C8
  8
0
 10
215.5647618444346
 20
39.738159030867678
 30
0.0
  0
VERTEX
  5
9C9
  8
0
 10
215.6157531049235
 20
39.731793885426491
 30
0.0
  0
VERTEX
  5
9CA
  8
0
 10
215.66610314247939
 20
39.725332702191793
 30
0.0
  0
VERTEX
  5
9CB
  8
0
 10
215.76484150743249
 20
39.712127137802092
 30
0.0
  0
VERTEX
  5
9CC
  8
0
 10
215.8609021004352
 20
39.69855234687153
 30
0.0
  0
VERTEX
  5
9CD
  8
0
 10
215.954212112249
 20
39.684618618428701
 30
0.0
  0
VERTEX
  5
9CE
  8
0
 10
216.04470081844161
 20
39.670336513559342
 30
0.0
  0
VERTEX
  5
9CF
  8
0
 10
216.13229963299281
 20
39.655716857401472
 30
0.0
  0
VERTEX
  5
9D0
  8
0
 10
216.17499449532039
 20
39.648283900631633
 30
0.0
  0
VERTEX
  5
9D1
  8
0
 10
216.21694216027879
 20
39.640770730940538
 30
0.0
  0
VERTEX
  5
9D2
  8
0
 10
216.29856424539739
 20
39.625509462610509
 30
0.0
  0
VERTEX
  5
9D3
  8
0
 10
216.3771040227941
 20
39.609944619707512
 30
0.0
  0
VERTEX
  5
9D4
  8
0
 10
216.41519935068021
 20
39.602052035731049
 30
0.0
  0
VERTEX
  5
9D5
  8
0
 10
216.45250196315291
 20
39.594087999622367
 30
0.0
  0
VERTEX
  5
9D6
  8
0
 10
216.5247009185172
 20
39.577951620898759
 30
0.0
  0
VERTEX
  5
9D7
  8
0
 10
216.59364616560441
 20
39.561547714123769
 30
0.0
  0
VERTEX
  5
9D8
  8
0
 10
216.6268822207609
 20
39.553249315477913
 30
0.0
  0
VERTEX
  5
9D9
  8
0
 10
216.65928544728419
 20
39.544888712657652
 30
0.0
  0
VERTEX
  5
9DA
  8
0
 10
216.72156901218639
 20
39.527987243209978
 30
0.0
  0
VERTEX
  5
9DB
  8
0
 10
216.78044965241051
 20
39.510856116269252
 30
0.0
  0
VERTEX
  5
9DC
  8
0
 10
216.83588273930661
 20
39.493508316393083
 30
0.0
  0
VERTEX
  5
9DD
  8
0
 10
216.8878262573017
 20
39.475956992366633
 30
0.0
  0
VERTEX
  5
9DE
  8
0
 10
216.93624083574591
 20
39.458215447236412
 30
0.0
  0
VERTEX
  5
9DF
  8
0
 10
216.9591131999145
 20
39.44927753866115
 30
0.0
  0
VERTEX
  5
9E0
  8
0
 10
216.98108977875299
 20
39.440297128227222
 30
0.0
  0
VERTEX
  5
9E1
  8
0
 10
217.0223390930143
 20
39.42221561654987
 30
0.0
  0
VERTEX
  5
9E2
  8
0
 10
217.05995751356409
 20
39.403984617107191
 30
0.0
  0
VERTEX
  5
9E3
  8
0
 10
217.09391652747641
 20
39.385617948106479
 30
0.0
  0
VERTEX
  5
9E4
  8
0
 10
217.12419039547731
 20
39.367129530585927
 30
0.0
  0
VERTEX
  5
9E5
  8
0
 10
217.1507561714532
 20
39.348533377863127
 30
0.0
  0
VERTEX
  5
9E6
  8
0
 10
217.16264212234981
 20
39.339199302582763
 30
0.0
  0
VERTEX
  5
9E7
  8
0
 10
217.1735937198431
 20
39.32984358491376
 30
0.0
  0
VERTEX
  5
9E8
  8
0
 10
217.19268573090059
 20
39.311074317688139
 30
0.0
  0
VERTEX
  5
9E9
  8
0
 10
217.2080177338137
 20
39.292239802374262
 30
0.0
  0
VERTEX
  5
9EA
  8
0
 10
217.21426998910201
 20
39.282802536186431
 30
0.0
  0
SEQEND
  5
9EB
  8
0
  0
LINE
  5
3B5
  8
0
 10
217.21426998910201
 20
52.427163412620239
 30
0.0
 11
217.21426998910201
 21
39.282802536186438
 31
0.0
  0
LINE
  5
3C0
  8
0
 10
223.4071285671472
 20
31.49691988636437
 30
0.0
 11
222.14877855720911
 21
49.492163412620243
 31
0.0
  0
LINE
  5
3C1
  8
0
 10
202.31508789661521
 20
49.492163412620243
 30
0.0
 11
201.05673788667701
 21
31.49691988636437
 31
0.0
  0
LINE
  5
3C4
  8
0
 10
222.14877855720911
 20
49.492163412620243
 30
0.0
 11
220.71377855720911
 21
50.927163412620253
 31
0.0
  0
LINE
  5
3C5
  8
0
 10
203.75008789661521
 20
50.927163412620253
 30
0.0
 11
202.31508789661521
 21
49.492163412620243
 31
0.0
  0
ARC
  5
3C6
  8
0
 10
202.05430193693681
 20
31.427163412620249
 30
0.0
 40
0.9999999999999959
 50
175.9999999999998
 51
270.0
  0
ARC
  5
3C7
  8
0
 10
222.4095645168874
 20
31.427163412620249
 30
0.0
 40
0.9999999999999965
 50
270.0
 51
4.0000000000001661
  0
LINE
  5
3C8
  8
0
 10
221.2319332269121
 20
21.627163412620249
 30
0.0
 11
221.2319332269121
 21
30.427163412620249
 31
0.0
  0
LINE
  5
3C9
  8
0
 10
203.2319332269121
 20
30.427163412620249
 30
0.0
 11
203.2319332269121
 21
21.627163412620249
 31
0.0
  0
LINE
  5
3CA
  8
0
 10
219.7319332269121
 20
21.427163412620239
 30
0.0
 11
219.7319332269121
 21
21.627163412620249
 31
0.0
  0
LINE
  5
3CB
  8
0
 10
204.7319332269121
 20
21.627163412620249
 30
0.0
 11
204.7319332269121
 21
21.427163412620239
 31
0.0
  0
LINE
  5
3CD
  8
1
 10
212.2319332269121
 20
18.927163412620239
 30
0.0
 11
212.2319332269121
 21
89.927163412620274
 31
0.0
  0
LINE
  5
3D5
  8
0
 10
219.2319332269121
 20
80.427163412620246
 30
0.0
 11
205.2319332269121
 21
80.427163412620246
 31
0.0
  0
LINE
  5
3D6
  8
0
 10
219.2319332269121
 20
63.927163412620239
 30
0.0
 11
205.2319332269121
 21
63.927163412620239
 31
0.0
  0
LINE
  5
3D7
  8
0
 10
217.7319332269121
 20
62.427163412620239
 30
0.0
 11
206.7319332269121
 21
62.427163412620239
 31
0.0
  0
LINE
  5
3D8
  8
0
 10
217.7319332269121
 20
52.727163412620243
 30
0.0
 11
206.7319332269121
 21
52.727163412620243
 31
0.0
  0
LINE
  5
3D9
  8
0
 10
216.3569332269121
 20
52.727163412620243
 30
0.0
 11
208.1069332269121
 21
52.727163412620243
 31
0.0
  0
LINE
  5
3DA
  8
0
 10
216.3569332269121
 20
52.427163412620239
 30
0.0
 11
208.1069332269121
 21
52.427163412620239
 31
0.0
  0
ARC
  5
3E0
  8
0
 10
212.2319332269121
 20
80.427163412620246
 30
0.0
 40
7.0000000000000142
 50
0.0
 51
179.99999914622629
  0
LINE
  5
3E1
  8
0
 10
219.2319332269121
 20
63.927163412620239
 30
0.0
 11
219.2319332269121
 21
80.427163412620246
 31
0.0
  0
LINE
  5
3E2
  8
0
 10
205.2319332269121
 20
80.427163412620246
 30
0.0
 11
205.2319332269121
 21
63.927163412620239
 31
0.0
  0
ARC
  5
3E3
  8
0
 10
206.7319332269121
 20
63.927163412620239
 30
0.0
 40
1.50000000000001
 50
180.0
 51
270.0
  0
ARC
  5
3E4
  8
0
 10
217.7319332269121
 20
63.927163412620239
 30
0.0
 40
1.5000000000000071
 50
270.0
 51
0.0
  0
LINE
  5
3E5
  8
0
 10
217.7319332269121
 20
52.727163412620243
 30
0.0
 11
217.7319332269121
 21
62.427163412620239
 31
0.0
  0
LINE
  5
3E6
  8
0
 10
206.7319332269121
 20
62.427163412620239
 30
0.0
 11
206.7319332269121
 21
52.72716341262025
 31
0.0
  0
LINE
  5
3E7
  8
0
 10
216.3569332269121
 20
52.427163412620239
 30
0.0
 11
216.3569332269121
 21
52.727163412620243
 31
0.0
  0
LINE
  5
3E8
  8
0
 10
208.1069332269121
 20
52.72716341262025
 30
0.0
 11
208.1069332269121
 21
52.427163412620239
 31
0.0
  0
LINE
  5
48D
  8
1
 10
99.043894184343003
 20
108.01664242501541
 30
0.0
 11
99.043894184343003
 21
135.37190500496601
 31
0.0
  0
LINE
  5
48E
  8
1
 10
85.366262894367665
 20
121.6942737149907
 30
0.0
 11
158.543894184343
 21
121.6942737149907
 31
0.0
  0
CIRCLE
  5
496
  8
0
 10
99.043894184343003
 20
121.6942737149907
 30
0.0
 40
9.9168453302969741
  0
ARC
  5
498
  8
0
 10
99.043894184343003
 20
121.6942737149907
 30
0.0
 40
11.17519534023514
 50
52.729696112043293
 51
307.27030388795669
  0
POLYLINE
  5
49B
  8
0
 66
     1
 10
0.0
 20
0.0
 30
0.0
  0
VERTEX
  5
9EC
  8
0
 10
103.42509815769399
 20
130.78846220000901
 30
0.0
  0
VERTEX
  5
9ED
  8
0
 10
103.51867196892459
 20
130.7418816928124
 30
0.0
  0
VERTEX
  5
9EE
  8
0
 10
103.7043532402068
 20
130.64583759271909
 30
0.0
  0
VERTEX
  5
9EF
  8
0
 10
103.8880136071502
 20
130.54598361303081
 30
0.0
  0
VERTEX
  5
9F0
  8
0
 10
103.97906148955271
 20
130.49464113639459
 30
0.0
  0
VERTEX
  5
9F1
  8
0
 10
104.06957490197399
 20
130.44236225264979
 30
0.0
  0
VERTEX
  5
9F2
  8
0
 10
104.24895985028429
 20
130.3350176139154
 30
0.0
  0
VERTEX
  5
9F3
  8
0
 10
104.4260921039633
 20
130.223995383833
 30
0.0
  0
VERTEX
  5
9F4
  8
0
 10
104.60089627366349
 20
130.1093428146298
 30
0.0
  0
VERTEX
  5
9F5
  8
0
 10
104.7732979608946
 20
129.99110870364319
 30
0.0
  0
VERTEX
  5
9F6
  8
0
 10
104.94322378968781
 20
129.86934337255261
 30
0.0
  0
VERTEX
  5
9F7
  8
0
 10
105.0272356144704
 20
129.80715263654781
 30
0.0
  0
VERTEX
  5
9F8
  8
0
 10
105.11060143782601
 20
129.7440986459618
 30
0.0
  0
VERTEX
  5
9F9
  8
0
 10
105.2753596676243
 20
129.61542782934151
 30
0.0
  0
VERTEX
  5
9FA
  8
0
 10
105.4374283562497
 20
129.48338568634281
 30
0.0
  0
VERTEX
  5
9FB
  8
0
 10
105.59673852556649
 20
129.3480284154883
 30
0.0
  0
VERTEX
  5
9FC
  8
0
 10
105.75322237149339
 20
129.20941362625399
 30
0.0
  0
VERTEX
  5
9FD
  8
0
 10
105.9068132928623
 20
129.06760031454999
 30
0.0
  0
VERTEX
  5
9FE
  8
0
 10
105.9825034298804
 20
128.9955130219295
 30
0.0
  0
VERTEX
  5
9FF
  8
0
 10
106.05744591976401
 20
128.92264883761101
 30
0.0
  0
VERTEX
  5
A00
  8
0
 10
106.20505614137051
 20
128.77462088830799
 30
0.0
  0
VERTEX
  5
A01
  8
0
 10
106.34958113322151
 20
128.62357946889051
 30
0.0
  0
VERTEX
  5
A02
  8
0
 10
106.42066739367741
 20
128.5469487475377
 30
0.0
  0
VERTEX
  5
A03
  8
0
 10
106.49095938396241
 20
128.46958886417309
 30
0.0
  0
VERTEX
  5
A04
  8
0
 10
106.6291307215252
 20
128.3127146141743
 30
0.0
  0
VERTEX
  5
A05
  8
0
 10
106.7640363387373
 20
128.15302348622239
 30
0.0
  0
VERTEX
  5
A06
  8
0
 10
106.8302465043559
 20
128.07214278641391
 30
0.0
  0
VERTEX
  5
A07
  8
0
 10
106.89561881835159
 20
127.99058344653839
 30
0.0
  0
VERTEX
  5
A08
  8
0
 10
107.0238221574825
 20
127.8254636313093
 30
0.0
  0
VERTEX
  5
A09
  8
0
 10
107.1485917914428
 20
127.6577343172624
 30
0.0
  0
VERTEX
  5
A0A
  8
0
 10
107.26987461696579
 20
127.4874668917554
 30
0.0
  0
VERTEX
  5
A0B
  8
0
 10
107.3876190148073
 20
127.3147338223925
 30
0.0
  0
VERTEX
  5
A0C
  8
0
 10
107.501774871715
 20
127.13960862618219
 30
0.0
  0
VERTEX
  5
A0D
  8
0
 10
107.5574918539841
 20
127.0511722338296
 30
0.0
  0
VERTEX
  5
A0E
  8
0
 10
107.6122936017573
 20
126.9621658382472
 30
0.0
  0
VERTEX
  5
A0F
  8
0
 10
107.7191281670023
 20
126.7824809801015
 30
0.0
  0
VERTEX
  5
A10
  8
0
 10
107.8222330975367
 20
126.6006305275077
 30
0.0
  0
VERTEX
  5
A11
  8
0
 10
107.92156451081949
 20
126.4166918779282
 30
0.0
  0
VERTEX
  5
A12
  8
0
 10
108.017080130358
 20
126.2307433175841
 30
0.0
  0
VERTEX
  5
A13
  8
0
 10
108.1087393037014
 20
126.04286398813539
 30
0.0
  0
VERTEX
  5
A14
  8
0
 10
108.1531104675052
 20
125.9482252423927
 30
0.0
  0
VERTEX
  5
A15
  8
0
 10
108.19650301974281
 20
125.8531338529979
 30
0.0
  0
VERTEX
  5
A16
  8
0
 10
108.28033392532321
 20
125.6616336633095
 30
0.0
  0
VERTEX
  5
A17
  8
0
 10
108.3601963411286
 20
125.4684449235621
 30
0.0
  0
VERTEX
  5
A18
  8
0
 10
108.4360562768763
 20
125.2736498569123
 30
0.0
  0
VERTEX
  5
A19
  8
0
 10
108.5078814457807
 20
125.0773313701861
 30
0.0
  0
VERTEX
  5
A1A
  8
0
 10
108.5756412782959
 20
124.87957301859321
 30
0.0
  0
VERTEX
  5
A1B
  8
0
 10
108.6079876131989
 20
124.78018017302099
 30
0.0
  0
VERTEX
  5
A1C
  8
0
 10
108.6393069351255
 20
124.68045897016491
 30
0.0
  0
VERTEX
  5
A1D
  8
0
 10
108.69885131949729
 20
124.4800739699313
 30
0.0
  0
VERTEX
  5
A1E
  8
0
 10
108.7542490886958
 20
124.2785033038528
 30
0.0
  0
VERTEX
  5
A1F
  8
0
 10
108.805476664849
 20
124.075832762522
 30
0.0
  0
VERTEX
  5
A20
  8
0
 10
108.8525122449623
 20
123.8721486046495
 30
0.0
  0
VERTEX
  5
A21
  8
0
 10
108.8953358101988
 20
123.6675375203521
 30
0.0
  0
VERTEX
  5
A22
  8
0
 10
108.9151623213197
 20
123.5649115803416
 30
0.0
  0
VERTEX
  5
A23
  8
0
 10
108.93392913439951
 20
123.46208659425599
 30
0.0
  0
VERTEX
  5
A24
  8
0
 10
108.9682757918403
 20
123.2558832684331
 30
0.0
  0
VERTEX
  5
A25
  8
0
 10
108.9983611642231
 20
123.0490153051842
 30
0.0
  0
VERTEX
  5
A26
  8
0
 10
109.0241724468973
 20
122.84157074968719
 30
0.0
  0
VERTEX
  5
A27
  8
0
 10
109.0456986543101
 20
122.6336378925234
 30
0.0
  0
VERTEX
  5
A28
  8
0
 10
109.0629306246816
 20
122.4253052321005
 30
0.0
  0
VERTEX
  5
A29
  8
0
 10
109.0699339075841
 20
122.32101667897901
 30
0.0
  0
VERTEX
  5
A2A
  8
0
 10
109.0758610239041
 20
122.2166614369867
 30
0.0
  0
VERTEX
  5
A2B
  8
0
 10
109.08448434866401
 20
122.00779530817231
 30
0.0
  0
VERTEX
  5
A2C
  8
0
 10
109.08879692878359
 20
121.7987957412753
 30
0.0
  0
VERTEX
  5
A2D
  8
0
 10
109.0893360443214
 20
121.6942737149907
 30
0.0
  0
VERTEX
  5
A2E
  8
0
 10
109.08879692878359
 20
121.5897516887062
 30
0.0
  0
VERTEX
  5
A2F
  8
0
 10
109.08448434866401
 20
121.3807521218091
 30
0.0
  0
VERTEX
  5
A30
  8
0
 10
109.0758610239041
 20
121.1718859929947
 30
0.0
  0
VERTEX
  5
A31
  8
0
 10
109.0699339075841
 20
121.06753075100239
 30
0.0
  0
VERTEX
  5
A32
  8
0
 10
109.0629306246816
 20
120.9632421978809
 30
0.0
  0
VERTEX
  5
A33
  8
0
 10
109.0456986543101
 20
120.754909537458
 30
0.0
  0
VERTEX
  5
A34
  8
0
 10
109.0241724468973
 20
120.54697668029419
 30
0.0
  0
VERTEX
  5
A35
  8
0
 10
108.9983611642231
 20
120.3395321247972
 30
0.0
  0
VERTEX
  5
A36
  8
0
 10
108.9682757918403
 20
120.13266416154831
 30
0.0
  0
VERTEX
  5
A37
  8
0
 10
108.93392913439951
 20
119.92646083572539
 30
0.0
  0
VERTEX
  5
A38
  8
0
 10
108.9151623213197
 20
119.8236358496398
 30
0.0
  0
VERTEX
  5
A39
  8
0
 10
108.8953358101988
 20
119.7210099096293
 30
0.0
  0
VERTEX
  5
A3A
  8
0
 10
108.8525122449623
 20
119.5163988253319
 30
0.0
  0
VERTEX
  5
A3B
  8
0
 10
108.805476664849
 20
119.3127146674595
 30
0.0
  0
VERTEX
  5
A3C
  8
0
 10
108.7542490886958
 20
119.1100441261286
 30
0.0
  0
VERTEX
  5
A3D
  8
0
 10
108.69885131949719
 20
118.9084734600502
 30
0.0
  0
VERTEX
  5
A3E
  8
0
 10
108.6393069351255
 20
118.70808845981649
 30
0.0
  0
VERTEX
  5
A3F
  8
0
 10
108.6079876131988
 20
118.60836725696041
 30
0.0
  0
VERTEX
  5
A40
  8
0
 10
108.5756412782959
 20
118.50897441138819
 30
0.0
  0
VERTEX
  5
A41
  8
0
 10
108.5078814457807
 20
118.3112160597953
 30
0.0
  0
VERTEX
  5
A42
  8
0
 10
108.4360562768762
 20
118.1148975730691
 30
0.0
  0
VERTEX
  5
A43
  8
0
 10
108.3601963411286
 20
117.9201025064193
 30
0.0
  0
VERTEX
  5
A44
  8
0
 10
108.28033392532321
 20
117.726913766672
 30
0.0
  0
VERTEX
  5
A45
  8
0
 10
108.19650301974281
 20
117.5354135769836
 30
0.0
  0
VERTEX
  5
A46
  8
0
 10
108.1531104675052
 20
117.44032218758871
 30
0.0
  0
VERTEX
  5
A47
  8
0
 10
108.1087393037013
 20
117.34568344184601
 30
0.0
  0
VERTEX
  5
A48
  8
0
 10
108.017080130358
 20
117.1578041123973
 30
0.0
  0
VERTEX
  5
A49
  8
0
 10
107.92156451081949
 20
116.9718555520532
 30
0.0
  0
VERTEX
  5
A4A
  8
0
 10
107.8222330975367
 20
116.7879169024737
 30
0.0
  0
VERTEX
  5
A4B
  8
0
 10
107.7191281670023
 20
116.6060664498799
 30
0.0
  0
VERTEX
  5
A4C
  8
0
 10
107.6122936017573
 20
116.4263815917342
 30
0.0
  0
VERTEX
  5
A4D
  8
0
 10
107.5574918539841
 20
116.3373751961518
 30
0.0
  0
VERTEX
  5
A4E
  8
0
 10
107.501774871715
 20
116.24893880379921
 30
0.0
  0
VERTEX
  5
A4F
  8
0
 10
107.3876190148073
 20
116.0738136075889
 30
0.0
  0
VERTEX
  5
A50
  8
0
 10
107.26987461696569
 20
115.9010805382261
 30
0.0
  0
VERTEX
  5
A51
  8
0
 10
107.1485917914427
 20
115.73081311271901
 30
0.0
  0
VERTEX
  5
A52
  8
0
 10
107.0238221574825
 20
115.5630837986721
 30
0.0
  0
VERTEX
  5
A53
  8
0
 10
106.89561881835149
 20
115.39796398344301
 30
0.0
  0
VERTEX
  5
A54
  8
0
 10
106.8302465043559
 20
115.31640464356749
 30
0.0
  0
VERTEX
  5
A55
  8
0
 10
106.7640363387373
 20
115.23552394375901
 30
0.0
  0
VERTEX
  5
A56
  8
0
 10
106.6291307215252
 20
115.0758328158071
 30
0.0
  0
VERTEX
  5
A57
  8
0
 10
106.49095938396241
 20
114.9189585658083
 30
0.0
  0
VERTEX
  5
A58
  8
0
 10
106.42066739367741
 20
114.8415986824437
 30
0.0
  0
VERTEX
  5
A59
  8
0
 10
106.34958113322151
 20
114.7649679610909
 30
0.0
  0
VERTEX
  5
A5A
  8
0
 10
106.20505614137051
 20
114.61392654167349
 30
0.0
  0
VERTEX
  5
A5B
  8
0
 10
106.05744591976401
 20
114.46589859237039
 30
0.0
  0
VERTEX
  5
A5C
  8
0
 10
105.9825034298804
 20
114.3930344080519
 30
0.0
  0
VERTEX
  5
A5D
  8
0
 10
105.9068132928623
 20
114.32094711543139
 30
0.0
  0
VERTEX
  5
A5E
  8
0
 10
105.75322237149339
 20
114.1791338037274
 30
0.0
  0
VERTEX
  5
A5F
  8
0
 10
105.59673852556649
 20
114.0405190144931
 30
0.0
  0
VERTEX
  5
A60
  8
0
 10
105.4374283562497
 20
113.9051617436386
 30
0.0
  0
VERTEX
  5
A61
  8
0
 10
105.2753596676243
 20
113.7731196006399
 30
0.0
  0
VERTEX
  5
A62
  8
0
 10
105.11060143782601
 20
113.6444487840197
 30
0.0
  0
VERTEX
  5
A63
  8
0
 10
105.0272356144704
 20
113.5813947934336
 30
0.0
  0
VERTEX
  5
A64
  8
0
 10
104.94322378968781
 20
113.51920405742879
 30
0.0
  0
VERTEX
  5
A65
  8
0
 10
104.7732979608945
 20
113.39743872633819
 30
0.0
  0
VERTEX
  5
A66
  8
0
 10
104.60089627366339
 20
113.2792046153517
 30
0.0
  0
VERTEX
  5
A67
  8
0
 10
104.4260921039633
 20
113.1645520461485
 30
0.0
  0
VERTEX
  5
A68
  8
0
 10
104.24895985028429
 20
113.0535298160661
 30
0.0
  0
VERTEX
  5
A69
  8
0
 10
104.06957490197389
 20
112.9461851773316
 30
0.0
  0
VERTEX
  5
A6A
  8
0
 10
103.97906148955271
 20
112.8939062935868
 30
0.0
  0
VERTEX
  5
A6B
  8
0
 10
103.8880136071502
 20
112.8425638169506
 30
0.0
  0
VERTEX
  5
A6C
  8
0
 10
103.7043532402068
 20
112.7427098372623
 30
0.0
  0
VERTEX
  5
A6D
  8
0
 10
103.51867196892459
 20
112.6466657371691
 30
0.0
  0
VERTEX
  5
A6E
  8
0
 10
103.42509815769399
 20
112.60008522997251
 30
0.0
  0
SEQEND
  5
A6F
  8
0
  0
CIRCLE
  5
49D
  8
0
 10
99.043894184343003
 20
121.6942737149907
 30
0.0
 40
6.4999999999999991
  0
CIRCLE
  5
49E
  8
0
 10
99.043894184343003
 20
121.6942737149907
 30
0.0
 40
6.7789357436126254
  0
CIRCLE
  5
49F
  8
0
 10
99.043894184343003
 20
121.6942737149907
 30
0.0
 40
8.4818453302969754
  0
LINE
  5
4A5
  8
0
 10
144.8480483276787
 20
116.0911605136434
 30
0.0
 11
103.4250981576939
 21
112.60008522997251
 31
0.0
  0
LINE
  5
4A6
  8
0
 10
144.393894184343
 20
126.9266250028918
 30
0.0
 11
144.393894184343
 21
127.3356624688583
 31
0.0
  0
LINE
  5
4A7
  8
0
 10
144.393894184343
 20
116.0528849611231
 30
0.0
 11
144.393894184343
 21
116.4619224270897
 31
0.0
  0
ARC
  5
4A9
  8
0
 10
151.793894184343
 20
121.6942737149907
 30
0.0
 40
5.0
 50
306.70729836633348
 51
53.292701633666951
  0
LINE
  5
4AB
  8
0
 10
103.42509815769399
 20
130.78846220000901
 30
0.0
 11
144.8480483276787
 21
127.2973869163381
 31
0.0
  0
LINE
  5
4B0
  8
1
 10
149.043894184343
 20
112.1942737149907
 30
0.0
 11
149.043894184343
 21
131.19427371499069
 31
0.0
  0
CIRCLE
  5
4B9
  8
0
 10
149.043894184343
 20
121.6942737149907
 30
0.0
 40
7.0
  0
LINE
  5
4D0
  8
0
 10
30.04369342215535
 20
52.72716341262025
 30
0.0
 11
30.04369342215535
 21
52.427163412620239
 31
0.0
  0
LINE
  5
4D1
  8
0
 10
38.293693422155343
 20
52.427163412620239
 30
0.0
 11
38.293693422155343
 21
52.727163412620243
 31
0.0
  0
LINE
  5
4D2
  8
0
 10
28.668693422155339
 20
62.427163412620239
 30
0.0
 11
28.668693422155339
 21
52.72716341262025
 31
0.0
  0
LINE
  5
4D3
  8
0
 10
39.668693422155343
 20
52.727163412620243
 30
0.0
 11
39.668693422155343
 21
62.427163412620239
 31
0.0
  0
ARC
  5
4D4
  8
0
 10
39.668693422155343
 20
63.927163412620239
 30
0.0
 40
1.5000000000000071
 50
270.0
 51
0.0
  0
ARC
  5
4D5
  8
0
 10
28.668693422155339
 20
63.927163412620239
 30
0.0
 40
1.50000000000001
 50
180.0
 51
270.0
  0
LINE
  5
4D6
  8
0
 10
27.168693422155339
 20
80.427163412620246
 30
0.0
 11
27.168693422155339
 21
63.927163412620239
 31
0.0
  0
LINE
  5
4D7
  8
0
 10
41.168693422155343
 20
63.927163412620239
 30
0.0
 11
41.168693422155343
 21
80.427163412620246
 31
0.0
  0
ARC
  5
4D8
  8
0
 10
34.168693422155343
 20
80.427163412620246
 30
0.0
 40
7.0000000000000142
 50
0.0
 51
179.99999914622629
  0
LINE
  5
4DE
  8
0
 10
38.293693422155343
 20
52.427163412620239
 30
0.0
 11
30.04369342215535
 21
52.427163412620239
 31
0.0
  0
LINE
  5
4DF
  8
0
 10
38.293693422155343
 20
52.727163412620243
 30
0.0
 11
30.04369342215535
 21
52.727163412620243
 31
0.0
  0
LINE
  5
4E0
  8
0
 10
39.668693422155343
 20
52.727163412620243
 30
0.0
 11
28.668693422155339
 21
52.727163412620243
 31
0.0
  0
LINE
  5
4E1
  8
0
 10
39.668693422155343
 20
62.427163412620239
 30
0.0
 11
28.668693422155339
 21
62.427163412620239
 31
0.0
  0
LINE
  5
4E2
  8
0
 10
41.168693422155343
 20
63.927163412620239
 30
0.0
 11
27.168693422155339
 21
63.927163412620239
 31
0.0
  0
LINE
  5
4E3
  8
0
 10
41.168693422155343
 20
80.427163412620246
 30
0.0
 11
27.168693422155339
 21
80.427163412620246
 31
0.0
  0
LINE
  5
4EB
  8
1
 10
34.168693422155343
 20
18.927163412620239
 30
0.0
 11
34.168693422155343
 21
89.927163412620274
 31
0.0
  0
LINE
  5
4ED
  8
0
 10
26.668693422155339
 20
21.627163412620249
 30
0.0
 11
26.668693422155339
 21
21.427163412620239
 31
0.0
  0
LINE
  5
4EE
  8
0
 10
41.668693422155343
 20
21.427163412620239
 30
0.0
 11
41.668693422155343
 21
21.627163412620249
 31
0.0
  0
LINE
  5
4EF
  8
0
 10
25.168693422155339
 20
30.427163412620249
 30
0.0
 11
25.168693422155339
 21
21.627163412620249
 31
0.0
  0
LINE
  5
4F0
  8
0
 10
43.168693422155343
 20
21.627163412620249
 30
0.0
 11
43.168693422155343
 21
30.427163412620249
 31
0.0
  0
ARC
  5
4F1
  8
0
 10
44.346324712130631
 20
31.427163412620249
 30
0.0
 40
0.9999999999999965
 50
270.0
 51
4.0000000000001661
  0
ARC
  5
4F2
  8
0
 10
23.991062132180051
 20
31.427163412620249
 30
0.0
 40
0.9999999999999959
 50
175.9999999999998
 51
270.0
  0
LINE
  5
4F3
  8
0
 10
25.686848091858391
 20
50.927163412620253
 30
0.0
 11
24.251848091858388
 21
49.492163412620243
 31
0.0
  0
LINE
  5
4F4
  8
0
 10
44.085538752452287
 20
49.492163412620243
 30
0.0
 11
42.650538752452348
 21
50.927163412620253
 31
0.0
  0
LINE
  5
4F7
  8
0
 10
24.251848091858388
 20
49.492163412620243
 30
0.0
 11
22.993498081920219
 21
31.49691988636437
 31
0.0
  0
LINE
  5
4F8
  8
0
 10
45.343888762390463
 20
31.49691988636437
 30
0.0
 11
44.085538752452287
 21
49.492163412620243
 31
0.0
  0
LINE
  5
506
  8
0
 10
39.810082176022938
 20
52.02716341262024
 30
0.0
 11
39.810082176022938
 21
52.427163412620239
 31
0.0
  0
LINE
  5
507
  8
0
 10
28.527304668287741
 20
52.427163412620239
 30
0.0
 11
28.527304668287741
 21
52.02716341262024
 31
0.0
  0
LINE
  5
508
  8
0
 10
39.810082176022938
 20
52.427163412620239
 30
0.0
 11
28.527304668287741
 21
52.427163412620239
 31
0.0
  0
LINE
  5
50B
  8
0
 10
40.558357254002587
 20
50.927163412620253
 30
0.0
 11
39.810082176022938
 21
52.02716341262024
 31
0.0
  0
LINE
  5
50C
  8
0
 10
28.527304668287741
 20
52.02716341262024
 30
0.0
 11
39.810082176022938
 21
52.02716341262024
 31
0.0
  0
LINE
  5
50D
  8
0
 10
28.527304668287741
 20
52.02716341262024
 30
0.0
 11
27.779029590308109
 21
50.927163412620253
 31
0.0
  0
LINE
  5
50E
  8
0
 10
41.668693422155343
 20
21.427163412620239
 30
0.0
 11
26.668693422155339
 21
21.427163412620239
 31
0.0
  0
LINE
  5
50F
  8
0
 10
43.168693422155343
 20
21.627163412620249
 30
0.0
 11
25.168693422155339
 21
21.627163412620249
 31
0.0
  0
LINE
  5
510
  8
0
 10
44.346324712130702
 20
30.427163412620249
 30
0.0
 11
23.991062132180051
 21
30.427163412620249
 31
0.0
  0
LINE
  5
511
  8
0
 10
25.686848091858391
 20
50.927163412620253
 30
0.0
 11
42.650538752452348
 21
50.927163412620253
 31
0.0
  0
LINE
  5
512
  8
0
 10
42.650538752452348
 20
50.927163412620253
 30
0.0
 11
40.564736347402061
 21
50.927163412620253
 31
0.0
  0
LINE
  5
513
  8
0
 10
27.772650496908572
 20
50.927163412620253
 30
0.0
 11
25.686848091858391
 21
50.927163412620253
 31
0.0
  0
LINE
  5
518
  8
0
 10
45.343888762390463
 20
31.49691988636437
 30
0.0
 11
22.993498081920219
 21
31.49691988636437
 31
0.0
  0
LINE
  5
519
  8
0
 10
24.251848091858388
 20
49.492163412620243
 30
0.0
 11
44.085538752452287
 21
49.492163412620243
 31
0.0
  0
LINE
  5
51A
  8
0
 10
44.085538752452287
 20
49.492163412620243
 30
0.0
 11
41.543318217804192
 21
49.492163412620243
 31
0.0
  0
LINE
  5
51B
  8
0
 10
26.79406862650649
 20
49.492163412620243
 30
0.0
 11
24.251848091858388
 21
49.492163412620243
 31
0.0
  0
LINE
  5
697
  8
2
 10
103.543894184343
 20
44.427163412620239
 30
0.0
 11
94.54389418434306
 21
44.427163412620239
 31
0.0
  0
LINE
  5
698
  8
2
 10
91.543894184343003
 20
21.627163412620241
 30
0.0
 11
91.543894184343046
 21
41.427163412620239
 31
0.0
  0
LINE
  5
699
  8
2
 10
106.543894184343
 20
21.627163412620241
 30
0.0
 11
106.543894184343
 21
41.427163412620239
 31
0.0
  0
LINE
  5
6A0
  8
2
 10
103.543894184343
 20
44.427163412620239
 30
0.0
 11
106.543894184343
 21
41.427163412620239
 31
0.0
  0
LINE
  5
6A1
  8
2
 10
94.54389418434306
 20
44.427163412620239
 30
0.0
 11
91.543894184343046
 21
41.427163412620239
 31
0.0
  0
TEXT
  5
779
  8
0
 62
     3
 10
0.0
 20
0.0
 30
0.0
 40
10.0
  1
BCHN50R
  7
STANDARD1
  0
ENDSEC
  0
EOF
