  0
SECTION
  2
HEADER
  9
$ACADVER
  1
AC1009
  9
$INSBASE
 10
0.0
 20
0.0
 30
0.0
  9
$EXTMIN
 10
0.0
 20
-2.960436562073669
 30
0.0
  9
$EXTMAX
 10
658.331256811093
 20
505.53285446352191
 30
0.0
  9
$LIMMIN
 10
0.0
 20
0.0
  9
$LIMMAX
 10
750.0
 20
540.0
  9
$ORTHOMODE
 70
     1
  9
$REGENMODE
 70
     1
  9
$FILLMODE
 70
     1
  9
$QTEXTMODE
 70
     0
  9
$MIRRTEXT
 70
     0
  9
$DRAGMODE
 70
     2
  9
$LTSCALE
 40
20.0
  9
$OSMODE
 70
  3071
  9
$ATTMODE
 70
     1
  9
$TEXTSIZE
 40
0.2
  9
$TRACEWID
 40
0.05
  9
$TEXTSTYLE
  7
STANDARD
  9
$CLAYER
  8
0
  9
$CELTYPE
  6
BYLAYER
  9
$CECOLOR
 62
   256
  9
$DIMSCALE
 40
2.0
  9
$DIMASZ
 40
3.0
  9
$DIMEXO
 40
2.0
  9
$DIMDLI
 40
0.38
  9
$DIMRND
 40
0.0
  9
$DIMDLE
 40
0.0
  9
$DIMEXE
 40
2.0
  9
$DIMTP
 40
0.0
  9
$DIMTM
 40
0.0
  9
$DIMTXT
 40
3.2000000000000002
  9
$DIMCEN
 40
0.0
  9
$DIMTSZ
 40
0.0
  9
$DIMTOL
 70
     0
  9
$DIMLIM
 70
     0
  9
$DIMTIH
 70
     0
  9
$DIMTOH
 70
     0
  9
$DIMSE1
 70
     0
  9
$DIMSE2
 70
     0
  9
$DIMTAD
 70
     1
  9
$DIMZIN
 70
     0
  9
$DIMBLK
  1

  9
$DIMASO
 70
     0
  9
$DIMSHO
 70
     0
  9
$DIMPOST
  1

  9
$DIMAPOST
  1

  9
$DIMALT
 70
     0
  9
$DIMALTD
 70
     2
  9
$DIMALTF
 40
25.399999999999999
  9
$DIMLFAC
 40
1.0
  9
$DIMTOFL
 70
     1
  9
$DIMTVP
 40
1.6000000000000001
  9
$DIMTIX
 70
     1
  9
$DIMSOXD
 70
     0
  9
$DIMSAH
 70
     0
  9
$DIMBLK1
  1

  9
$DIMBLK2
  1

  9
$DIMSTYLE
  2
STANDARD
  9
$DIMCLRD
 70
     0
  9
$DIMCLRE
 70
     0
  9
$DIMCLRT
 70
     0
  9
$DIMTFAC
 40
1.0
  9
$DIMGAP
 40
0.09
  9
$LUNITS
 70
     2
  9
$LUPREC
 70
     4
  9
$SKETCHINC
 40
0.1
  9
$FILLETRAD
 40
0.0
  9
$AUNITS
 70
     0
  9
$AUPREC
 70
     4
  9
$MENU
  1
E:\r13\win\SUPPORT\ACAD
  9
$ELEVATION
 40
0.0
  9
$PELEVATION
 40
0.0
  9
$THICKNESS
 40
0.0
  9
$LIMCHECK
 70
     0
  9
$BLIPMODE
 70
     0
  9
$CHAMFERA
 40
0.0
  9
$CHAMFERB
 40
0.0
  9
$SKPOLY
 70
     0
  9
$TDCREATE
 40
2449839.7767708329
  9
$TDUPDATE
 40
2456597.5963867251
  9
$TDINDWG
 40
0.0000908565
  9
$TDUSRTIMER
 40
0.0000908565
  9
$USRTIMER
 70
     1
  9
$ANGBASE
 50
0.0
  9
$ANGDIR
 70
     0
  9
$PDMODE
 70
     0
  9
$PDSIZE
 40
0.0
  9
$PLINEWID
 40
0.0
  9
$COORDS
 70
     1
  9
$SPLFRAME
 70
     0
  9
$SPLINETYPE
 70
     6
  9
$SPLINESEGS
 70
     8
  9
$ATTDIA
 70
     0
  9
$ATTREQ
 70
     1
  9
$HANDLING
 70
     1
  9
$HANDSEED
  5
347
  9
$SURFTAB1
 70
     6
  9
$SURFTAB2
 70
     6
  9
$SURFTYPE
 70
     6
  9
$SURFU
 70
     6
  9
$SURFV
 70
     6
  9
$UCSNAME
  2

  9
$UCSORG
 10
0.0
 20
0.0
 30
0.0
  9
$UCSXDIR
 10
1.0
 20
0.0
 30
0.0
  9
$UCSYDIR
 10
0.0
 20
1.0
 30
0.0
  9
$PUCSNAME
  2

  9
$PUCSORG
 10
0.0
 20
0.0
 30
0.0
  9
$PUCSXDIR
 10
1.0
 20
0.0
 30
0.0
  9
$PUCSYDIR
 10
0.0
 20
1.0
 30
0.0
  9
$USERI1
 70
     0
  9
$USERI2
 70
     1
  9
$USERI3
 70
     0
  9
$USERI4
 70
     0
  9
$USERI5
 70
     0
  9
$USERR1
 40
0.0
  9
$USERR2
 40
0.0
  9
$USERR3
 40
0.0
  9
$USERR4
 40
0.0
  9
$USERR5
 40
0.0
  9
$WORLDVIEW
 70
     1
  9
$SHADEDGE
 70
     3
  9
$SHADEDIF
 70
    70
  9
$TILEMODE
 70
     1
  9
$MAXACTVP
 70
    16
  9
$PLIMCHECK
 70
     0
  9
$PEXTMIN
 10
1.0000000000000000E+020
 20
1.0000000000000000E+020
 30
1.0000000000000000E+020
  9
$PEXTMAX
 10
-1.0000000000000000E+020
 20
-1.0000000000000000E+020
 30
-1.0000000000000000E+020
  9
$PLIMMIN
 10
0.0
 20
0.0
  9
$PLIMMAX
 10
12.0
 20
9.0
  9
$UNITMODE
 70
     0
  9
$VISRETAIN
 70
     0
  9
$PLINEGEN
 70
     0
  9
$PSLTSCALE
 70
     0
  0
ENDSEC
  0
SECTION
  2
TABLES
  0
TABLE
  2
VPORT
 70
     1
  0
VPORT
  2
*ACTIVE
 70
     0
 10
0.0
 20
0.0
 11
1.0
 21
1.0
 12
390.03402345615979
 22
268.50860658393782
 13
0.0
 23
0.0
 14
20.0
 24
20.0
 15
20.0
 25
20.0
 16
0.0
 26
0.0
 36
1.0
 17
0.0
 27
0.0
 37
0.0
 40
547.85258761088789
 41
1.831871345029239
 42
50.0
 43
0.0
 44
0.0
 50
0.0
 51
0.0
 71
     0
 72
   500
 73
     1
 74
     0
 75
     0
 76
     0
 77
     0
 78
     2
  0
ENDTAB
  0
TABLE
  2
LTYPE
 70
     5
  0
LTYPE
  2
CONTINUOUS
 70
     0
  3
Solid Line
 72
    65
 73
     0
 40
0.0
  0
LTYPE
  2
CENTER
 70
     0
  3
____ _ ____ _ ____ _ ____ _ ____ _ ____ _ ____
 72
    65
 73
     4
 40
2.0
 49
1.25
 49
-0.25
 49
0.25
 49
-0.25
  0
LTYPE
  2
HIDDEN
 70
     0
  3
_ _ _ _ _ _ _ _ _ _ _ _ _ _ _ _ _ _ _ _ _ _ _
 72
    65
 73
     2
 40
0.375
 49
0.25
 49
-0.125
  0
LTYPE
  2
PHANTOM
 70
     0
  3
_____ _ _ _____ _ _ _____ _ _ _____ _ _ ____
 72
    65
 73
     6
 40
2.5
 49
1.25
 49
-0.25
 49
0.25
 49
-0.25
 49
0.25
 49
-0.25
  0
LTYPE
  2
PHANTOM2
 70
     0
  3
___ _ _ ___ _ _ ___ _ _ ___ _ _
 72
    65
 73
     6
 40
1.25
 49
0.625
 49
-0.125
 49
0.125
 49
-0.125
 49
0.125
 49
-0.125
  0
ENDTAB
  0
TABLE
  2
LAYER
 70
     5
  0
LAYER
  2
0
 70
     0
 62
     7
  6
CONTINUOUS
  0
LAYER
  2
1
 70
     0
 62
     1
  6
CENTER
  0
LAYER
  2
2
 70
     0
 62
     2
  6
HIDDEN
  0
LAYER
  2
3
 70
     0
 62
     3
  6
CONTINUOUS
  0
LAYER
  2
5
 70
     0
 62
     3
  6
PHANTOM
  0
ENDTAB
  0
TABLE
  2
STYLE
 70
     2
  0
STYLE
  2
STANDARD
 70
     0
 40
0.0
 41
1.0
 50
0.0
 71
     0
 42
0.2
  3
TXT
  4
BIGFONT
  0
STYLE
  2
STANDARD1
 70
     0
 40
0.0
 41
1.0
 50
0.0
 71
     0
 42
3.0
  3
txt
  4

  0
ENDTAB
  0
TABLE
  2
VIEW
 70
     1
  0
VIEW
  2
ALL
 70
     0
 40
540.0
 10
441.98319327731087
 20
270.0
 41
0.0
 11
0.0
 21
0.0
 31
1.0
 12
0.0
 22
0.0
 32
0.0
 42
0.0
 43
0.0
 44
0.0
 50
0.0
 71
     0
  0
ENDTAB
  0
TABLE
  2
UCS
 70
     0
  0
ENDTAB
  0
TABLE
  2
APPID
 70
     3
  0
APPID
  2
ACAD
 70
     0
  0
APPID
  2
ACAD_MLEADERVER
 70
     0
  0
APPID
  2
ACAD_NAV_VCDISPLAY
 70
     0
  0
ENDTAB
  0
TABLE
  2
DIMSTYLE
 70
     1
  0
DIMSTYLE
  2
STANDARD
 70
     0
  3

  4

  5

  6

  7

 40
1.0
 41
0.18
 42
0.0625
 43
0.38
 44
0.18
 45
0.0
 46
0.0
 47
0.0
 48
0.0
140
0.18
141
0.09
142
0.0
143
25.399999999999999
144
1.0
145
0.0
146
1.0
147
0.09
 71
     0
 72
     0
 73
     1
 74
     1
 75
     0
 76
     0
 77
     0
 78
     0
170
     0
171
     2
172
     0
173
     0
174
     0
175
     0
176
     0
177
     0
178
     0
  0
ENDTAB
  0
ENDSEC
  0
SECTION
  2
BLOCKS
  0
BLOCK
  8
0
  2
$MODEL_SPACE
 70
     0
 10
0.0
 20
0.0
 30
0.0
  3
$MODEL_SPACE
  1

  0
ENDBLK
  5
1F9
  8
0
  0
BLOCK
 67
     1
  8
0
  2
$PAPER_SPACE
 70
     0
 10
0.0
 20
0.0
 30
0.0
  3
$PAPER_SPACE
  1

  0
ENDBLK
  5
1F7
 67
     1
  8
0
  0
ENDSEC
  0
SECTION
  2
ENTITIES
  0
CIRCLE
  5
40
  8
5
 10
594.331256811093
 20
275.42673935560822
 30
0.0
 40
49.07
  0
CIRCLE
  5
41
  8
0
 10
594.33125681109311
 20
275.42673935560828
 30
0.0
 40
22.0
  0
CIRCLE
  5
42
  8
0
 10
594.33125681109311
 20
275.42673935560828
 30
0.0
 40
7.5
  0
CIRCLE
  5
43
  8
0
 10
594.33125681109311
 20
275.42673935560828
 30
0.0
 40
14.5
  0
LINE
  5
44
  8
1
 10
611.52872180672489
 20
265.49777831100101
 30
0.0
 11
594.331256811093
 21
275.42673935560828
 31
0.0
  0
LINE
  5
45
  8
2
 10
597.33125681109289
 20
282.30060289804129
 30
0.0
 11
597.33125681109289
 21
289.61300031471899
 31
0.0
  0
LINE
  5
46
  8
2
 10
591.331256811093
 20
282.30060289804129
 30
0.0
 11
591.331256811093
 21
289.61300031471899
 31
0.0
  0
LINE
  5
47
  8
0
 10
597.33125681109289
 20
290.42673935560822
 30
0.0
 11
596.46523140730847
 21
290.92673935560822
 31
0.0
  0
LINE
  5
48
  8
0
 10
591.331256811093
 20
290.42673935560822
 30
0.0
 11
592.19728221487742
 21
290.92673935560822
 31
0.0
  0
LINE
  5
49
  8
0
 10
597.33125681109289
 20
290.42673935560822
 30
0.0
 11
591.331256811093
 21
290.42673935560822
 31
0.0
  0
LINE
  5
4A
  8
0
 10
596.46523140730847
 20
290.92673935560822
 30
0.0
 11
592.19728221487742
 21
290.92673935560822
 31
0.0
  0
LINE
  5
4B
  8
1
 10
594.331256811093
 20
293.68914531534011
 30
0.0
 11
594.331256811093
 21
268.46621527665349
 31
0.0
  0
LINE
  5
4C
  8
0
 10
597.33125681109289
 20
290.42673935560822
 30
0.0
 11
597.33125681109289
 21
289.61300031471961
 31
0.0
  0
LINE
  5
4D
  8
0
 10
591.331256811093
 20
290.42673935560822
 30
0.0
 11
591.33125681109311
 21
289.61300031471961
 31
0.0
  0
LINE
  5
4E
  8
2
 10
597.33125681109289
 20
284.12673935561043
 30
0.0
 11
591.331256811093
 21
284.12673935560741
 31
0.0
  0
LINE
  5
4F
  8
2
 10
591.331256811093
 20
284.12673935560741
 30
0.0
 11
592.53125681109395
 21
282.92673935560867
 31
0.0
  0
LINE
  5
50
  8
2
 10
592.53125681109395
 20
282.92673935560867
 30
0.0
 11
596.13125681109204
 21
282.92673935560867
 31
0.0
  0
LINE
  5
51
  8
2
 10
596.13125681109204
 20
282.92673935560867
 30
0.0
 11
597.33125681109289
 21
284.12673935561043
 31
0.0
  0
LINE
  5
52
  8
3
 10
591.73725681109261
 20
290.66114356489891
 30
0.0
 11
591.73725681109261
 21
289.6928237518257
 31
0.0
  0
LINE
  5
53
  8
2
 10
591.73725681109261
 20
289.6928237518257
 30
0.0
 11
591.73725681109261
 21
282.4638668945974
 31
0.0
  0
LINE
  5
54
  8
2
 10
596.92525681109339
 20
289.6928237518257
 30
0.0
 11
596.92525681109339
 21
282.4638668945974
 31
0.0
  0
LINE
  5
55
  8
3
 10
596.92525681109339
 20
290.66114356489891
 30
0.0
 11
596.92525681109339
 21
289.6928237518257
 31
0.0
  0
LINE
  5
56
  8
3
 10
606.22763786785924
 20
265.56306735354582
 30
0.0
 11
605.38904831074979
 21
266.04722726008242
 31
0.0
  0
LINE
  5
57
  8
2
 10
605.38904831074979
 20
266.04722726008242
 30
0.0
 11
599.12858802952849
 21
269.6617056886966
 31
0.0
  0
LINE
  5
58
  8
2
 10
607.98304831075041
 20
270.54016705491682
 30
0.0
 11
601.72258802952877
 21
274.154645483531
 31
0.0
  0
LINE
  5
59
  8
3
 10
608.82163786785952
 20
270.05600714838022
 30
0.0
 11
607.98304831075041
 21
270.54016705491682
 31
0.0
  0
LINE
  5
5A
  8
2
 10
599.92644733947725
 20
270.11789362879699
 30
0.0
 11
600.36567782401949
 21
268.47866314425403
 31
0.0
  0
LINE
  5
5B
  8
2
 10
601.72644733947629
 20
273.23558508241928
 30
0.0
 11
599.92644733947725
 21
270.11789362879699
 31
0.0
  0
LINE
  5
5C
  8
2
 10
603.36567782401676
 20
273.6748155669622
 30
0.0
 11
601.72644733947629
 21
273.23558508241928
 31
0.0
  0
LINE
  5
5D
  8
2
 10
600.36567782401949
 20
268.47866314425403
 30
0.0
 11
603.36567782401676
 21
273.6748155669622
 31
0.0
  0
LINE
  5
5E
  8
0
 10
608.82163786785952
 20
270.52481556696171
 30
0.0
 11
608.11691918639883
 21
270.93168508740598
 31
0.0
  0
LINE
  5
5F
  8
0
 10
605.82163786785941
 20
265.32866314425507
 30
0.0
 11
605.11691918639883
 21
265.73553266469929
 31
0.0
  0
LINE
  5
60
  8
0
 10
606.68766327164406
 20
265.82866314425507
 30
0.0
 11
608.82163786785952
 21
269.52481556696171
 31
0.0
  0
LINE
  5
61
  8
0
 10
605.82163786785941
 20
265.32866314425507
 30
0.0
 11
608.82163786785952
 21
270.52481556696171
 31
0.0
  0
LINE
  5
62
  8
0
 10
608.82163786785952
 20
270.52481556696171
 30
0.0
 11
608.82163786785952
 21
269.52481556696171
 31
0.0
  0
LINE
  5
63
  8
0
 10
605.82163786785941
 20
265.32866314425507
 30
0.0
 11
606.68766327164406
 21
265.82866314425507
 31
0.0
  0
LINE
  5
64
  8
2
 10
601.78419726098775
 20
274.58788379574509
 30
0.0
 11
608.11691918639838
 21
270.93168508740632
 31
0.0
  0
LINE
  5
65
  8
2
 10
598.78419726098775
 20
269.39173137303851
 30
0.0
 11
605.11691918639838
 21
265.73553266469958
 31
0.0
  0
LINE
  5
66
  8
1
 10
658.331256811093
 20
275.42673935560828
 30
0.0
 11
530.33125681109289
 21
275.42673935560828
 31
0.0
  0
LINE
  5
67
  8
1
 10
594.331256811093
 20
339.42673935560828
 30
0.0
 11
594.331256811093
 21
211.42673935560831
 31
0.0
  0
ARC
  5
68
  8
0
 10
581.61114190620071
 20
322.89885445878048
 30
0.0
 40
8.0176999999999996
 50
235.00017346851291
 51
334.9998265314872
  0
ARC
  5
69
  8
0
 10
570.0974286276097
 20
328.26782957314231
 30
0.0
 40
20.721694932313149
 50
334.9998265314872
 51
350.95992768981682
  0
ARC
  5
6A
  8
0
 10
603.84318673026758
 20
322.89883024578512
 30
0.0
 40
13.44850178500573
 50
151.19412163158739
 51
170.9599276898133
  0
ARC
  5
6B
  8
0
 10
594.331256811093
 20
275.42673935560828
 30
0.0
 40
54.0
 50
87.588178206079604
 51
92.411821793920396
  0
ARC
  5
6C
  8
0
 10
584.81932689191854
 20
322.89883024578512
 30
0.0
 40
13.44850178500571
 50
9.0400723101859235
 51
28.805878368412611
  0
ARC
  5
6D
  8
0
 10
618.5650849945763
 20
328.26782957314231
 30
0.0
 40
20.721694932313149
 50
189.04007231018599
 51
205.00017346851291
  0
ARC
  5
6E
  8
0
 10
588.89782254016984
 20
333.30537993939981
 30
0.0
 40
20.721694932313149
 50
219.04007231018599
 51
235.00017346851291
  0
ARC
  5
6F
  8
0
 10
562.35763841698235
 20
311.78281107767799
 30
0.0
 40
13.44850178500571
 50
39.040072310185927
 51
58.8058783684126
  0
ARC
  5
70
  8
0
 10
594.331256811093
 20
275.42673935560828
 30
0.0
 40
54.0
 50
117.5881782060796
 51
122.4118217939204
  0
ARC
  5
71
  8
0
 10
578.83278431502686
 20
321.29474099685251
 30
0.0
 40
13.44850178500573
 50
181.19412163158739
 51
200.9599276898133
  0
ARC
  5
72
  8
0
 10
546.92360086448218
 20
309.07155175591652
 30
0.0
 40
20.721694932313149
 50
4.9998265314872299
 51
20.959927689816809
  0
ARC
  5
73
  8
0
 10
559.57925661281308
 20
310.17873955388819
 30
0.0
 40
8.0176999999999996
 50
265.00017346851291
 51
4.9998265314872814
  0
ARC
  5
74
  8
0
 10
560.68644441078482
 20
322.83439530221921
 30
0.0
 40
20.721694932313149
 50
249.04007231018599
 51
265.00017346851291
  0
ARC
  5
75
  8
0
 10
548.46325516984882
 20
290.92521185167431
 30
0.0
 40
13.44850178500571
 50
69.04007231018592
 51
88.805878368412607
  0
ARC
  5
76
  8
0
 10
594.331256811093
 20
275.42673935560828
 30
0.0
 40
54.0
 50
147.58817820607959
 51
152.41182179392041
  0
ARC
  5
77
  8
0
 10
557.97518508902328
 20
307.40035774971909
 30
0.0
 40
13.44850178500573
 50
211.19412163158739
 51
230.9599276898133
  0
ARC
  5
78
  8
0
 10
536.45261622730152
 20
280.86017362653149
 30
0.0
 40
20.721694932313149
 50
34.999826531487201
 51
50.95992768981678
  0
ARC
  5
79
  8
0
 10
546.8591417079208
 20
288.14685426050062
 30
0.0
 40
8.0176999999999996
 50
295.00017346851291
 51
34.999826531487251
  0
ARC
  5
7A
  8
0
 10
541.49016659355902
 20
299.66056753909157
 30
0.0
 40
20.721694932313149
 50
279.04007231018602
 51
295.00017346851291
  0
ARC
  5
7B
  8
0
 10
546.8591659209161
 20
265.91480943643393
 30
0.0
 40
13.44850178500571
 50
99.04007231018592
 51
118.80587836841261
  0
ARC
  5
7C
  8
0
 10
594.331256811093
 20
275.42673935560828
 30
0.0
 40
54.0
 50
177.58817820607959
 51
182.41182179392041
  0
ARC
  5
7D
  8
0
 10
546.8591659209161
 20
284.9386692747828
 30
0.0
 40
13.44850178500573
 50
241.19412163158751
 51
260.9599276898133
  0
ARC
  5
7E
  8
0
 10
541.49016659355902
 20
251.19291117212501
 30
0.0
 40
20.721694932313149
 50
64.999826531487216
 51
80.959927689816794
  0
ARC
  5
7F
  8
0
 10
546.8591417079208
 20
262.70662445071599
 30
0.0
 40
8.0176999999999996
 50
325.00017346851291
 51
64.999826531487273
  0
ARC
  5
80
  8
0
 10
536.45261622730163
 20
269.99330508468518
 30
0.0
 40
20.721694932313149
 50
309.04007231018602
 51
325.00017346851291
  0
ARC
  5
81
  8
0
 10
557.97518508902328
 20
243.45312096149749
 30
0.0
 40
13.44850178500571
 50
129.04007231018591
 51
148.80587836841261
  0
ARC
  5
82
  8
0
 10
594.33125681109311
 20
275.42673935560828
 30
0.0
 40
54.0
 50
207.58817820607959
 51
212.41182179392041
  0
ARC
  5
83
  8
0
 10
548.46325516984894
 20
259.9282668595423
 30
0.0
 40
13.44850178500573
 50
271.19412163158751
 51
290.9599276898133
  0
ARC
  5
84
  8
0
 10
560.68644441078482
 20
228.01908340899749
 30
0.0
 40
20.721694932313149
 50
94.99982653148723
 51
110.95992768981669
  0
ARC
  5
85
  8
0
 10
559.5792566128132
 20
240.67473915732839
 30
0.0
 40
8.0176999999999996
 50
355.00017346851291
 51
94.99982653148723
  0
ARC
  5
86
  8
0
 10
546.92360086448195
 20
241.78192695530009
 30
0.0
 40
20.721694932313149
 50
339.04007231018602
 51
355.00017346851291
  0
ARC
  5
87
  8
0
 10
578.83278431502686
 20
229.5587377143641
 30
0.0
 40
13.44850178500571
 50
159.04007231018591
 51
178.80587836841249
  0
ARC
  5
88
  8
0
 10
594.331256811093
 20
275.42673935560828
 30
0.0
 40
54.0
 50
237.58817820607959
 51
242.41182179392041
  0
ARC
  5
89
  8
0
 10
562.35763841698213
 20
239.0706676335387
 30
0.0
 40
13.44850178500573
 50
301.19412163158751
 51
320.9599276898133
  0
ARC
  5
8A
  8
0
 10
588.89782254016984
 20
217.5480987718168
 30
0.0
 40
20.721694932313149
 50
124.9998265314872
 51
140.95992768981671
  0
ARC
  5
8B
  8
0
 10
581.61114190620071
 20
227.95462425243599
 30
0.0
 40
8.0176999999999996
 50
25.000173468512859
 51
124.9998265314873
  0
ARC
  5
8C
  8
0
 10
570.0974286276097
 20
222.5856491380743
 30
0.0
 40
20.721694932313149
 50
9.0400723101860265
 51
25.000173468512809
  0
ARC
  5
8D
  8
0
 10
603.84318673026758
 20
227.95464846543149
 30
0.0
 40
13.44850178500571
 50
189.04007231018591
 51
208.80587836841261
  0
ARC
  5
8E
  8
0
 10
594.331256811093
 20
275.42673935560828
 30
0.0
 40
54.0
 50
267.58817820607948
 51
272.4118217939203
  0
ARC
  5
8F
  8
0
 10
584.81932689191854
 20
227.95464846543149
 30
0.0
 40
13.44850178500573
 50
331.19412163158739
 51
350.9599276898133
  0
ARC
  5
90
  8
0
 10
618.5650849945763
 20
222.5856491380743
 30
0.0
 40
20.721694932313149
 50
154.99982653148709
 51
170.95992768981679
  0
ARC
  5
91
  8
0
 10
607.05137171598528
 20
227.95462425243599
 30
0.0
 40
8.0176999999999996
 50
55.00017346851287
 51
154.9998265314872
  0
ARC
  5
92
  8
0
 10
599.76469108201616
 20
217.5480987718168
 30
0.0
 40
20.721694932313149
 50
39.040072310185991
 51
55.000173468512827
  0
ARC
  5
93
  8
0
 10
626.30487520520364
 20
239.07066763353859
 30
0.0
 40
13.44850178500571
 50
219.04007231018591
 51
238.80587836841261
  0
ARC
  5
94
  8
0
 10
594.33125681109311
 20
275.42673935560828
 30
0.0
 40
54.0
 50
297.58817820607959
 51
302.41182179392041
  0
ARC
  5
95
  8
0
 10
609.82972930715903
 20
229.5587377143641
 30
0.0
 40
13.44850178500573
 50
1.1941216315874219
 51
20.959927689813298
  0
ARC
  5
96
  8
0
 10
641.73891275770382
 20
241.78192695530009
 30
0.0
 40
20.721694932313149
 50
184.9998265314872
 51
200.95992768981671
  0
ARC
  5
97
  8
0
 10
629.08325700937291
 20
240.6747391573283
 30
0.0
 40
8.0176999999999996
 50
85.000173468512855
 51
184.9998265314872
  0
ARC
  5
98
  8
0
 10
627.97606921140107
 20
228.0190834089974
 30
0.0
 40
20.721694932313149
 50
69.040072310186005
 51
85.000173468512855
  0
ARC
  5
99
  8
0
 10
640.19925845233706
 20
259.9282668595423
 30
0.0
 40
13.44850178500571
 50
249.04007231018591
 51
268.80587836841261
  0
ARC
  5
9A
  8
0
 10
594.331256811093
 20
275.42673935560828
 30
0.0
 40
54.0
 50
327.58817820607959
 51
332.4118217939203
  0
ARC
  5
9B
  8
0
 10
630.68732853316271
 20
243.45312096149749
 30
0.0
 40
13.44850178500573
 50
31.194121631587439
 51
50.95992768981327
  0
ARC
  5
9C
  8
0
 10
652.20989739488436
 20
269.99330508468512
 30
0.0
 40
20.721694932313149
 50
214.9998265314872
 51
230.95992768981679
  0
ARC
  5
9D
  8
0
 10
641.80337191426531
 20
262.70662445071588
 30
0.0
 40
8.0176999999999996
 50
115.0001734685128
 51
214.9998265314872
  0
ARC
  5
9E
  8
0
 10
647.17234702862709
 20
251.19291117212501
 30
0.0
 40
20.721694932313149
 50
99.040072310186034
 51
115.0001734685128
  0
ARC
  5
9F
  8
0
 10
641.80334770126979
 20
284.9386692747828
 30
0.0
 40
13.44850178500571
 50
279.04007231018602
 51
298.80587836841261
  0
ARC
  5
A0
  8
0
 10
594.331256811093
 20
275.42673935560828
 30
0.0
 40
54.0
 50
357.58817820607959
 51
2.4118217939203781
  0
ARC
  5
A1
  8
0
 10
641.80334770126979
 20
265.91480943643381
 30
0.0
 40
13.44850178500573
 50
61.19412163158745
 51
80.959927689813341
  0
ARC
  5
A2
  8
0
 10
647.17234702862697
 20
299.66056753909157
 30
0.0
 40
20.721694932313149
 50
244.9998265314872
 51
260.95992768981682
  0
ARC
  5
A3
  8
0
 10
641.80337191426531
 20
288.14685426050062
 30
0.0
 40
8.0176999999999996
 50
145.0001734685128
 51
244.99982653148729
  0
ARC
  5
A4
  8
0
 10
652.20989739488436
 20
280.86017362653149
 30
0.0
 40
20.721694932313149
 50
129.04007231018599
 51
145.0001734685128
  0
ARC
  5
A5
  8
0
 10
630.68732853316271
 20
307.40035774971909
 30
0.0
 40
13.44850178500571
 50
309.04007231018591
 51
328.80587836841272
  0
ARC
  5
A6
  8
0
 10
594.331256811093
 20
275.42673935560828
 30
0.0
 40
54.0
 50
27.588178206079611
 51
32.411821793920403
  0
ARC
  5
A7
  8
0
 10
640.19925845233706
 20
290.92521185167431
 30
0.0
 40
13.44850178500573
 50
91.194121631587464
 51
110.9599276898133
  0
ARC
  5
A8
  8
0
 10
627.97606921140107
 20
322.83439530221921
 30
0.0
 40
20.721694932313149
 50
274.9998265314872
 51
290.95992768981682
  0
ARC
  5
A9
  8
0
 10
629.08325700937291
 20
310.17873955388819
 30
0.0
 40
8.0176999999999996
 50
175.00017346851291
 51
274.99982653148737
  0
ARC
  5
AA
  8
0
 10
641.73891275770382
 20
309.07155175591652
 30
0.0
 40
20.721694932313149
 50
159.04007231018599
 51
175.00017346851291
  0
ARC
  5
AB
  8
0
 10
609.82972930715903
 20
321.29474099685251
 30
0.0
 40
13.44850178500571
 50
339.04007231018602
 51
358.80587836841261
  0
ARC
  5
AC
  8
0
 10
594.331256811093
 20
275.42673935560828
 30
0.0
 40
54.0
 50
57.588178206079618
 51
62.41182179392041
  0
ARC
  5
AD
  8
0
 10
626.30487520520364
 20
311.78281107767799
 30
0.0
 40
13.44850178500573
 50
121.19412163158739
 51
140.9599276898133
  0
ARC
  5
AE
  8
0
 10
599.76469108201616
 20
333.30537993939981
 30
0.0
 40
20.721694932313149
 50
304.99982653148732
 51
320.95992768981682
  0
ARC
  5
AF
  8
0
 10
607.05137171598528
 20
322.89885445878048
 30
0.0
 40
8.0176999999999996
 50
205.00017346851291
 51
304.99982653148732
  0
CIRCLE
  5
B0
  8
0
 10
594.331256811093
 20
275.42673935560828
 30
0.0
 40
27.0
  0
LINE
  5
B1
  8
1
 10
390.8608118376448
 20
226.35673935560831
 30
0.0
 11
364.54962448777371
 21
226.35673935560831
 31
0.0
  0
LINE
  5
B2
  8
1
 10
390.8608118376448
 20
324.49673935560833
 30
0.0
 11
364.54962448777371
 21
324.49673935560833
 31
0.0
  0
LINE
  5
B3
  8
0
 10
365.00521816270918
 20
288.17673935560811
 30
0.0
 11
365.00521816270918
 21
262.67673935560862
 31
0.0
  0
LINE
  5
B4
  8
0
 10
396.0052181627093
 20
262.6767393556085
 30
0.0
 11
396.0052181627093
 21
288.17673935560811
 31
0.0
  0
ARC
  5
B5
  8
0
 10
369.66959476051551
 20
285.26236275780241
 30
0.0
 40
5.5
 50
121.99779682556201
 51
148.00220317444419
  0
ARC
  5
B6
  8
0
 10
391.34084156490292
 20
285.26236275780241
 30
0.0
 40
5.5
 50
31.997796825555739
 51
58.002203174426292
  0
ARC
  5
B7
  8
0
 10
391.34084156490292
 20
265.5911159534142
 30
0.0
 40
5.5
 50
301.99779682556198
 51
328.00220317444428
  0
ARC
  5
B8
  8
0
 10
369.66959476051551
 20
265.5911159534142
 30
0.0
 40
5.5
 50
211.9977968255557
 51
238.00220317443791
  0
LINE
  5
B9
  8
0
 10
394.25521816270901
 20
260.92673935560828
 30
0.0
 11
387.20521816270917
 21
260.92673935560828
 31
0.0
  0
LINE
  5
BA
  8
2
 10
395.00521816270918
 20
282.92673935560822
 30
0.0
 11
366.00521816270918
 21
282.92673935560822
 31
0.0
  0
LINE
  5
BB
  8
2
 10
395.00521816270918
 20
267.92673935560839
 30
0.0
 11
366.00521816270918
 21
267.92673935560839
 31
0.0
  0
LINE
  5
BC
  8
0
 10
368.20521816270929
 20
289.92673935560828
 30
0.0
 11
366.7552181627093
 21
289.92673935560828
 31
0.0
  0
LINE
  5
BD
  8
1
 10
383.59111033316469
 20
291.92673935560828
 30
0.0
 11
371.81932599225382
 21
291.92673935560828
 31
0.0
  0
LINE
  5
BE
  8
1
 10
383.59111033316469
 20
258.92673935560828
 30
0.0
 11
371.81932599225382
 21
258.92673935560828
 31
0.0
  0
LINE
  5
BF
  8
0
 10
388.50521816270918
 20
290.42673935560822
 30
0.0
 11
388.50521816270918
 21
289.92673935560828
 31
0.0
  0
LINE
  5
C0
  8
0
 10
394.50521816270918
 20
290.42673935560822
 30
0.0
 11
394.50521816270918
 21
289.76088704330499
 31
0.0
  0
LINE
  5
C1
  8
1
 10
391.5052181627093
 20
293.68914531534011
 30
0.0
 11
391.5052181627093
 21
275.42673935560828
 31
0.0
  0
LINE
  5
C2
  8
0
 10
368.20521816270929
 20
260.92673935560828
 30
0.0
 11
366.7552181627093
 21
260.92673935560828
 31
0.0
  0
LINE
  5
C3
  8
0
 10
393.63919275892482
 20
290.92673935560822
 30
0.0
 11
389.37124356649372
 21
290.92673935560822
 31
0.0
  0
LINE
  5
C4
  8
0
 10
394.50521816270918
 20
290.42673935560822
 30
0.0
 11
388.50521816270918
 21
290.42673935560822
 31
0.0
  0
LINE
  5
C5
  8
0
 10
388.50521816270918
 20
290.42673935560822
 30
0.0
 11
389.37124356649372
 21
290.92673935560822
 31
0.0
  0
LINE
  5
C6
  8
0
 10
394.50521816270918
 20
290.42673935560822
 30
0.0
 11
393.63919275892482
 21
290.92673935560822
 31
0.0
  0
LINE
  5
C7
  8
3
 10
388.91121816270987
 20
289.92673935560828
 30
0.0
 11
388.91121816270987
 21
290.66114356489948
 31
0.0
  0
LINE
  5
C8
  8
3
 10
394.0992181627085
 20
289.92673935560828
 30
0.0
 11
394.0992181627085
 21
290.66114356489959
 31
0.0
  0
ARC
  5
C9
  8
2
 10
395.00521816270918
 20
283.92673935560822
 30
0.0
 40
1.0
 50
270.0
 51
0.0
  0
ARC
  5
CA
  8
2
 10
395.00521816270918
 20
266.9267393556085
 30
0.0
 40
1.0
 50
0.0
 51
90.0
  0
ARC
  5
CB
  8
2
 10
366.00521816270918
 20
283.92673935560811
 30
0.0
 40
1.0
 50
180.0
 51
270.0
  0
ARC
  5
CC
  8
2
 10
366.00521816270918
 20
266.9267393556085
 30
0.0
 40
1.0
 50
90.0
 51
179.99999999999989
  0
LINE
  5
CD
  8
1
 10
355.00521816270918
 20
275.42673935560828
 30
0.0
 11
406.00521816270913
 21
275.42673935560828
 31
0.0
  0
ARC
  5
CE
  8
0
 10
386.20521816270917
 20
249.42674070430749
 30
0.0
 40
1.0
 50
270.0
 51
360.0
  0
ARC
  5
CF
  8
0
 10
369.20521816270917
 20
249.42674070430749
 30
0.0
 40
1.0
 50
180.0
 51
269.99999999999989
  0
ARC
  5
D0
  8
0
 10
369.20521816270917
 20
301.42674070430752
 30
0.0
 40
1.0
 50
90.000000000000085
 51
180.0
  0
ARC
  5
D1
  8
0
 10
386.20521816270917
 20
301.42674070430752
 30
0.0
 40
1.0
 50
360.0
 51
89.999999999999986
  0
LINE
  5
D2
  8
0
 10
387.20521816270917
 20
301.42674070430752
 30
0.0
 11
387.20521816270929
 21
249.42674070430749
 31
0.0
  0
LINE
  5
D3
  8
0
 10
368.20521816270929
 20
301.42674070430752
 30
0.0
 11
368.20521816270929
 21
249.42674070430749
 31
0.0
  0
LINE
  5
D4
  8
0
 10
381.80521816270908
 20
329.42673935560828
 30
0.0
 11
373.60521816270938
 21
329.42673935560828
 31
0.0
  0
LINE
  5
D5
  8
0
 10
381.80521816270908
 20
221.42673935560831
 30
0.0
 11
373.60521816270932
 21
221.42673935560831
 31
0.0
  0
ARC
  5
D6
  8
0
 10
397.40517188796292
 20
316.67675101538663
 30
0.0
 40
27.0
 50
151.82138532911171
 51
179.8939213868461
  0
ARC
  5
D7
  8
0
 10
358.00526443745559
 20
316.67675101538663
 30
0.0
 40
27.0
 50
0.1060786131538888
 51
28.178614670888219
  0
LINE
  5
D8
  8
0
 10
386.20686053885231
 20
302.42673935560828
 30
0.0
 11
385.0052181627093
 21
302.42673935560828
 31
0.0
  0
LINE
  5
D9
  8
0
 10
369.20357578656609
 20
302.42673935560828
 30
0.0
 11
370.4052181627091
 21
302.42673935560828
 31
0.0
  0
ARC
  5
DA
  8
0
 10
397.40517188796292
 20
234.1767276958301
 30
0.0
 40
27.0
 50
180.10607861315381
 51
208.17861467088821
  0
ARC
  5
DB
  8
0
 10
358.00526443745548
 20
234.1767276958301
 30
0.0
 40
27.0
 50
331.82138532911182
 51
359.8939213868461
  0
LINE
  5
DC
  8
0
 10
369.20357578656609
 20
248.42673935560831
 30
0.0
 11
370.4052181627091
 21
248.42673935560831
 31
0.0
  0
LINE
  5
DD
  8
0
 10
386.20686053885231
 20
248.42673935560831
 30
0.0
 11
385.0052181627093
 21
248.42673935560831
 31
0.0
  0
LINE
  5
DE
  8
0
 10
385.0052181627093
 20
316.72673935559669
 30
0.0
 11
385.0052181627093
 21
234.12673935579701
 31
0.0
  0
LINE
  5
DF
  8
0
 10
370.4052181627091
 20
316.72673935559669
 30
0.0
 11
370.4052181627091
 21
234.12673935550589
 31
0.0
  0
LINE
  5
E0
  8
1
 10
377.70521816270917
 20
339.42673935560828
 30
0.0
 11
377.70521816270917
 21
211.42673935560831
 31
0.0
  0
CIRCLE
  5
E1
  8
0
 10
162.1930935069505
 20
275.42673935560828
 30
0.0
 40
27.0
  0
ARC
  5
E2
  8
0
 10
174.91320841184279
 20
322.89885445878048
 30
0.0
 40
8.0176999999999996
 50
205.00017346851291
 51
304.99982653148732
  0
ARC
  5
E3
  8
0
 10
167.62652777787369
 20
333.30537993939981
 30
0.0
 40
20.721694932313149
 50
304.99982653148732
 51
320.95992768981682
  0
ARC
  5
E4
  8
0
 10
194.16671190106129
 20
311.78281107767799
 30
0.0
 40
13.44850178500573
 50
121.19412163158739
 51
140.9599276898133
  0
ARC
  5
E5
  8
0
 10
162.1930935069505
 20
275.42673935560828
 30
0.0
 40
54.0
 50
57.588178206079618
 51
62.41182179392041
  0
ARC
  5
E6
  8
0
 10
177.69156600301659
 20
321.29474099685251
 30
0.0
 40
13.44850178500571
 50
339.04007231018602
 51
358.80587836841261
  0
ARC
  5
E7
  8
0
 10
209.60074945356141
 20
309.07155175591652
 30
0.0
 40
20.721694932313149
 50
159.04007231018599
 51
175.00017346851291
  0
ARC
  5
E8
  8
0
 10
196.94509370523051
 20
310.17873955388819
 30
0.0
 40
8.0176999999999996
 50
175.00017346851291
 51
274.99982653148737
  0
ARC
  5
E9
  8
0
 10
195.83790590725869
 20
322.83439530221921
 30
0.0
 40
20.721694932313149
 50
274.9998265314872
 51
290.95992768981682
  0
ARC
  5
EA
  8
0
 10
208.06109514819471
 20
290.92521185167431
 30
0.0
 40
13.44850178500573
 50
91.194121631587464
 51
110.9599276898133
  0
ARC
  5
EB
  8
0
 10
162.1930935069505
 20
275.42673935560828
 30
0.0
 40
54.0
 50
27.588178206079611
 51
32.411821793920403
  0
ARC
  5
EC
  8
0
 10
198.5491652290203
 20
307.40035774971909
 30
0.0
 40
13.44850178500571
 50
309.04007231018591
 51
328.80587836841272
  0
ARC
  5
ED
  8
0
 10
220.07173409074201
 20
280.86017362653149
 30
0.0
 40
20.721694932313149
 50
129.04007231018599
 51
145.0001734685128
  0
ARC
  5
EE
  8
0
 10
209.6652086101229
 20
288.14685426050062
 30
0.0
 40
8.0176999999999996
 50
145.0001734685128
 51
244.99982653148729
  0
ARC
  5
EF
  8
0
 10
215.03418372448451
 20
299.66056753909157
 30
0.0
 40
20.721694932313149
 50
244.9998265314872
 51
260.95992768981682
  0
ARC
  5
F0
  8
0
 10
209.66518439712729
 20
265.91480943643381
 30
0.0
 40
13.44850178500573
 50
61.19412163158745
 51
80.959927689813341
  0
ARC
  5
F1
  8
0
 10
162.1930935069505
 20
275.42673935560828
 30
0.0
 40
54.0
 50
357.58817820607959
 51
2.4118217939203781
  0
ARC
  5
F2
  8
0
 10
209.66518439712729
 20
284.9386692747828
 30
0.0
 40
13.44850178500571
 50
279.04007231018602
 51
298.80587836841261
  0
ARC
  5
F3
  8
0
 10
215.03418372448459
 20
251.19291117212501
 30
0.0
 40
20.721694932313149
 50
99.040072310186034
 51
115.0001734685128
  0
ARC
  5
F4
  8
0
 10
209.6652086101229
 20
262.70662445071588
 30
0.0
 40
8.0176999999999996
 50
115.0001734685128
 51
214.9998265314872
  0
ARC
  5
F5
  8
0
 10
220.07173409074201
 20
269.99330508468512
 30
0.0
 40
20.721694932313149
 50
214.9998265314872
 51
230.95992768981679
  0
ARC
  5
F6
  8
0
 10
198.5491652290203
 20
243.45312096149749
 30
0.0
 40
13.44850178500573
 50
31.194121631587439
 51
50.95992768981327
  0
ARC
  5
F7
  8
0
 10
162.1930935069505
 20
275.42673935560828
 30
0.0
 40
54.0
 50
327.58817820607959
 51
332.4118217939203
  0
ARC
  5
F8
  8
0
 10
208.06109514819471
 20
259.9282668595423
 30
0.0
 40
13.44850178500571
 50
249.04007231018591
 51
268.80587836841261
  0
ARC
  5
F9
  8
0
 10
195.83790590725869
 20
228.0190834089974
 30
0.0
 40
20.721694932313149
 50
69.040072310186005
 51
85.000173468512855
  0
ARC
  5
FA
  8
0
 10
196.94509370523051
 20
240.6747391573283
 30
0.0
 40
8.0176999999999996
 50
85.000173468512855
 51
184.9998265314872
  0
ARC
  5
FB
  8
0
 10
209.60074945356141
 20
241.78192695530009
 30
0.0
 40
20.721694932313149
 50
184.9998265314872
 51
200.95992768981671
  0
ARC
  5
FC
  8
0
 10
177.69156600301659
 20
229.5587377143641
 30
0.0
 40
13.44850178500573
 50
1.1941216315874219
 51
20.959927689813298
  0
ARC
  5
FD
  8
0
 10
162.19309350695059
 20
275.42673935560828
 30
0.0
 40
54.0
 50
297.58817820607959
 51
302.41182179392041
  0
ARC
  5
FE
  8
0
 10
194.16671190106129
 20
239.07066763353859
 30
0.0
 40
13.44850178500571
 50
219.04007231018591
 51
238.80587836841261
  0
ARC
  5
FF
  8
0
 10
167.62652777787369
 20
217.5480987718168
 30
0.0
 40
20.721694932313149
 50
39.040072310185991
 51
55.000173468512827
  0
ARC
  5
100
  8
0
 10
174.9132084118429
 20
227.95462425243599
 30
0.0
 40
8.0176999999999996
 50
55.00017346851287
 51
154.9998265314872
  0
ARC
  5
101
  8
0
 10
186.4269216904338
 20
222.5856491380743
 30
0.0
 40
20.721694932313149
 50
154.99982653148709
 51
170.95992768981679
  0
ARC
  5
102
  8
0
 10
152.6811635877761
 20
227.95464846543149
 30
0.0
 40
13.44850178500573
 50
331.19412163158739
 51
350.9599276898133
  0
ARC
  5
103
  8
0
 10
162.1930935069505
 20
275.42673935560828
 30
0.0
 40
54.0
 50
267.58817820607948
 51
272.4118217939203
  0
ARC
  5
104
  8
0
 10
171.705023426125
 20
227.95464846543149
 30
0.0
 40
13.44850178500571
 50
189.04007231018591
 51
208.80587836841261
  0
ARC
  5
105
  8
0
 10
137.95926532346729
 20
222.5856491380743
 30
0.0
 40
20.721694932313149
 50
9.0400723101860265
 51
25.000173468512809
  0
ARC
  5
106
  8
0
 10
149.47297860205819
 20
227.95462425243599
 30
0.0
 40
8.0176999999999996
 50
25.000173468512859
 51
124.9998265314873
  0
ARC
  5
107
  8
0
 10
156.75965923602729
 20
217.5480987718168
 30
0.0
 40
20.721694932313149
 50
124.9998265314872
 51
140.95992768981671
  0
ARC
  5
108
  8
0
 10
130.21947511283969
 20
239.0706676335387
 30
0.0
 40
13.44850178500573
 50
301.19412163158751
 51
320.9599276898133
  0
ARC
  5
109
  8
0
 10
162.1930935069505
 20
275.42673935560828
 30
0.0
 40
54.0
 50
237.58817820607959
 51
242.41182179392041
  0
ARC
  5
10A
  8
0
 10
146.6946210108845
 20
229.5587377143641
 30
0.0
 40
13.44850178500571
 50
159.04007231018591
 51
178.80587836841249
  0
ARC
  5
10B
  8
0
 10
114.7854375603397
 20
241.78192695530009
 30
0.0
 40
20.721694932313149
 50
339.04007231018602
 51
355.00017346851291
  0
ARC
  5
10C
  8
0
 10
127.4410933086707
 20
240.67473915732839
 30
0.0
 40
8.0176999999999996
 50
355.00017346851291
 51
94.99982653148723
  0
ARC
  5
10D
  8
0
 10
128.54828110664241
 20
228.01908340899749
 30
0.0
 40
20.721694932313149
 50
94.99982653148723
 51
110.95992768981669
  0
ARC
  5
10E
  8
0
 10
116.3250918657064
 20
259.9282668595423
 30
0.0
 40
13.44850178500573
 50
271.19412163158751
 51
290.9599276898133
  0
ARC
  5
10F
  8
0
 10
162.19309350695059
 20
275.42673935560828
 30
0.0
 40
54.0
 50
207.58817820607959
 51
212.41182179392041
  0
ARC
  5
110
  8
0
 10
125.8370217848809
 20
243.45312096149749
 30
0.0
 40
13.44850178500571
 50
129.04007231018591
 51
148.80587836841261
  0
ARC
  5
111
  8
0
 10
104.3144529231591
 20
269.99330508468518
 30
0.0
 40
20.721694932313149
 50
309.04007231018602
 51
325.00017346851291
  0
ARC
  5
112
  8
0
 10
114.7209784037783
 20
262.70662445071599
 30
0.0
 40
8.0176999999999996
 50
325.00017346851291
 51
64.999826531487273
  0
ARC
  5
113
  8
0
 10
109.3520032894166
 20
251.19291117212501
 30
0.0
 40
20.721694932313149
 50
64.999826531487216
 51
80.959927689816794
  0
ARC
  5
114
  8
0
 10
114.7210026167738
 20
284.9386692747828
 30
0.0
 40
13.44850178500573
 50
241.19412163158751
 51
260.9599276898133
  0
ARC
  5
115
  8
0
 10
162.1930935069505
 20
275.42673935560828
 30
0.0
 40
54.0
 50
177.58817820607959
 51
182.41182179392041
  0
ARC
  5
116
  8
0
 10
114.7210026167738
 20
265.91480943643393
 30
0.0
 40
13.44850178500571
 50
99.04007231018592
 51
118.80587836841261
  0
ARC
  5
117
  8
0
 10
109.3520032894166
 20
299.66056753909157
 30
0.0
 40
20.721694932313149
 50
279.04007231018602
 51
295.00017346851291
  0
ARC
  5
118
  8
0
 10
114.7209784037783
 20
288.14685426050062
 30
0.0
 40
8.0176999999999996
 50
295.00017346851291
 51
34.999826531487251
  0
ARC
  5
119
  8
0
 10
104.3144529231591
 20
280.86017362653149
 30
0.0
 40
20.721694932313149
 50
34.999826531487201
 51
50.95992768981678
  0
ARC
  5
11A
  8
0
 10
125.8370217848809
 20
307.40035774971909
 30
0.0
 40
13.44850178500573
 50
211.19412163158739
 51
230.9599276898133
  0
ARC
  5
11B
  8
0
 10
162.1930935069505
 20
275.42673935560828
 30
0.0
 40
54.0
 50
147.58817820607959
 51
152.41182179392041
  0
ARC
  5
11C
  8
0
 10
116.3250918657064
 20
290.92521185167431
 30
0.0
 40
13.44850178500571
 50
69.04007231018592
 51
88.805878368412607
  0
ARC
  5
11D
  8
0
 10
128.54828110664241
 20
322.83439530221921
 30
0.0
 40
20.721694932313149
 50
249.04007231018599
 51
265.00017346851291
  0
ARC
  5
11E
  8
0
 10
127.4410933086706
 20
310.17873955388819
 30
0.0
 40
8.0176999999999996
 50
265.00017346851291
 51
4.9998265314872814
  0
ARC
  5
11F
  8
0
 10
114.7854375603397
 20
309.07155175591652
 30
0.0
 40
20.721694932313149
 50
4.9998265314872299
 51
20.959927689816809
  0
ARC
  5
120
  8
0
 10
146.69462101088459
 20
321.29474099685251
 30
0.0
 40
13.44850178500573
 50
181.19412163158739
 51
200.9599276898133
  0
ARC
  5
121
  8
0
 10
162.1930935069505
 20
275.42673935560828
 30
0.0
 40
54.0
 50
117.5881782060796
 51
122.4118217939204
  0
ARC
  5
122
  8
0
 10
130.2194751128398
 20
311.78281107767799
 30
0.0
 40
13.44850178500571
 50
39.040072310185927
 51
58.8058783684126
  0
ARC
  5
123
  8
0
 10
156.7596592360274
 20
333.30537993939981
 30
0.0
 40
20.721694932313149
 50
219.04007231018599
 51
235.00017346851291
  0
ARC
  5
124
  8
0
 10
186.4269216904338
 20
328.26782957314231
 30
0.0
 40
20.721694932313149
 50
189.04007231018599
 51
205.00017346851291
  0
ARC
  5
125
  8
0
 10
152.6811635877761
 20
322.89883024578512
 30
0.0
 40
13.44850178500571
 50
9.0400723101859235
 51
28.805878368412611
  0
ARC
  5
126
  8
0
 10
162.1930935069505
 20
275.42673935560828
 30
0.0
 40
54.0
 50
87.588178206079604
 51
92.411821793920396
  0
ARC
  5
127
  8
0
 10
171.705023426125
 20
322.89883024578512
 30
0.0
 40
13.44850178500573
 50
151.19412163158739
 51
170.9599276898133
  0
ARC
  5
128
  8
0
 10
137.95926532346729
 20
328.26782957314231
 30
0.0
 40
20.721694932313149
 50
334.9998265314872
 51
350.95992768981682
  0
ARC
  5
129
  8
0
 10
149.4729786020583
 20
322.89885445878048
 30
0.0
 40
8.0176999999999996
 50
235.00017346851291
 51
334.9998265314872
  0
LINE
  5
12A
  8
1
 10
162.1930935069505
 20
339.42673935560828
 30
0.0
 11
162.1930935069505
 21
211.42673935560831
 31
0.0
  0
LINE
  5
12B
  8
1
 10
226.19309350695059
 20
275.42673935560828
 30
0.0
 11
98.193093506950575
 21
275.42673935560828
 31
0.0
  0
LINE
  5
12C
  8
1
 10
162.1930935069505
 20
293.68914531534011
 30
0.0
 11
162.1930935069505
 21
268.46621527665349
 31
0.0
  0
CIRCLE
  5
12D
  8
0
 10
162.19309350695059
 20
275.42673935560828
 30
0.0
 40
14.5
  0
CIRCLE
  5
12E
  8
0
 10
162.19309350695059
 20
275.42673935560828
 30
0.0
 40
7.5
  0
CIRCLE
  5
12F
  8
0
 10
162.19309350695059
 20
275.42673935560828
 30
0.0
 40
22.0
  0
CIRCLE
  5
130
  8
5
 10
162.1930935069505
 20
275.42673935560822
 30
0.0
 40
49.07
  0
LINE
  5
131
  8
0
 10
394.25521816270901
 20
289.92673935560828
 30
0.0
 11
387.20521816270917
 21
289.92673935560828
 31
0.0
  0
LINE
  5
132
  8
1
 10
391.5052181627093
 20
257.1643333958765
 30
0.0
 11
391.5052181627093
 21
275.42673935560828
 31
0.0
  0
LINE
  5
133
  8
1
 10
391.5052181627093
 20
423.27044850379019
 30
0.0
 11
391.5052181627093
 21
441.53285446352203
 31
0.0
  0
LINE
  5
134
  8
0
 10
394.25521816270901
 20
456.03285446352191
 30
0.0
 11
387.20521816270917
 21
456.03285446352191
 31
0.0
  0
LINE
  5
135
  8
1
 10
377.70521816270917
 20
505.53285446352191
 30
0.0
 11
377.70521816270917
 21
377.53285446352203
 31
0.0
  0
LINE
  5
136
  8
0
 10
370.4052181627091
 20
482.83285446351027
 30
0.0
 11
370.4052181627091
 21
400.23285446341941
 31
0.0
  0
LINE
  5
137
  8
0
 10
385.0052181627093
 20
482.83285446351027
 30
0.0
 11
385.0052181627093
 21
400.23285446371062
 31
0.0
  0
LINE
  5
138
  8
0
 10
386.20686053885231
 20
414.53285446352191
 30
0.0
 11
385.0052181627093
 21
414.53285446352191
 31
0.0
  0
LINE
  5
139
  8
0
 10
369.20357578656609
 20
414.53285446352191
 30
0.0
 11
370.4052181627091
 21
414.53285446352191
 31
0.0
  0
ARC
  5
13A
  8
0
 10
358.00526443745548
 20
400.28284280374368
 30
0.0
 40
27.0
 50
331.82138532911182
 51
359.8939213868461
  0
ARC
  5
13B
  8
0
 10
397.40517188796292
 20
400.28284280374368
 30
0.0
 40
27.0
 50
180.10607861315381
 51
208.17861467088821
  0
LINE
  5
13C
  8
0
 10
369.20357578656609
 20
468.53285446352191
 30
0.0
 11
370.4052181627091
 21
468.53285446352191
 31
0.0
  0
LINE
  5
13D
  8
0
 10
386.20686053885231
 20
468.53285446352191
 30
0.0
 11
385.0052181627093
 21
468.53285446352191
 31
0.0
  0
ARC
  5
13E
  8
0
 10
358.00526443745559
 20
482.7828661233001
 30
0.0
 40
27.0
 50
0.1060786131538888
 51
28.178614670888219
  0
ARC
  5
13F
  8
0
 10
397.40517188796292
 20
482.7828661233001
 30
0.0
 40
27.0
 50
151.82138532911171
 51
179.8939213868461
  0
LINE
  5
140
  8
0
 10
381.80521816270908
 20
387.53285446352203
 30
0.0
 11
373.60521816270932
 21
387.53285446352203
 31
0.0
  0
LINE
  5
141
  8
0
 10
381.80521816270908
 20
495.53285446352203
 30
0.0
 11
373.60521816270938
 21
495.53285446352203
 31
0.0
  0
LINE
  5
142
  8
0
 10
368.20521816270929
 20
467.5328558122211
 30
0.0
 11
368.20521816270929
 21
415.5328558122211
 31
0.0
  0
LINE
  5
143
  8
0
 10
387.20521816270917
 20
467.5328558122211
 30
0.0
 11
387.20521816270929
 21
415.5328558122211
 31
0.0
  0
ARC
  5
144
  8
0
 10
386.20521816270917
 20
467.5328558122211
 30
0.0
 40
1.0
 50
360.0
 51
89.999999999999986
  0
ARC
  5
145
  8
0
 10
369.20521816270917
 20
467.5328558122211
 30
0.0
 40
1.0
 50
90.000000000000085
 51
180.0
  0
ARC
  5
146
  8
0
 10
369.20521816270917
 20
415.5328558122211
 30
0.0
 40
1.0
 50
180.0
 51
269.99999999999989
  0
ARC
  5
147
  8
0
 10
386.20521816270917
 20
415.5328558122211
 30
0.0
 40
1.0
 50
270.0
 51
360.0
  0
LINE
  5
148
  8
1
 10
355.00521816270918
 20
441.53285446352203
 30
0.0
 11
406.00521816270913
 21
441.53285446352203
 31
0.0
  0
ARC
  5
149
  8
2
 10
366.00521816270918
 20
433.03285446352209
 30
0.0
 40
1.0
 50
90.0
 51
179.99999999999989
  0
ARC
  5
14A
  8
2
 10
366.00521816270918
 20
450.0328544635218
 30
0.0
 40
1.0
 50
180.0
 51
270.0
  0
ARC
  5
14B
  8
2
 10
395.00521816270918
 20
433.03285446352209
 30
0.0
 40
1.0
 50
0.0
 51
90.0
  0
ARC
  5
14C
  8
2
 10
395.00521816270918
 20
450.0328544635218
 30
0.0
 40
1.0
 50
270.0
 51
0.0
  0
LINE
  5
14D
  8
0
 10
368.20521816270929
 20
427.03285446352191
 30
0.0
 11
366.7552181627093
 21
427.03285446352191
 31
0.0
  0
LINE
  5
14E
  8
1
 10
391.5052181627093
 20
459.79526042325369
 30
0.0
 11
391.5052181627093
 21
441.53285446352203
 31
0.0
  0
LINE
  5
14F
  8
1
 10
383.59111033316469
 20
425.03285446352203
 30
0.0
 11
371.81932599225382
 21
425.03285446352203
 31
0.0
  0
LINE
  5
150
  8
1
 10
383.59111033316469
 20
458.03285446352203
 30
0.0
 11
371.81932599225382
 21
458.03285446352203
 31
0.0
  0
LINE
  5
151
  8
0
 10
368.20521816270929
 20
456.0328544635218
 30
0.0
 11
366.7552181627093
 21
456.0328544635218
 31
0.0
  0
LINE
  5
152
  8
2
 10
395.00521816270918
 20
434.03285446352203
 30
0.0
 11
366.00521816270918
 21
434.03285446352203
 31
0.0
  0
LINE
  5
153
  8
2
 10
395.00521816270918
 20
449.0328544635218
 30
0.0
 11
366.00521816270918
 21
449.03285446352169
 31
0.0
  0
LINE
  5
154
  8
0
 10
394.25521816270901
 20
427.03285446352191
 30
0.0
 11
387.20521816270917
 21
427.03285446352191
 31
0.0
  0
ARC
  5
155
  8
0
 10
369.66959476051551
 20
431.69723106132778
 30
0.0
 40
5.5
 50
211.9977968255557
 51
238.00220317443791
  0
ARC
  5
156
  8
0
 10
391.34084156490292
 20
431.69723106132778
 30
0.0
 40
5.5
 50
301.99779682556198
 51
328.00220317444428
  0
ARC
  5
157
  8
0
 10
391.34084156490292
 20
451.3684778657161
 30
0.0
 40
5.5
 50
31.997796825555739
 51
58.002203174426292
  0
ARC
  5
158
  8
0
 10
369.66959476051551
 20
451.36847786571599
 30
0.0
 40
5.5
 50
121.99779682556201
 51
148.00220317444419
  0
LINE
  5
159
  8
0
 10
396.0052181627093
 20
428.78285446352209
 30
0.0
 11
396.0052181627093
 21
454.28285446352169
 31
0.0
  0
LINE
  5
15A
  8
0
 10
365.00521816270918
 20
454.28285446352169
 30
0.0
 11
365.00521816270918
 21
428.7828544635222
 31
0.0
  0
LINE
  5
15B
  8
1
 10
390.8608118376448
 20
490.60285446352179
 30
0.0
 11
364.54962448777371
 21
490.60285446352179
 31
0.0
  0
LINE
  5
15C
  8
1
 10
390.8608118376448
 20
392.46285446352192
 30
0.0
 11
364.54962448777371
 21
392.46285446352192
 31
0.0
  0
LINE
  5
15D
  8
1
 10
391.5052181627093
 20
75.653542028970094
 30
0.0
 11
391.5052181627093
 21
93.915947988701873
 31
0.0
  0
LINE
  5
15E
  8
0
 10
394.25521816270901
 20
108.4159479887018
 30
0.0
 11
387.20521816270917
 21
108.4159479887018
 31
0.0
  0
LINE
  5
15F
  8
1
 10
377.70521816270917
 20
157.91594798870179
 30
0.0
 11
377.70521816270917
 21
29.91594798870187
 31
0.0
  0
LINE
  5
160
  8
0
 10
370.4052181627091
 20
135.2159479886902
 30
0.0
 11
370.4052181627091
 21
52.61594798859943
 31
0.0
  0
LINE
  5
161
  8
0
 10
385.0052181627093
 20
135.2159479886902
 30
0.0
 11
385.0052181627093
 21
52.615947988890547
 31
0.0
  0
LINE
  5
162
  8
0
 10
386.20686053885231
 20
66.915947988701845
 30
0.0
 11
385.0052181627093
 21
66.915947988701845
 31
0.0
  0
LINE
  5
163
  8
0
 10
369.20357578656609
 20
66.915947988701845
 30
0.0
 11
370.4052181627091
 21
66.915947988701845
 31
0.0
  0
ARC
  5
164
  8
0
 10
358.00526443745548
 20
52.665936328923607
 30
0.0
 40
27.0
 50
331.82138532911182
 51
359.8939213868461
  0
ARC
  5
165
  8
0
 10
397.40517188796292
 20
52.665936328923607
 30
0.0
 40
27.0
 50
180.10607861315381
 51
208.17861467088821
  0
LINE
  5
166
  8
0
 10
369.20357578656609
 20
120.9159479887018
 30
0.0
 11
370.4052181627091
 21
120.9159479887018
 31
0.0
  0
LINE
  5
167
  8
0
 10
386.20686053885231
 20
120.9159479887018
 30
0.0
 11
385.0052181627093
 21
120.9159479887018
 31
0.0
  0
ARC
  5
168
  8
0
 10
358.00526443745559
 20
135.16595964848011
 30
0.0
 40
27.0
 50
0.1060786131538888
 51
28.178614670888219
  0
ARC
  5
169
  8
0
 10
397.40517188796292
 20
135.16595964848011
 30
0.0
 40
27.0
 50
151.82138532911171
 51
179.8939213868461
  0
LINE
  5
16A
  8
0
 10
381.80521816270908
 20
39.915947988701873
 30
0.0
 11
373.60521816270932
 21
39.915947988701873
 31
0.0
  0
LINE
  5
16B
  8
0
 10
381.80521816270908
 20
147.91594798870179
 30
0.0
 11
373.60521816270938
 21
147.91594798870179
 31
0.0
  0
LINE
  5
16C
  8
0
 10
368.20521816270929
 20
119.915949337401
 30
0.0
 11
368.20521816270929
 21
67.915949337401003
 31
0.0
  0
LINE
  5
16D
  8
0
 10
387.20521816270917
 20
119.915949337401
 30
0.0
 11
387.20521816270929
 21
67.915949337400974
 31
0.0
  0
ARC
  5
16E
  8
0
 10
386.20521816270917
 20
119.915949337401
 30
0.0
 40
1.0
 50
360.0
 51
89.999999999999986
  0
ARC
  5
16F
  8
0
 10
369.20521816270917
 20
119.915949337401
 30
0.0
 40
1.0
 50
90.000000000000085
 51
180.0
  0
ARC
  5
170
  8
0
 10
369.20521816270917
 20
67.915949337400974
 30
0.0
 40
1.0
 50
180.0
 51
269.99999999999989
  0
ARC
  5
171
  8
0
 10
386.20521816270917
 20
67.915949337400974
 30
0.0
 40
1.0
 50
270.0
 51
360.0
  0
LINE
  5
172
  8
1
 10
355.00521816270918
 20
93.915947988701873
 30
0.0
 11
406.00521816270913
 21
93.915947988701873
 31
0.0
  0
ARC
  5
173
  8
2
 10
366.00521816270918
 20
85.415947988701987
 30
0.0
 40
1.0
 50
90.0
 51
179.99999999999989
  0
ARC
  5
174
  8
2
 10
366.00521816270918
 20
102.4159479887017
 30
0.0
 40
1.0
 50
180.0
 51
270.0
  0
ARC
  5
175
  8
2
 10
395.00521816270918
 20
85.415947988701987
 30
0.0
 40
1.0
 50
0.0
 51
90.0
  0
ARC
  5
176
  8
2
 10
395.00521816270918
 20
102.4159479887017
 30
0.0
 40
1.0
 50
270.0
 51
0.0
  0
LINE
  5
177
  8
0
 10
368.20521816270929
 20
79.415947988701873
 30
0.0
 11
366.7552181627093
 21
79.415947988701873
 31
0.0
  0
LINE
  5
178
  8
1
 10
397.09093629541172
 20
80.492554230043197
 30
0.0
 11
385.91950003000682
 21
80.492554230043197
 31
0.0
  0
LINE
  5
179
  8
1
 10
391.5052181627093
 20
112.1783539484336
 30
0.0
 11
391.5052181627093
 21
93.915947988701873
 31
0.0
  0
LINE
  5
17A
  8
1
 10
383.59111033316469
 20
77.415947988701873
 30
0.0
 11
371.81932599225382
 21
77.415947988701873
 31
0.0
  0
LINE
  5
17B
  8
1
 10
383.59111033316469
 20
110.4159479887018
 30
0.0
 11
371.81932599225382
 21
110.4159479887018
 31
0.0
  0
LINE
  5
17C
  8
0
 10
368.20521816270929
 20
108.4159479887018
 30
0.0
 11
366.7552181627093
 21
108.4159479887018
 31
0.0
  0
LINE
  5
17D
  8
2
 10
395.00521816270918
 20
86.415947988701987
 30
0.0
 11
366.00521816270918
 21
86.415947988701987
 31
0.0
  0
LINE
  5
17E
  8
2
 10
395.00521816270918
 20
101.4159479887017
 30
0.0
 11
366.00521816270918
 21
101.4159479887017
 31
0.0
  0
LINE
  5
17F
  8
0
 10
394.25521816270901
 20
79.415947988701873
 30
0.0
 11
387.20521816270917
 21
79.415947988701873
 31
0.0
  0
ARC
  5
180
  8
0
 10
369.66959476051551
 20
84.080324586507686
 30
0.0
 40
5.5
 50
211.9977968255557
 51
238.00220317443791
  0
ARC
  5
181
  8
0
 10
391.34084156490292
 20
84.080324586507686
 30
0.0
 40
5.5
 50
301.99779682556198
 51
328.00220317444428
  0
ARC
  5
182
  8
0
 10
391.34084156490292
 20
103.751571390896
 30
0.0
 40
5.5
 50
31.997796825555739
 51
58.002203174426292
  0
ARC
  5
183
  8
0
 10
369.66959476051551
 20
103.7515713908959
 30
0.0
 40
5.5
 50
121.99779682556201
 51
148.00220317444419
  0
LINE
  5
184
  8
0
 10
396.0052181627093
 20
81.165947988702044
 30
0.0
 11
396.0052181627093
 21
106.6659479887016
 31
0.0
  0
LINE
  5
185
  8
0
 10
365.00521816270918
 20
106.6659479887016
 30
0.0
 11
365.00521816270918
 21
81.165947988702101
 31
0.0
  0
LINE
  5
186
  8
1
 10
390.8608118376448
 20
142.98594798870181
 30
0.0
 11
364.54962448777371
 21
142.98594798870181
 31
0.0
  0
LINE
  5
187
  8
1
 10
390.8608118376448
 20
44.845947988701852
 30
0.0
 11
364.54962448777371
 21
44.845947988701852
 31
0.0
  0
CIRCLE
  5
188
  8
0
 10
391.5052181627093
 20
441.53285446352203
 30
0.0
 40
3.0
  0
CIRCLE
  5
189
  8
3
 10
391.5052181627093
 20
441.53285446352203
 30
0.0
 40
2.458499999999999
  0
TEXT
  5
2B6
  8
0
 62
     3
 10
0.0
 20
0.0
 30
0.0
 40
10.0
  1
BIS812
  7
STANDARD1
  0
ENDSEC
  0
EOF
