  0
SECTION
  2
HEADER
  9
$ACADVER
  1
AC1009
  9
$INSBASE
 10
0.0
 20
0.0
 30
0.0
  9
$EXTMIN
 10
0.0
 20
-2.960436562073669
 30
0.0
  9
$EXTMAX
 10
282.5000000000008
 20
217.41000119018051
 30
0.0
  9
$LIMMIN
 10
0.0
 20
0.0
  9
$LIMMAX
 10
375.0
 20
270.0
  9
$ORTHOMODE
 70
     1
  9
$REGENMODE
 70
     1
  9
$FILLMODE
 70
     1
  9
$QTEXTMODE
 70
     0
  9
$MIRRTEXT
 70
     0
  9
$DRAGMODE
 70
     2
  9
$LTSCALE
 40
10.0
  9
$OSMODE
 70
  3071
  9
$ATTMODE
 70
     1
  9
$TEXTSIZE
 40
0.2
  9
$TRACEWID
 40
0.05
  9
$TEXTSTYLE
  7
STANDARD
  9
$CLAYER
  8
DEFPOINTS
  9
$CELTYPE
  6
BYLAYER
  9
$CECOLOR
 62
   256
  9
$DIMSCALE
 40
1.0
  9
$DIMASZ
 40
3.0
  9
$DIMEXO
 40
2.0
  9
$DIMDLI
 40
0.38
  9
$DIMRND
 40
0.0
  9
$DIMDLE
 40
0.0
  9
$DIMEXE
 40
2.0
  9
$DIMTP
 40
0.0
  9
$DIMTM
 40
0.0
  9
$DIMTXT
 40
3.2000000000000002
  9
$DIMCEN
 40
0.0
  9
$DIMTSZ
 40
0.0
  9
$DIMTOL
 70
     0
  9
$DIMLIM
 70
     0
  9
$DIMTIH
 70
     0
  9
$DIMTOH
 70
     0
  9
$DIMSE1
 70
     0
  9
$DIMSE2
 70
     0
  9
$DIMTAD
 70
     1
  9
$DIMZIN
 70
     0
  9
$DIMBLK
  1

  9
$DIMASO
 70
     0
  9
$DIMSHO
 70
     0
  9
$DIMPOST
  1

  9
$DIMAPOST
  1

  9
$DIMALT
 70
     0
  9
$DIMALTD
 70
     2
  9
$DIMALTF
 40
25.399999999999999
  9
$DIMLFAC
 40
1.0
  9
$DIMTOFL
 70
     1
  9
$DIMTVP
 40
1.6000000000000001
  9
$DIMTIX
 70
     1
  9
$DIMSOXD
 70
     0
  9
$DIMSAH
 70
     0
  9
$DIMBLK1
  1

  9
$DIMBLK2
  1

  9
$DIMSTYLE
  2
STANDARD
  9
$DIMCLRD
 70
     0
  9
$DIMCLRE
 70
     0
  9
$DIMCLRT
 70
     0
  9
$DIMTFAC
 40
1.0
  9
$DIMGAP
 40
0.09
  9
$LUNITS
 70
     2
  9
$LUPREC
 70
     4
  9
$SKETCHINC
 40
0.1
  9
$FILLETRAD
 40
0.0
  9
$AUNITS
 70
     0
  9
$AUPREC
 70
     4
  9
$MENU
  1
E:\r13\win\SUPPORT\ACAD
  9
$ELEVATION
 40
0.0
  9
$PELEVATION
 40
0.0
  9
$THICKNESS
 40
0.0
  9
$LIMCHECK
 70
     0
  9
$BLIPMODE
 70
     0
  9
$CHAMFERA
 40
0.0
  9
$CHAMFERB
 40
0.0
  9
$SKPOLY
 70
     0
  9
$TDCREATE
 40
2449839.6332986108
  9
$TDUPDATE
 40
2456597.6202740618
  9
$TDINDWG
 40
0.0371190278
  9
$TDUSRTIMER
 40
2456511.3155162958
  9
$USRTIMER
 70
     1
  9
$ANGBASE
 50
0.0
  9
$ANGDIR
 70
     0
  9
$PDMODE
 70
     0
  9
$PDSIZE
 40
0.0
  9
$PLINEWID
 40
0.0
  9
$COORDS
 70
     1
  9
$SPLFRAME
 70
     0
  9
$SPLINETYPE
 70
     6
  9
$SPLINESEGS
 70
     8
  9
$ATTDIA
 70
     0
  9
$ATTREQ
 70
     1
  9
$HANDLING
 70
     1
  9
$HANDSEED
  5
F08
  9
$SURFTAB1
 70
     6
  9
$SURFTAB2
 70
     6
  9
$SURFTYPE
 70
     6
  9
$SURFU
 70
     6
  9
$SURFV
 70
     6
  9
$UCSNAME
  2

  9
$UCSORG
 10
0.0
 20
0.0
 30
0.0
  9
$UCSXDIR
 10
1.0
 20
0.0
 30
0.0
  9
$UCSYDIR
 10
0.0
 20
1.0
 30
0.0
  9
$PUCSNAME
  2

  9
$PUCSORG
 10
0.0
 20
0.0
 30
0.0
  9
$PUCSXDIR
 10
1.0
 20
0.0
 30
0.0
  9
$PUCSYDIR
 10
0.0
 20
1.0
 30
0.0
  9
$USERI1
 70
     0
  9
$USERI2
 70
     1
  9
$USERI3
 70
     0
  9
$USERI4
 70
     0
  9
$USERI5
 70
     0
  9
$USERR1
 40
0.0
  9
$USERR2
 40
0.0
  9
$USERR3
 40
0.0
  9
$USERR4
 40
0.0
  9
$USERR5
 40
0.0
  9
$WORLDVIEW
 70
     1
  9
$SHADEDGE
 70
     3
  9
$SHADEDIF
 70
    70
  9
$TILEMODE
 70
     1
  9
$MAXACTVP
 70
    16
  9
$PLIMCHECK
 70
     0
  9
$PEXTMIN
 10
1.0000000000000000E+020
 20
1.0000000000000000E+020
 30
1.0000000000000000E+020
  9
$PEXTMAX
 10
-1.0000000000000000E+020
 20
-1.0000000000000000E+020
 30
-1.0000000000000000E+020
  9
$PLIMMIN
 10
0.0
 20
0.0
  9
$PLIMMAX
 10
12.0
 20
9.0
  9
$UNITMODE
 70
     0
  9
$VISRETAIN
 70
     0
  9
$PLINEGEN
 70
     0
  9
$PSLTSCALE
 70
     0
  0
ENDSEC
  0
SECTION
  2
TABLES
  0
TABLE
  2
VPORT
 70
     1
  0
VPORT
  2
*ACTIVE
 70
     0
 10
0.0
 20
0.0
 11
1.0
 21
1.0
 12
195.0581083320873
 22
133.5127261426681
 13
0.0
 23
0.0
 14
10.0
 24
10.0
 15
10.0
 25
10.0
 16
0.0
 26
0.0
 36
1.0
 17
0.0
 27
0.0
 37
0.0
 40
275.42274993631997
 41
1.831871345029239
 42
50.0
 43
0.0
 44
0.0
 50
0.0
 51
0.0
 71
    16
 72
   500
 73
     1
 74
     0
 75
     0
 76
     0
 77
     0
 78
     2
  0
ENDTAB
  0
TABLE
  2
LTYPE
 70
     3
  0
LTYPE
  2
CONTINUOUS
 70
     0
  3
Solid Line
 72
    65
 73
     0
 40
0.0
  0
LTYPE
  2
PHANTOM2
 70
     0
  3
___ _ _ ___ _ _ ___ _ _ ___ _ _
 72
    65
 73
     6
 40
1.25
 49
0.625
 49
-0.125
 49
0.125
 49
-0.125
 49
0.125
 49
-0.125
  0
LTYPE
  2
CENTER
 70
     0
  3
____ _ ____ _ ____ _ ____ _ ____ _ ____ _ ____
 72
    65
 73
     4
 40
2.0
 49
1.25
 49
-0.25
 49
0.25
 49
-0.25
  0
ENDTAB
  0
TABLE
  2
LAYER
 70
     4
  0
LAYER
  2
0
 70
     0
 62
     7
  6
CONTINUOUS
  0
LAYER
  2
DEFPOINTS
 70
     0
 62
     7
  6
CONTINUOUS
  0
LAYER
  2
1
 70
     0
 62
     1
  6
CENTER
  0
LAYER
  2
3
 70
     0
 62
     3
  6
CONTINUOUS
  0
ENDTAB
  0
TABLE
  2
STYLE
 70
     3
  0
STYLE
  2
STANDARD
 70
     0
 40
0.0
 41
1.0
 50
0.0
 71
     0
 42
0.2
  3
TXT
  4
BIGFONT
  0
STYLE
  2
ANNOTATIVE
 70
     0
 40
0.0
 41
1.0
 50
0.0
 71
     0
 42
0.2
  3
txt
  4

  0
STYLE
  2
STANDARD1
 70
     0
 40
0.0
 41
1.0
 50
0.0
 71
     0
 42
3.0
  3
txt
  4

  0
ENDTAB
  0
TABLE
  2
VIEW
 70
     1
  0
VIEW
  2
ALL
 70
     0
 40
270.0
 10
220.99159663865549
 20
135.0
 41
0.0
 11
0.0
 21
0.0
 31
1.0
 12
0.0
 22
0.0
 32
0.0
 42
0.0
 43
0.0
 44
0.0
 50
0.0
 71
     0
  0
ENDTAB
  0
TABLE
  2
UCS
 70
     0
  0
ENDTAB
  0
TABLE
  2
APPID
 70
    47
  0
APPID
  2
ACAD
 70
     0
  0
APPID
  2
ACADANNOTATIVE
 70
     0
  0
APPID
  2
ACAD_MLEADERVER
 70
     0
  0
APPID
  2
ACAD_NAV_VCDISPLAY
 70
     0
  0
APPID
  2
ACAD_PSEXT
 70
     0
  0
APPID
  2
DCO15
 70
     0
  0
APPID
  2
GENIUS_GENOREF_13
 70
     0
  0
APPID
  2
GENIUS_GENOENT_13
 70
     0
  0
APPID
  2
GENIUS_GENBH_13
 70
     0
  0
APPID
  2
GENIUS_GENOBJ_13
 70
     0
  0
APPID
  2
GENIUS_GENODEF_13
 70
     0
  0
APPID
  2
GENIUS_GENOLIS_13
 70
     0
  0
APPID
  2
GENIUS_GENOBJ-NBEHI-BHF_13
 70
     0
  0
APPID
  2
GENIUS_GENOBJ-NBEHI-BHB_13
 70
     0
  0
APPID
  2
GENIUS_GENOBJ-F-PART_13
 70
     0
  0
APPID
  2
GENIUS_GEFSTDP_13
 70
     0
  0
APPID
  2
GENIUS_GENOBJ-N-RSSYM_13
 70
     0
  0
APPID
  2
GENIUS_GENSYMENT_13
 70
     0
  0
APPID
  2
GENIUS_GENOBJ-N-TIT_13
 70
     0
  0
APPID
  2
GENIUS_GENTITLE_13
 70
     0
  0
APPID
  2
GENIUS_GENZVEED_13
 70
     0
  0
APPID
  2
GENIUS_GENOBJ-N-LEADER_13
 70
     0
  0
APPID
  2
GENIUS_GENOBJ-N-FIL_13
 70
     0
  0
APPID
  2
GENIUS_GENOBJ-N-SEC_13
 70
     0
  0
APPID
  2
GENIUS_GENOBJ-N-CRS_13
 70
     0
  0
APPID
  2
GENIUS_GENOBJ-N-ZOO_13
 70
     0
  0
APPID
  2
GENIUS_GENZOO_13
 70
     0
  0
APPID
  2
GENIUS_GENOBJ-F-TOL_13
 70
     0
  0
APPID
  2
GENIUS_GENFIL_13
 70
     0
  0
APPID
  2
GENIUS_GENOBJ-N-CHA_13
 70
     0
  0
APPID
  2
_CALL_MAC$
 70
     0
  0
APPID
  2
ASM_BASE
 70
     0
  0
APPID
  2
ASM_EXPLO_VER_2_00
 70
     0
  0
APPID
  2
ASM_CADM_VER_12_00
 70
     0
  0
APPID
  2
ASM_BASEFORO
 70
     0
  0
APPID
  2
ASM_BASETRAVI
 70
     0
  0
APPID
  2
ASM_BASETRAVI1
 70
     0
  0
APPID
  2
ASM_GRUPPI
 70
     0
  0
APPID
  2
ASM_CADM_ALBERO
 70
     0
  0
APPID
  2
ASM_GOLE
 70
     0
  0
APPID
  2
ACAD_EXEMPT_FROM_CAD_STANDARDS
 70
     0
  0
APPID
  2
ACAD_DSTYLE_DIMJAG
 70
     0
  0
APPID
  2
ACAD_DSTYLE_DIMTALN
 70
     0
  0
APPID
  2
ACAD_DSTYLE_DIMRADIAL_EXTENSION
 70
     0
  0
APPID
  2
GRADIENTCOLOR1ACI
 70
     0
  0
APPID
  2
GRADIENTCOLOR2ACI
 70
     0
  0
APPID
  2
ACADANNOMONITORALERTICONDI
 70
     0
  0
ENDTAB
  0
TABLE
  2
DIMSTYLE
 70
     2
  0
DIMSTYLE
  2
STANDARD
 70
     0
  3

  4

  5

  6

  7

 40
1.0
 41
0.18
 42
0.0625
 43
0.38
 44
0.18
 45
0.0
 46
0.0
 47
0.0
 48
0.0
140
0.18
141
0.09
142
0.0
143
25.399999999999999
144
1.0
145
0.0
146
1.0
147
0.09
 71
     0
 72
     0
 73
     1
 74
     1
 75
     0
 76
     0
 77
     0
 78
     0
170
     0
171
     2
172
     0
173
     0
174
     0
175
     0
176
     0
177
     0
178
     0
  0
DIMSTYLE
  2
ANNOTATIVE
 70
     0
  3

  4

  5

  6

  7

 40
1.0
 41
0.18
 42
0.0625
 43
0.38
 44
0.18
 45
0.0
 46
0.0
 47
0.0
 48
0.0
140
0.18
141
0.09
142
0.0
143
25.399999999999999
144
1.0
145
0.0
146
1.0
147
0.09
 71
     0
 72
     0
 73
     1
 74
     1
 75
     0
 76
     0
 77
     0
 78
     0
170
     0
171
     2
172
     0
173
     0
174
     0
175
     0
176
     0
177
     0
178
     0
  0
ENDTAB
  0
ENDSEC
  0
SECTION
  2
BLOCKS
  0
BLOCK
  8
0
  2
$MODEL_SPACE
 70
     0
 10
0.0
 20
0.0
 30
0.0
  3
$MODEL_SPACE
  1

  0
ENDBLK
  5
E15
  8
0
  0
BLOCK
 67
     1
  8
0
  2
$PAPER_SPACE
 70
     0
 10
0.0
 20
0.0
 30
0.0
  3
$PAPER_SPACE
  1

  0
ENDBLK
  5
E11
 67
     1
  8
0
  0
ENDSEC
  0
SECTION
  2
ENTITIES
  0
LINE
  5
43
  8
0
 10
278.39812797715439
 20
121.000003814694
 30
0.0
 11
282.0000000000008
 21
121.0000038146941
 31
0.0
  0
LINE
  5
44
  8
0
 10
276.00000000000051
 20
128.7959304116111
 30
0.0
 11
282.35355339059367
 21
134.8535572052929
 31
0.0
  0
LINE
  5
45
  8
0
 10
278.39812797715581
 20
121.0000038146995
 30
0.0
 11
278.14076175919911
 21
120.0000038146995
 31
0.0
  0
LINE
  5
46
  8
0
 10
264.00000000000068
 20
128.7959304116107
 30
0.0
 11
257.64644660940718
 21
134.8535572052923
 31
0.0
  0
LINE
  5
47
  8
0
 10
261.6018720228455
 20
121.000003814699
 30
0.0
 11
261.85923824080209
 21
120.000003814699
 31
0.0
  0
LINE
  5
48
  8
0
 10
276.00000000000091
 20
120.0000038146994
 30
0.0
 11
276.00000000000051
 21
128.7959304116111
 31
0.0
  0
LINE
  5
49
  8
0
 10
264.00000000000091
 20
120.0000038146991
 30
0.0
 11
264.00000000000051
 21
128.7959304116107
 31
0.0
  0
LINE
  5
4A
  8
0
 10
278.14076175919911
 20
120.0000038146995
 30
0.0
 11
261.85923824080209
 21
120.000003814699
 31
0.0
  0
LINE
  5
4B
  8
0
 10
276.00000000000068
 20
128.7959304116111
 30
0.0
 11
273.00000000000068
 21
128.79593041161101
 31
0.0
  0
ARC
  5
4C
  8
0
 10
282.0000000000008
 20
121.5000038146995
 30
0.0
 40
0.5
 50
270.0
 51
0.0000000000012169
  0
ARC
  5
4D
  8
0
 10
282.00000000000051
 20
134.50000381469951
 30
0.0
 40
0.5
 50
0.0000000000012169
 51
90.0
  0
LINE
  5
4E
  8
0
 10
282.50000000000063
 20
134.50000381469951
 30
0.0
 11
282.5000000000008
 21
121.5000038146996
 31
0.0
  0
LINE
  5
57
  8
0
 10
257.50000000000063
 20
134.50000381469891
 30
0.0
 11
257.50000000000091
 21
121.500003814699
 31
0.0
  0
LINE
  5
59
  8
0
 10
261.00000000000421
 20
89.9999965667742
 30
0.0
 11
278.99999999999881
 21
90.000003433229693
 31
0.0
  0
LINE
  5
5A
  8
0
 10
279.99999999999869
 20
91.000003814699284
 30
0.0
 11
279.99999999999818
 21
118.6708476170987
 31
0.0
  0
LINE
  5
5B
  8
0
 10
258.00000000000063
 20
135.00000381469891
 30
0.0
 11
282.00000000000051
 21
135.00000381469951
 31
0.0
  0
LINE
  5
5C
  8
0
 10
277.99999999999869
 20
135.0000038146994
 30
0.0
 11
277.99999999999852
 21
143.65359365318551
 31
0.0
  0
LINE
  5
5D
  8
0
 10
276.99999999999852
 20
144.00000381469951
 30
0.0
 11
262.99999999999869
 21
144.00000381469911
 31
0.0
  0
LINE
  5
5E
  8
0
 10
261.99999999999881
 20
143.6535936531852
 30
0.0
 11
262.00000000000239
 21
135.000003814699
 31
0.0
  0
LINE
  5
5F
  8
0
 10
277.99999999999852
 20
143.65359365318551
 30
0.0
 11
276.99999999999852
 21
144.00000381469951
 31
0.0
  0
LINE
  5
60
  8
0
 10
262.99999999999869
 20
144.00000381469911
 30
0.0
 11
261.99999999999909
 21
143.6535936531852
 31
0.0
  0
ARC
  5
62
  8
0
 10
258.00000000000063
 20
134.50000381469891
 30
0.0
 40
0.5
 50
90.0
 51
180.00000000000111
  0
ARC
  5
63
  8
0
 10
258.0000000000008
 20
121.500003814699
 30
0.0
 40
0.5
 50
180.00000000000111
 51
270.0
  0
LINE
  5
64
  8
0
 10
279.99999999999869
 20
91.000003814699284
 30
0.0
 11
278.99999999999881
 21
90.000003433229693
 31
0.0
  0
LINE
  5
65
  8
0
 10
261.00000000000421
 20
89.9999965667742
 30
0.0
 11
260.00000000000421
 21
90.99999618530434
 31
0.0
  0
LINE
  5
66
  8
0
 10
279.99999999999869
 20
91.000003814699284
 30
0.0
 11
260.00000000000421
 21
90.99999618530434
 31
0.0
  0
LINE
  5
69
  8
0
 10
260.00000000000358
 20
118.67084761710041
 30
0.0
 11
260.00000000000421
 21
90.99999618530434
 31
0.0
  0
LINE
  5
6A
  8
0
 10
258.0000000000008
 20
121.0000038146936
 30
0.0
 11
261.60187202284709
 21
121.0000038146937
 31
0.0
  0
LINE
  5
6C
  8
1
 10
270.00000000000028
 20
149.00000381469931
 30
0.0
 11
270.00000000000199
 21
64.000001621246852
 31
0.0
  0
LINE
  5
6D
  8
0
 10
272.60103203790811
 20
125.0000038146996
 30
0.0
 11
267.39896796209371
 21
125.0000038146993
 31
0.0
  0
LINE
  5
6E
  8
0
 10
263.4970526187011
 20
134.2290660818401
 30
0.0
 11
267.00000000000051
 21
128.7959304116109
 31
0.0
  0
LINE
  5
6F
  8
0
 10
276.5029473812998
 20
134.22906608184039
 30
0.0
 11
273.0000000000004
 21
128.79593041161101
 31
0.0
  0
LINE
  5
70
  8
0
 10
267.00000000000051
 20
128.7959304116109
 30
0.0
 11
264.00000000000051
 21
128.7959304116107
 31
0.0
  0
LINE
  5
71
  8
0
 10
267.00000000000051
 20
128.7959304116109
 30
0.0
 11
267.39896796209371
 21
125.0000038146993
 31
0.0
  0
LINE
  5
72
  8
0
 10
273.0000000000008
 20
128.79593041161101
 30
0.0
 11
272.60103203790783
 21
125.0000038146994
 31
0.0
  0
ARC
  5
73
  8
0
 10
263.91728201428538
 20
134.50000381469911
 30
0.0
 40
0.5
 50
90.0
 51
212.8114014107592
  0
ARC
  5
74
  8
0
 10
276.08271798571548
 20
134.5000038146994
 30
0.0
 40
0.5
 50
327.18859858924139
 51
90.0
  0
LINE
  5
75
  8
1
 10
110.0000000000003
 20
149.00000381469599
 30
0.0
 11
110.000000000002
 21
64.000001621243598
 31
0.0
  0
LINE
  5
77
  8
0
 10
98.000000000000838
 20
121.0000038146902
 30
0.0
 11
122.0000000000009
 21
121.0000038146909
 31
0.0
  0
LINE
  5
78
  8
0
 10
100.00000000000369
 20
118.67084761709719
 30
0.0
 11
100.00000000000421
 21
90.999996185301114
 31
0.0
  0
LINE
  5
7B
  8
0
 10
119.99999999999881
 20
91.000003814696029
 30
0.0
 11
100.00000000000421
 21
90.999996185301114
 31
0.0
  0
LINE
  5
7C
  8
0
 10
101.00000000000431
 20
89.999996566770989
 30
0.0
 11
100.00000000000421
 21
90.999996185301114
 31
0.0
  0
LINE
  5
7D
  8
0
 10
119.99999999999881
 20
91.000003814696029
 30
0.0
 11
118.99999999999891
 21
90.000003433226439
 31
0.0
  0
ARC
  5
7E
  8
0
 10
98.000000000000838
 20
121.5000038146958
 30
0.0
 40
0.5
 50
180.00000000000111
 51
270.0
  0
ARC
  5
7F
  8
0
 10
98.000000000000568
 20
134.50000381469579
 30
0.0
 40
0.5
 50
90.0
 51
180.00000000000111
  0
LINE
  5
81
  8
0
 10
102.99999999999859
 20
144.0000038146959
 30
0.0
 11
101.99999999999891
 21
143.65359365318179
 31
0.0
  0
LINE
  5
82
  8
0
 10
117.99999999999859
 20
143.6535936531821
 30
0.0
 11
116.99999999999859
 21
144.00000381469621
 31
0.0
  0
LINE
  5
83
  8
0
 10
101.99999999999881
 20
143.65359365318179
 30
0.0
 11
102.0000000000025
 21
135.0000038146959
 31
0.0
  0
LINE
  5
84
  8
0
 10
116.99999999999859
 20
144.00000381469621
 30
0.0
 11
102.99999999999859
 21
144.0000038146959
 31
0.0
  0
LINE
  5
85
  8
0
 10
117.99999999999881
 20
135.00000381469621
 30
0.0
 11
117.99999999999859
 21
143.6535936531821
 31
0.0
  0
LINE
  5
86
  8
0
 10
98.000000000000568
 20
135.00000381469579
 30
0.0
 11
122.0000000000007
 21
135.0000038146963
 31
0.0
  0
LINE
  5
87
  8
0
 10
119.99999999999881
 20
91.000003814696029
 30
0.0
 11
119.9999999999982
 21
118.6708476170955
 31
0.0
  0
LINE
  5
88
  8
0
 10
101.00000000000431
 20
89.999996566770989
 30
0.0
 11
118.99999999999891
 21
90.000003433226439
 31
0.0
  0
LINE
  5
8A
  8
0
 10
97.500000000000554
 20
134.50000381469579
 30
0.0
 11
97.500000000000853
 21
121.5000038146958
 31
0.0
  0
LINE
  5
93
  8
0
 10
122.5000000000006
 20
134.5000038146963
 30
0.0
 11
122.5000000000009
 21
121.5000038146963
 31
0.0
  0
ARC
  5
94
  8
0
 10
122.0000000000007
 20
134.5000038146963
 30
0.0
 40
0.5
 50
0.0000000000012169
 51
90.0
  0
ARC
  5
95
  8
0
 10
122.0000000000009
 20
121.5000038146963
 30
0.0
 40
0.5
 50
270.0
 51
0.0000000000012169
  0
LINE
  5
3A1
  8
0
 10
101.99999999999881
 20
143.65359365318179
 30
0.0
 11
117.99999999999859
 21
143.6535936531821
 31
0.0
  0
LINE
  5
3A2
  8
0
 10
261.99999999999881
 20
143.6535936531852
 30
0.0
 11
277.99999999999852
 21
143.65359365318551
 31
0.0
  0
ARC
  5
7B5
  8
0
 10
98.750000000008157
 20
119.5000038146971
 30
0.0
 40
1.5
 50
326.44269023761268
 51
90.0
  0
ARC
  5
7B6
  8
0
 10
121.2499999999937
 20
119.50000381469739
 30
0.0
 40
1.5
 50
90.0
 51
213.55730976238891
  0
LINE
  5
7B7
  8
0
 10
120.00000000000099
 20
118.6708476170956
 30
0.0
 11
100.0000000000009
 21
118.67084761709719
 31
0.0
  0
ARC
  5
7B8
  8
0
 10
258.75000000000807
 20
119.50000381470019
 30
0.0
 40
1.5
 50
326.44269023761268
 51
90.0
  0
ARC
  5
7B9
  8
0
 10
281.24999999999358
 20
119.50000381470061
 30
0.0
 40
1.5
 50
90.0
 51
213.55730976238891
  0
LINE
  5
7BA
  8
0
 10
280.00000000000091
 20
118.6708476170987
 30
0.0
 11
260.0000000000008
 21
118.67084761710041
 31
0.0
  0
LINE
  5
93A
  8
1
 10
180.0000000000002
 20
149.00000381469741
 30
0.0
 11
180.00000000000091
 21
64.000003814697521
 31
0.0
  0
LINE
  5
93D
  8
0
 10
185.0000000000008
 20
70.500003814697536
 30
0.0
 11
183.5000000000008
 21
69.000003814697536
 31
0.0
  0
LINE
  5
93E
  8
0
 10
176.50000000000091
 20
69.00000381469745
 30
0.0
 11
183.5000000000008
 21
69.000003814697536
 31
0.0
  0
LINE
  5
93F
  8
0
 10
175.0000000000008
 20
70.50000381469745
 30
0.0
 11
175.00000000000131
 21
90.000003814697479
 31
0.0
  0
LINE
  5
941
  8
0
 10
188.00000000000031
 20
135.00000381469749
 30
0.0
 11
188.0000000000002
 21
143.65359365318361
 31
0.0
  0
LINE
  5
942
  8
0
 10
172.0000000000004
 20
135.00000381469741
 30
0.0
 11
172.0000000000002
 21
143.65359365318341
 31
0.0
  0
LINE
  5
943
  8
0
 10
172.60000000000059
 20
144.00000381469741
 30
0.0
 11
172.0000000000002
 21
143.65359365318341
 31
0.0
  0
LINE
  5
944
  8
0
 10
188.0000000000002
 20
143.65359365318361
 30
0.0
 11
172.0000000000002
 21
143.65359365318341
 31
0.0
  0
LINE
  5
945
  8
0
 10
187.39999999999981
 20
144.00000381469741
 30
0.0
 11
188.0000000000002
 21
143.65359365318361
 31
0.0
  0
LINE
  5
946
  8
0
 10
187.39999999999981
 20
144.00000381469741
 30
0.0
 11
172.60000000000059
 21
144.00000381469741
 31
0.0
  0
LINE
  5
972
  8
0
 10
185.0000000000008
 20
70.500003814697592
 30
0.0
 11
185.0000000000006
 21
90.000003814697564
 31
0.0
  0
LINE
  5
978
  8
0
 10
175.00000000000071
 20
70.50000381469745
 30
0.0
 11
176.50000000000091
 21
69.00000381469745
 31
0.0
  0
LINE
  5
979
  8
0
 10
185.0000000000008
 20
70.500003814697592
 30
0.0
 11
175.0000000000008
 21
70.50000381469745
 31
0.0
  0
LINE
  5
97A
  8
3
 10
175.75000000000151
 20
90.000003814697493
 30
0.0
 11
175.7500000000008
 21
69.75000381469745
 31
0.0
  0
LINE
  5
983
  8
3
 10
184.25
 20
90.000003814697564
 30
0.0
 11
184.25000000000099
 21
69.750003814697649
 31
0.0
  0
LINE
  5
9B7
  8
0
 10
170.0000000000006
 20
91.000003814697436
 30
0.0
 11
171.0000000000006
 21
90.000003814697436
 31
0.0
  0
LINE
  5
9B8
  8
0
 10
190.0000000000004
 20
91.000003814697607
 30
0.0
 11
189.0000000000004
 21
90.000003814697564
 31
0.0
  0
LINE
  5
9B9
  8
0
 10
189.0000000000004
 20
90.000003814697564
 30
0.0
 11
171.0000000000006
 21
90.000003814697436
 31
0.0
  0
LINE
  5
9BA
  8
0
 10
170.0000000000004
 20
118.6708476170982
 30
0.0
 11
170.0000000000006
 21
91.000003814697436
 31
0.0
  0
ARC
  5
9BB
  8
0
 10
168.75000000000759
 20
119.500003814698
 30
0.0
 40
1.5
 50
326.44269023760762
 51
90.0
  0
ARC
  5
9BC
  8
0
 10
191.24999999999321
 20
119.5000038146981
 30
0.0
 40
1.5
 50
90.0
 51
213.55730976238399
  0
LINE
  5
9BD
  8
0
 10
190.0000000000004
 20
118.6708476170984
 30
0.0
 11
190.0000000000004
 21
91.000003814697607
 31
0.0
  0
LINE
  5
9BE
  8
0
 10
190.0000000000006
 20
91.000003814697607
 30
0.0
 11
170.0000000000006
 21
91.000003814697436
 31
0.0
  0
LINE
  5
9BF
  8
0
 10
190.0000000000004
 20
118.6708476170962
 30
0.0
 11
170.0000000000004
 21
118.6708476170982
 31
0.0
  0
CIRCLE
  5
9C8
  8
0
 10
179.9999999999992
 20
199.91000119018051
 30
0.0
 40
8.0000000000001563
  0
LINE
  5
9C9
  8
1
 10
179.9999999999992
 20
217.41000119018051
 30
0.0
 11
179.9999999999994
 21
182.41000119018071
 31
0.0
  0
LINE
  5
9CA
  8
1
 10
224.9999999999992
 20
199.91000119018091
 30
0.0
 11
162.4999999999992
 21
199.91000119018051
 31
0.0
  0
LINE
  5
9CB
  8
0
 10
219.64591717105699
 20
202.94270210474599
 30
0.0
 11
193.22981190309341
 21
206.520764600456
 31
0.0
  0
LINE
  5
9CC
  8
0
 10
219.64591717105711
 20
196.87730027561551
 30
0.0
 11
193.22981190309341
 21
193.29923777990541
 31
0.0
  0
LINE
  5
9CD
  8
0
 10
218.7683281573002
 20
130.22394414973411
 30
0.0
 11
193.3871549445052
 21
134.8387029156967
 31
0.0
  0
ARC
  5
9CE
  8
0
 10
191.59830056250561
 20
125.00000381469761
 30
0.0
 40
10.0
 50
79.695153531230645
 51
90.0
  0
ARC
  5
9CF
  8
0
 10
218.5000000000004
 20
128.74813928458431
 30
0.0
 40
1.5
 50
0.0000000000003263
 51
79.695153531230645
  0
LINE
  5
9D0
  8
0
 10
191.5983005625055
 20
135.00000381469761
 30
0.0
 11
168.0000000000002
 21
135.00000381469729
 31
0.0
  0
LINE
  5
9D2
  8
0
 10
167.5000000000002
 20
134.50000381469729
 30
0.0
 11
167.5000000000002
 21
121.50000381469719
 31
0.0
  0
LINE
  5
9D3
  8
0
 10
219.61803398875031
 20
120.00000381469761
 30
0.0
 11
204.42946773366421
 21
120.00000381469771
 31
0.0
  0
ARC
  5
9D4
  8
0
 10
218.50000000000031
 20
121.00000381469781
 30
0.0
 40
1.5
 50
318.18968510422161
 51
0.0000000000003263
  0
LINE
  5
9D5
  8
0
 10
203.4294677336635
 20
121.0000038146982
 30
0.0
 11
168.0000000000004
 21
121.00000381469791
 31
0.0
  0
LINE
  5
9D8
  8
0
 10
220.00000000000031
 20
121.00000381469781
 30
0.0
 11
220.00000000000031
 21
128.7481392845844
 31
0.0
  0
ARC
  5
9D9
  8
0
 10
168.00000000000031
 20
121.50000381469719
 30
0.0
 40
0.5
 50
180.00000000000031
 51
270.0
  0
ARC
  5
9DA
  8
0
 10
168.0000000000002
 20
134.50000381469729
 30
0.0
 40
0.5
 50
90.0
 51
180.00000000000031
  0
ARC
  5
9DB
  8
0
 10
179.9999999999992
 20
199.91000119018051
 30
0.0
 40
12.5
 50
80.416969694397025
 51
279.58303030560302
  0
ARC
  5
9DC
  8
0
 10
179.9999999999992
 20
199.91000119018051
 30
0.0
 40
12.5
 50
286.46265584063173
 51
331.64975525852412
  0
ARC
  5
9DD
  8
0
 10
179.9999999999992
 20
199.91000119018051
 30
0.0
 40
12.5
 50
338.52938079355948
 51
21.470619206441931
  0
ARC
  5
9DE
  8
0
 10
179.9999999999992
 20
199.91000119018051
 30
0.0
 40
12.5
 50
28.350244741477141
 51
73.537344159368374
  0
ARC
  5
9DF
  8
0
 10
193.02847538145161
 20
194.78566423454521
 30
0.0
 40
1.5
 50
158.5293807935594
 51
277.71377008100518
  0
ARC
  5
9E0
  8
0
 10
193.0284753814515
 20
205.03433814581601
 30
0.0
 40
1.5
 50
82.286229918994863
 51
201.47061920644191
  0
ARC
  5
9E1
  8
0
 10
179.9999999999992
 20
199.91000119018051
 30
0.0
 40
40.0
 50
352.98148070658829
 51
7.0185192934127212
  0
ARC
  5
9E2
  8
0
 10
218.2115082912396
 20
195.2056803987719
 30
0.0
 40
1.5
 50
279.58303030560302
 51
352.98148070658829
  0
ARC
  5
9E3
  8
0
 10
218.21150829123931
 20
204.61432198158991
 30
0.0
 40
1.5
 50
7.0185192934127212
 51
80.416969694397025
  0
ARC
  5
9E4
  8
0
 10
219.6056498667287
 20
197.1745855665437
 30
0.0
 40
0.3
 50
277.71377008100518
 51
356.0490668218917
  0
ARC
  5
9E5
  8
0
 10
219.6056498667285
 20
202.64541681381809
 30
0.0
 40
0.3
 50
3.9509331781094148
 51
82.286229918994863
  0
LINE
  5
9E6
  8
0
 10
218.4612233562662
 20
206.09339006193599
 30
0.0
 11
182.08095887522239
 21
212.235568526398
 31
0.0
  0
LINE
  5
9E7
  8
0
 10
218.4612233562662
 20
193.72661231842591
 30
0.0
 11
182.08095887522259
 21
187.58443385396319
 31
0.0
  0
LINE
  5
9ED
  8
0
 10
203.4294677336635
 20
121.0000038146982
 30
0.0
 11
204.42946773366421
 21
120.00000381469771
 31
0.0
  0
CIRCLE
  5
A1D
  8
0
 10
179.9999999999992
 20
199.91000119018051
 30
0.0
 40
9.0
  0
LINE
  5
A1E
  8
0
 10
184.61880215351729
 20
199.91000119018051
 30
0.0
 11
182.30940107675841
 21
195.9100011901798
 31
0.0
  0
LINE
  5
A1F
  8
0
 10
182.30940107675821
 20
203.9100011901813
 30
0.0
 11
184.61880215351729
 21
199.91000119018051
 31
0.0
  0
LINE
  5
A20
  8
0
 10
177.6905989232404
 20
203.9100011901813
 30
0.0
 11
182.30940107675821
 21
203.91000119018119
 31
0.0
  0
LINE
  5
A21
  8
0
 10
175.3811978464816
 20
199.9100011901804
 30
0.0
 11
177.6905989232404
 21
203.9100011901813
 31
0.0
  0
LINE
  5
A22
  8
0
 10
177.69059892324049
 20
195.9100011901798
 30
0.0
 11
175.3811978464816
 21
199.91000119018031
 31
0.0
  0
LINE
  5
A23
  8
0
 10
182.30940107675841
 20
195.91000119017971
 30
0.0
 11
177.69059892324049
 21
195.9100011901798
 31
0.0
  0
CIRCLE
  5
D23
  8
0
 10
173.99999999999821
 20
70.000003814697493
 30
0.0
 40
0.5
  0
LINE
  5
D24
  8
3
 10
173.49999999999829
 20
70.000003814697493
 30
0.0
 11
173.4999999999981
 21
90.000003814697479
 31
0.0
  0
LINE
  5
D25
  8
3
 10
174.49999999999829
 20
70.000003814697493
 30
0.0
 11
174.4999999999981
 21
90.000003814697479
 31
0.0
  0
CIRCLE
  5
D26
  8
0
 10
186.00000000000341
 20
70.00000381469728
 30
0.0
 40
0.5
  0
LINE
  5
D27
  8
3
 10
186.50000000000341
 20
70.000003814697251
 30
0.0
 11
186.50000000000421
 21
90.000003814697223
 31
0.0
  0
LINE
  5
D28
  8
3
 10
185.50000000000341
 20
70.00000381469728
 30
0.0
 11
185.50000000000421
 21
90.00000381469728
 31
0.0
  0
LINE
  5
D29
  8
0
 10
115.00000000000161
 20
70.499999999998721
 30
0.0
 11
113.50000000000161
 21
68.999999999998721
 31
0.0
  0
LINE
  5
D2A
  8
0
 10
106.50000000000171
 20
68.999999999998636
 30
0.0
 11
113.50000000000161
 21
68.999999999998721
 31
0.0
  0
LINE
  5
D2B
  8
0
 10
105.00000000000161
 20
70.499999999998636
 30
0.0
 11
105.0000000000021
 21
89.999999999998664
 31
0.0
  0
LINE
  5
D2C
  8
0
 10
115.00000000000171
 20
70.499999999998764
 30
0.0
 11
115.00000000000141
 21
89.999999999998735
 31
0.0
  0
LINE
  5
D2D
  8
0
 10
105.00000000000151
 20
70.499999999998636
 30
0.0
 11
106.50000000000171
 21
68.999999999998636
 31
0.0
  0
LINE
  5
D2E
  8
0
 10
115.00000000000171
 20
70.499999999998764
 30
0.0
 11
105.00000000000161
 21
70.499999999998636
 31
0.0
  0
LINE
  5
D2F
  8
3
 10
105.7500000000023
 20
89.999999999998678
 30
0.0
 11
105.75000000000161
 21
69.749999999998636
 31
0.0
  0
LINE
  5
D30
  8
3
 10
114.2500000000008
 20
89.999999999998735
 30
0.0
 11
114.2500000000018
 21
69.74999999999882
 31
0.0
  0
CIRCLE
  5
D31
  8
0
 10
103.99999999999901
 20
69.999999999998636
 30
0.0
 40
0.5
  0
LINE
  5
D32
  8
3
 10
103.4999999999991
 20
69.999999999998636
 30
0.0
 11
103.49999999999891
 21
89.999999999998636
 31
0.0
  0
LINE
  5
D33
  8
3
 10
104.4999999999991
 20
69.999999999998636
 30
0.0
 11
104.49999999999891
 21
89.999999999998664
 31
0.0
  0
CIRCLE
  5
D34
  8
0
 10
116.00000000000421
 20
69.999999999998437
 30
0.0
 40
0.5
  0
LINE
  5
D35
  8
3
 10
116.50000000000431
 20
69.999999999998423
 30
0.0
 11
116.5000000000052
 21
89.999999999998394
 31
0.0
  0
LINE
  5
D36
  8
3
 10
115.50000000000431
 20
69.999999999998451
 30
0.0
 11
115.5000000000051
 21
89.999999999998451
 31
0.0
  0
LINE
  5
D37
  8
0
 10
275.00000000000159
 20
70.500003814699383
 30
0.0
 11
273.50000000000159
 21
69.000003814699397
 31
0.0
  0
LINE
  5
D38
  8
0
 10
266.50000000000159
 20
69.000003814699326
 30
0.0
 11
273.50000000000159
 21
69.000003814699397
 31
0.0
  0
LINE
  5
D39
  8
0
 10
265.00000000000159
 20
70.500003814699326
 30
0.0
 11
265.0000000000021
 21
90.00000381469934
 31
0.0
  0
LINE
  5
D3A
  8
0
 10
275.00000000000171
 20
70.500003814699454
 30
0.0
 11
275.00000000000148
 21
90.000003814699426
 31
0.0
  0
LINE
  5
D3B
  8
0
 10
265.00000000000148
 20
70.500003814699326
 30
0.0
 11
266.50000000000159
 21
69.000003814699326
 31
0.0
  0
LINE
  5
D3C
  8
0
 10
275.00000000000171
 20
70.500003814699454
 30
0.0
 11
265.00000000000159
 21
70.500003814699326
 31
0.0
  0
LINE
  5
D3D
  8
3
 10
265.75000000000227
 20
90.00000381469934
 30
0.0
 11
265.75000000000159
 21
69.750003814699326
 31
0.0
  0
LINE
  5
D3E
  8
3
 10
274.2500000000008
 20
90.000003814699426
 30
0.0
 11
274.25000000000171
 21
69.750003814699511
 31
0.0
  0
CIRCLE
  5
D3F
  8
0
 10
263.99999999999898
 20
70.000003814699369
 30
0.0
 40
0.5
  0
LINE
  5
D40
  8
3
 10
263.49999999999898
 20
70.000003814699369
 30
0.0
 11
263.49999999999892
 21
90.00000381469934
 31
0.0
  0
LINE
  5
D41
  8
3
 10
264.49999999999898
 20
70.000003814699369
 30
0.0
 11
264.49999999999892
 21
90.00000381469934
 31
0.0
  0
CIRCLE
  5
D42
  8
0
 10
276.00000000000421
 20
70.000003814699141
 30
0.0
 40
0.5
  0
LINE
  5
D43
  8
3
 10
276.50000000000421
 20
70.000003814699113
 30
0.0
 11
276.50000000000512
 21
90.000003814699056
 31
0.0
  0
LINE
  5
D44
  8
3
 10
275.50000000000421
 20
70.000003814699141
 30
0.0
 11
275.50000000000512
 21
90.000003814699156
 31
0.0
  0
TEXT
  5
EA9
  8
0
 62
     3
 10
0.0
 20
0.0
 30
0.0
 40
10.0
  1
BJ130-10040
  7
STANDARD1
  0
ENDSEC
  0
EOF
