  0
SECTION
  2
HEADER
  9
$ACADVER
  1
AC1009
  9
$INSBASE
 10
0.0
 20
0.0
 30
0.0
  9
$EXTMIN
 10
0.0
 20
-2.960436562073669
 30
0.0
  9
$EXTMAX
 10
286.0
 20
231.0
 30
0.0
  9
$LIMMIN
 10
0.0
 20
0.0
  9
$LIMMAX
 10
375.0
 20
270.0
  9
$ORTHOMODE
 70
     0
  9
$REGENMODE
 70
     1
  9
$FILLMODE
 70
     1
  9
$QTEXTMODE
 70
     0
  9
$MIRRTEXT
 70
     0
  9
$DRAGMODE
 70
     2
  9
$LTSCALE
 40
10.0
  9
$OSMODE
 70
  3071
  9
$ATTMODE
 70
     1
  9
$TEXTSIZE
 40
0.2
  9
$TRACEWID
 40
0.05
  9
$TEXTSTYLE
  7
STANDARD
  9
$CLAYER
  8
0
  9
$CELTYPE
  6
BYLAYER
  9
$CECOLOR
 62
   256
  9
$DIMSCALE
 40
1.0
  9
$DIMASZ
 40
3.0
  9
$DIMEXO
 40
2.0
  9
$DIMDLI
 40
0.38
  9
$DIMRND
 40
0.0
  9
$DIMDLE
 40
0.0
  9
$DIMEXE
 40
2.0
  9
$DIMTP
 40
0.0
  9
$DIMTM
 40
0.0
  9
$DIMTXT
 40
3.2000000000000002
  9
$DIMCEN
 40
0.0
  9
$DIMTSZ
 40
0.0
  9
$DIMTOL
 70
     0
  9
$DIMLIM
 70
     0
  9
$DIMTIH
 70
     0
  9
$DIMTOH
 70
     0
  9
$DIMSE1
 70
     0
  9
$DIMSE2
 70
     0
  9
$DIMTAD
 70
     1
  9
$DIMZIN
 70
     0
  9
$DIMBLK
  1

  9
$DIMASO
 70
     0
  9
$DIMSHO
 70
     0
  9
$DIMPOST
  1

  9
$DIMAPOST
  1

  9
$DIMALT
 70
     0
  9
$DIMALTD
 70
     2
  9
$DIMALTF
 40
25.399999999999999
  9
$DIMLFAC
 40
1.0
  9
$DIMTOFL
 70
     1
  9
$DIMTVP
 40
1.6000000000000001
  9
$DIMTIX
 70
     1
  9
$DIMSOXD
 70
     0
  9
$DIMSAH
 70
     0
  9
$DIMBLK1
  1

  9
$DIMBLK2
  1

  9
$DIMSTYLE
  2
STANDARD
  9
$DIMCLRD
 70
     0
  9
$DIMCLRE
 70
     0
  9
$DIMCLRT
 70
     0
  9
$DIMTFAC
 40
1.0
  9
$DIMGAP
 40
0.09
  9
$LUNITS
 70
     2
  9
$LUPREC
 70
     4
  9
$SKETCHINC
 40
0.1
  9
$FILLETRAD
 40
0.0
  9
$AUNITS
 70
     0
  9
$AUPREC
 70
     4
  9
$MENU
  1
E:\r13\win\SUPPORT\ACAD
  9
$ELEVATION
 40
0.0
  9
$PELEVATION
 40
0.0
  9
$THICKNESS
 40
0.0
  9
$LIMCHECK
 70
     0
  9
$BLIPMODE
 70
     0
  9
$CHAMFERA
 40
0.0
  9
$CHAMFERB
 40
0.0
  9
$SKPOLY
 70
     0
  9
$TDCREATE
 40
2449839.6335300929
  9
$TDUPDATE
 40
2456597.6209642249
  9
$TDINDWG
 40
0.0506397222
  9
$TDUSRTIMER
 40
2456514.248734606
  9
$USRTIMER
 70
     1
  9
$ANGBASE
 50
0.0
  9
$ANGDIR
 70
     0
  9
$PDMODE
 70
     0
  9
$PDSIZE
 40
0.0
  9
$PLINEWID
 40
0.0
  9
$COORDS
 70
     1
  9
$SPLFRAME
 70
     0
  9
$SPLINETYPE
 70
     6
  9
$SPLINESEGS
 70
     8
  9
$ATTDIA
 70
     0
  9
$ATTREQ
 70
     1
  9
$HANDLING
 70
     1
  9
$HANDSEED
  5
6B4
  9
$SURFTAB1
 70
     6
  9
$SURFTAB2
 70
     6
  9
$SURFTYPE
 70
     6
  9
$SURFU
 70
     6
  9
$SURFV
 70
     6
  9
$UCSNAME
  2

  9
$UCSORG
 10
0.0
 20
0.0
 30
0.0
  9
$UCSXDIR
 10
1.0
 20
0.0
 30
0.0
  9
$UCSYDIR
 10
0.0
 20
1.0
 30
0.0
  9
$PUCSNAME
  2

  9
$PUCSORG
 10
0.0
 20
0.0
 30
0.0
  9
$PUCSXDIR
 10
1.0
 20
0.0
 30
0.0
  9
$PUCSYDIR
 10
0.0
 20
1.0
 30
0.0
  9
$USERI1
 70
     0
  9
$USERI2
 70
     1
  9
$USERI3
 70
     0
  9
$USERI4
 70
     0
  9
$USERI5
 70
     0
  9
$USERR1
 40
0.0
  9
$USERR2
 40
0.0
  9
$USERR3
 40
0.0
  9
$USERR4
 40
0.0
  9
$USERR5
 40
0.0
  9
$WORLDVIEW
 70
     1
  9
$SHADEDGE
 70
     3
  9
$SHADEDIF
 70
    70
  9
$TILEMODE
 70
     1
  9
$MAXACTVP
 70
    16
  9
$PLIMCHECK
 70
     0
  9
$PEXTMIN
 10
1.0000000000000000E+020
 20
1.0000000000000000E+020
 30
1.0000000000000000E+020
  9
$PEXTMAX
 10
-1.0000000000000000E+020
 20
-1.0000000000000000E+020
 30
-1.0000000000000000E+020
  9
$PLIMMIN
 10
0.0
 20
0.0
  9
$PLIMMAX
 10
12.0
 20
9.0
  9
$UNITMODE
 70
     0
  9
$VISRETAIN
 70
     0
  9
$PLINEGEN
 70
     0
  9
$PSLTSCALE
 70
     0
  0
ENDSEC
  0
SECTION
  2
TABLES
  0
TABLE
  2
VPORT
 70
     1
  0
VPORT
  2
*ACTIVE
 70
     0
 10
0.0
 20
0.0
 11
1.0
 21
1.0
 12
187.49427839065231
 22
191.41710799499691
 13
0.0
 23
0.0
 14
10.0
 24
10.0
 15
10.0
 25
10.0
 16
0.0
 26
0.0
 36
1.0
 17
0.0
 27
0.0
 37
0.0
 40
392.30556364789771
 41
1.831871345029239
 42
50.0
 43
0.0
 44
0.0
 50
0.0
 51
0.0
 71
    16
 72
   500
 73
     1
 74
     0
 75
     0
 76
     0
 77
     0
 78
     2
  0
ENDTAB
  0
TABLE
  2
LTYPE
 70
     3
  0
LTYPE
  2
CONTINUOUS
 70
     0
  3
Solid Line
 72
    65
 73
     0
 40
0.0
  0
LTYPE
  2
PHANTOM2
 70
     0
  3
___ _ _ ___ _ _ ___ _ _ ___ _ _
 72
    65
 73
     6
 40
1.25
 49
0.625
 49
-0.125
 49
0.125
 49
-0.125
 49
0.125
 49
-0.125
  0
LTYPE
  2
CENTER
 70
     0
  3
____ _ ____ _ ____ _ ____ _ ____ _ ____ _ ____
 72
    65
 73
     4
 40
2.0
 49
1.25
 49
-0.25
 49
0.25
 49
-0.25
  0
ENDTAB
  0
TABLE
  2
LAYER
 70
     3
  0
LAYER
  2
0
 70
     0
 62
     7
  6
CONTINUOUS
  0
LAYER
  2
1
 70
     0
 62
     1
  6
CENTER
  0
LAYER
  2
3
 70
     0
 62
     3
  6
CONTINUOUS
  0
ENDTAB
  0
TABLE
  2
STYLE
 70
     3
  0
STYLE
  2
STANDARD
 70
     0
 40
0.0
 41
1.0
 50
0.0
 71
     0
 42
0.2
  3
TXT
  4
BIGFONT
  0
STYLE
  2
ANNOTATIVE
 70
     0
 40
0.0
 41
1.0
 50
0.0
 71
     0
 42
0.2
  3
txt
  4

  0
STYLE
  2
STANDARD1
 70
     0
 40
0.0
 41
1.0
 50
0.0
 71
     0
 42
3.0
  3
txt
  4

  0
ENDTAB
  0
TABLE
  2
VIEW
 70
     1
  0
VIEW
  2
ALL
 70
     0
 40
270.0
 10
220.99159663865549
 20
135.0
 41
0.0
 11
0.0
 21
0.0
 31
1.0
 12
0.0
 22
0.0
 32
0.0
 42
0.0
 43
0.0
 44
0.0
 50
0.0
 71
     0
  0
ENDTAB
  0
TABLE
  2
UCS
 70
     0
  0
ENDTAB
  0
TABLE
  2
APPID
 70
     5
  0
APPID
  2
ACAD
 70
     0
  0
APPID
  2
ACADANNOTATIVE
 70
     0
  0
APPID
  2
ACAD_MLEADERVER
 70
     0
  0
APPID
  2
ACAD_EXEMPT_FROM_CAD_STANDARDS
 70
     0
  0
APPID
  2
ACAD_NAV_VCDISPLAY
 70
     0
  0
ENDTAB
  0
TABLE
  2
DIMSTYLE
 70
     2
  0
DIMSTYLE
  2
STANDARD
 70
     0
  3

  4

  5

  6

  7

 40
1.0
 41
0.18
 42
0.0625
 43
0.38
 44
0.18
 45
0.0
 46
0.0
 47
0.0
 48
0.0
140
0.18
141
0.09
142
0.0
143
25.399999999999999
144
1.0
145
0.0
146
1.0
147
0.09
 71
     0
 72
     0
 73
     1
 74
     1
 75
     0
 76
     0
 77
     0
 78
     0
170
     0
171
     2
172
     0
173
     0
174
     0
175
     0
176
     0
177
     0
178
     0
  0
DIMSTYLE
  2
ANNOTATIVE
 70
     0
  3

  4

  5

  6

  7

 40
1.0
 41
0.18
 42
0.0625
 43
0.38
 44
0.18
 45
0.0
 46
0.0
 47
0.0
 48
0.0
140
0.18
141
0.09
142
0.0
143
25.399999999999999
144
1.0
145
0.0
146
1.0
147
0.09
 71
     0
 72
     0
 73
     1
 74
     1
 75
     0
 76
     0
 77
     0
 78
     0
170
     0
171
     2
172
     0
173
     0
174
     0
175
     0
176
     0
177
     0
178
     0
  0
ENDTAB
  0
ENDSEC
  0
SECTION
  2
BLOCKS
  0
BLOCK
  8
0
  2
$MODEL_SPACE
 70
     0
 10
0.0
 20
0.0
 30
0.0
  3
$MODEL_SPACE
  1

  0
ENDBLK
  5
5EC
  8
0
  0
BLOCK
 67
     1
  8
0
  2
$PAPER_SPACE
 70
     0
 10
0.0
 20
0.0
 30
0.0
  3
$PAPER_SPACE
  1

  0
ENDBLK
  5
5E8
 67
     1
  8
0
  0
ENDSEC
  0
SECTION
  2
ENTITIES
  0
LINE
  5
43
  8
0
 10
279.14172859694889
 20
130.30338506579821
 30
0.0
 11
285.19999999999999
 21
136.19999999999999
 31
0.0
  0
LINE
  5
44
  8
0
 10
260.85827140305099
 20
130.30338506579821
 30
0.0
 11
254.8000000000001
 21
136.19999999999999
 31
0.0
  0
ARC
  5
45
  8
0
 10
261.65827140305117
 20
129.5033850657982
 30
0.0
 40
0.8
 50
90.0
 51
180.0
  0
ARC
  5
46
  8
0
 10
278.34172859694888
 20
129.5033850657982
 30
0.0
 40
0.8
 50
0.0
 51
90.0
  0
ARC
  5
47
  8
0
 10
278.34172859694888
 20
119.1921586770892
 30
0.0
 40
0.8
 50
270.0
 51
0.0
  0
ARC
  5
48
  8
0
 10
261.65827140305117
 20
119.1921586770892
 30
0.0
 40
0.8
 50
180.0
 51
270.0
  0
LINE
  5
49
  8
0
 10
278.34172859694888
 20
130.30338506579821
 30
0.0
 11
261.65827140305117
 21
130.30338506579821
 31
0.0
  0
LINE
  5
4A
  8
0
 10
279.14172859694889
 20
119.1921586770892
 30
0.0
 11
279.14172859694889
 21
129.5033850657982
 31
0.0
  0
LINE
  5
4B
  8
0
 10
260.85827140305099
 20
129.5033850657982
 30
0.0
 11
260.85827140305099
 21
119.1921586770892
 31
0.0
  0
LINE
  5
4C
  8
0
 10
281.99999999999989
 20
118.3921586770892
 30
0.0
 11
281.99999999999989
 21
117.9999999999999
 31
0.0
  0
LINE
  5
4D
  8
0
 10
284.13982434374333
 20
119.9999999999999
 30
0.0
 11
285.19999999999999
 21
119.9999999999999
 31
0.0
  0
LINE
  5
4E
  8
0
 10
256.11690449364448
 20
118.3921586770892
 30
0.0
 11
283.88309550635518
 21
118.3921586770892
 31
0.0
  0
LINE
  5
4F
  8
0
 10
255.8601756562565
 20
119.9999999999999
 30
0.0
 11
256.11690449364448
 21
118.3921586770892
 31
0.0
  0
LINE
  5
50
  8
0
 10
284.13982434374333
 20
119.9999999999999
 30
0.0
 11
283.88309550635518
 21
118.3921586770892
 31
0.0
  0
LINE
  5
51
  8
1
 10
269.99999999999989
 20
152.9999999999998
 30
0.0
 11
269.99999999999989
 21
50.999999999999943
 31
0.0
  0
LINE
  5
52
  8
0
 10
262.38564064605509
 20
147.9999999999998
 30
0.0
 11
277.61435935394502
 21
147.9999999999998
 31
0.0
  0
LINE
  5
53
  8
0
 10
260.99999999999989
 20
147.19999999999999
 30
0.0
 11
279.0
 21
147.19999999999999
 31
0.0
  0
LINE
  5
54
  8
0
 10
258.49999999999989
 20
79.999999999999915
 30
0.0
 11
281.49999999999989
 21
79.999999999999915
 31
0.0
  0
LINE
  5
55
  8
0
 10
257.49999999999989
 20
80.999999999999915
 30
0.0
 11
282.49999999999989
 21
80.999999999999915
 31
0.0
  0
LINE
  5
5B
  8
0
 10
279.0
 20
136.9999999999998
 30
0.0
 11
279.0
 21
147.19999999999999
 31
0.0
  0
LINE
  5
5C
  8
0
 10
279.0
 20
147.19999999999999
 30
0.0
 11
277.61435935394502
 21
147.9999999999998
 31
0.0
  0
LINE
  5
5D
  8
0
 10
260.99999999999989
 20
147.19999999999999
 30
0.0
 11
262.38564064605509
 21
147.9999999999998
 31
0.0
  0
LINE
  5
5E
  8
0
 10
260.99999999999989
 20
136.9999999999998
 30
0.0
 11
260.99999999999989
 21
147.19999999999999
 31
0.0
  0
LINE
  5
5F
  8
0
 10
286.0
 20
136.1999999999999
 30
0.0
 11
285.99999999999989
 21
120.7999999999999
 31
0.0
  0
LINE
  5
61
  8
0
 10
282.49999999999989
 20
117.9999999999999
 30
0.0
 11
282.49999999999989
 21
80.999999999999915
 31
0.0
  0
LINE
  5
62
  8
0
 10
257.49999999999989
 20
80.999999999999915
 30
0.0
 11
257.49999999999989
 21
117.9999999999999
 31
0.0
  0
LINE
  5
64
  8
0
 10
258.0
 20
117.9999999999999
 30
0.0
 11
258.0
 21
118.3921586770892
 31
0.0
  0
ARC
  5
65
  8
0
 10
285.19999999999999
 20
136.19999999999999
 30
0.0
 40
0.8
 50
0.0000000000000325
 51
90.0
  0
ARC
  5
66
  8
0
 10
285.19999999999999
 20
120.7999999999999
 30
0.0
 40
0.8
 50
270.0
 51
0.0
  0
LINE
  5
67
  8
0
 10
257.49999999999989
 20
80.999999999999915
 30
0.0
 11
258.49999999999989
 21
79.999999999999915
 31
0.0
  0
LINE
  5
68
  8
0
 10
281.49999999999989
 20
79.999999999999915
 30
0.0
 11
282.49999999999989
 21
80.999999999999915
 31
0.0
  0
LINE
  5
69
  8
0
 10
257.49999999999989
 20
118.0
 30
0.0
 11
282.49999999999989
 21
117.9999999999999
 31
0.0
  0
LINE
  5
6F
  8
0
 10
254.00000000000011
 20
136.19999999999999
 30
0.0
 11
253.99999999999989
 21
120.7999999999999
 31
0.0
  0
ARC
  5
70
  8
0
 10
254.8000000000001
 20
136.19999999999999
 30
0.0
 40
0.8
 50
90.0
 51
180.0
  0
ARC
  5
71
  8
0
 10
254.8000000000001
 20
120.7999999999999
 30
0.0
 40
0.8
 50
180.0
 51
270.0
  0
LINE
  5
72
  8
0
 10
254.8000000000001
 20
136.9999999999998
 30
0.0
 11
285.19999999999999
 21
136.9999999999998
 31
0.0
  0
LINE
  5
73
  8
0
 10
254.8000000000001
 20
119.9999999999999
 30
0.0
 11
255.8601756562565
 21
119.9999999999999
 31
0.0
  0
LINE
  5
74
  8
0
 10
86.116904493644682
 20
118.3921586770894
 30
0.0
 11
88.000000000000071
 21
118.3921586770894
 31
0.0
  0
LINE
  5
75
  8
0
 10
85.8601756562567
 20
120.0000000000001
 30
0.0
 11
86.116904493644682
 21
118.3921586770894
 31
0.0
  0
LINE
  5
76
  8
0
 10
113.8830955063555
 20
118.3921586770894
 30
0.0
 11
112.0
 21
118.3921586770894
 31
0.0
  0
LINE
  5
77
  8
0
 10
115.2000000000001
 20
120.0000000000001
 30
0.0
 11
114.1398243437435
 21
120.0000000000001
 31
0.0
  0
ARC
  5
78
  8
0
 10
115.2000000000001
 20
120.8
 30
0.0
 40
0.8
 50
270.0
 51
0.0
  0
LINE
  5
79
  8
0
 10
112.0
 20
118.0000000000001
 30
0.0
 11
112.0
 21
118.3921586770894
 31
0.0
  0
LINE
  5
7B
  8
0
 10
114.1398243437435
 20
120.0000000000001
 30
0.0
 11
113.8830955063555
 21
118.3921586770894
 31
0.0
  0
LINE
  5
7C
  8
0
 10
115.2000000000001
 20
120.0000000000001
 30
0.0
 11
84.800000000000026
 21
120.0000000000001
 31
0.0
  0
LINE
  5
7D
  8
0
 10
115.2000000000001
 20
137.0
 30
0.0
 11
84.800000000000026
 21
137.0
 31
0.0
  0
ARC
  5
7E
  8
0
 10
115.2000000000001
 20
120.8
 30
0.0
 40
0.8
 50
270.0
 51
0.0
  0
ARC
  5
7F
  8
0
 10
115.2000000000001
 20
136.2000000000001
 30
0.0
 40
0.8
 50
0.0000000000000325
 51
90.0
  0
LINE
  5
80
  8
0
 10
116.0000000000001
 20
136.2000000000001
 30
0.0
 11
116.0000000000001
 21
120.8
 31
0.0
  0
LINE
  5
86
  8
0
 10
112.5000000000001
 20
118.0000000000001
 30
0.0
 11
87.500000000000071
 21
118.0000000000001
 31
0.0
  0
LINE
  5
87
  8
0
 10
88.500000000000057
 20
80.000000000000099
 30
0.0
 11
87.500000000000071
 21
81.000000000000099
 31
0.0
  0
LINE
  5
88
  8
0
 10
112.5000000000001
 20
81.000000000000099
 30
0.0
 11
111.5000000000001
 21
80.000000000000099
 31
0.0
  0
ARC
  5
89
  8
0
 10
112.4000000000002
 20
119.59999999999999
 30
0.0
 40
0.4
 50
90.0
 51
179.99999999999989
  0
ARC
  5
8A
  8
0
 10
87.59999999999998
 20
119.59999999999999
 30
0.0
 40
0.4
 50
0.0
 51
90.0
  0
ARC
  5
8B
  8
0
 10
84.800000000000026
 20
120.8
 30
0.0
 40
0.8
 50
180.0
 51
270.0
  0
ARC
  5
8C
  8
0
 10
84.800000000000026
 20
136.2000000000001
 30
0.0
 40
0.8
 50
90.0
 51
179.99999999999989
  0
LINE
  5
8D
  8
0
 10
112.0
 20
118.0000000000001
 30
0.0
 11
112.0
 21
119.59999999999999
 31
0.0
  0
LINE
  5
8F
  8
0
 10
112.5000000000001
 20
81.000000000000099
 30
0.0
 11
112.5000000000001
 21
118.0000000000001
 31
0.0
  0
LINE
  5
90
  8
0
 10
87.500000000000071
 20
118.0000000000001
 30
0.0
 11
87.500000000000071
 21
81.000000000000099
 31
0.0
  0
LINE
  5
92
  8
0
 10
88.000000000000071
 20
119.59999999999999
 30
0.0
 11
88.000000000000071
 21
118.0000000000001
 31
0.0
  0
LINE
  5
93
  8
0
 10
84.000000000000028
 20
136.2000000000001
 30
0.0
 11
84.000000000000071
 21
120.8
 31
0.0
  0
LINE
  5
94
  8
0
 10
109.0000000000001
 20
137.0
 30
0.0
 11
109.0000000000001
 21
147.2000000000001
 31
0.0
  0
LINE
  5
95
  8
0
 10
109.0000000000001
 20
147.2000000000001
 30
0.0
 11
107.61435935394481
 21
148.00000000000011
 31
0.0
  0
LINE
  5
96
  8
0
 10
91.000000000000057
 20
147.2000000000001
 30
0.0
 11
92.385640646055279
 21
148.00000000000011
 31
0.0
  0
LINE
  5
97
  8
0
 10
91.000000000000057
 20
137.0
 30
0.0
 11
91.000000000000057
 21
147.2000000000001
 31
0.0
  0
LINE
  5
9D
  8
0
 10
112.5000000000001
 20
81.000000000000099
 30
0.0
 11
87.500000000000071
 21
81.000000000000099
 31
0.0
  0
LINE
  5
9E
  8
0
 10
111.5000000000001
 20
80.000000000000099
 30
0.0
 11
88.500000000000057
 21
80.000000000000099
 31
0.0
  0
LINE
  5
9F
  8
0
 10
109.0000000000001
 20
147.2000000000001
 30
0.0
 11
91.000000000000057
 21
147.2000000000001
 31
0.0
  0
LINE
  5
A0
  8
0
 10
107.61435935394481
 20
148.00000000000011
 30
0.0
 11
92.385640646055279
 21
148.00000000000011
 31
0.0
  0
LINE
  5
A1
  8
1
 10
100.0000000000001
 20
152.9999999999998
 30
0.0
 11
100.0000000000001
 21
50.999999999999943
 31
0.0
  0
LINE
  5
A2
  8
1
 10
208.0
 20
201.0
 30
0.0
 11
208.0
 21
219.0
 31
0.0
  0
CIRCLE
  5
A3
  8
3
 10
208.0
 20
210.0
 30
0.0
 40
6.0
  0
CIRCLE
  5
A4
  8
0
 10
208.0
 20
210.0
 30
0.0
 40
5.0
  0
LINE
  5
A5
  8
1
 10
225.0
 20
210.0
 30
0.0
 11
149.0
 21
210.0
 31
0.0
  0
LINE
  5
A6
  8
1
 10
170.0
 20
231.0
 30
0.0
 11
170.0
 21
189.0
 31
0.0
  0
ARC
  5
A8
  8
0
 10
217.88878458900189
 20
202.3188440949273
 30
0.0
 40
1.5
 50
278.75063146606038
 51
352.88608413884958
  0
LINE
  5
A9
  8
0
 10
218.11698600761139
 20
200.83630434418041
 30
0.0
 11
182.93487476778569
 21
194.27147463690841
 31
0.0
  0
ARC
  5
AA
  8
0
 10
217.88878458900189
 20
217.6811559050727
 30
0.0
 40
1.5
 50
7.1139158611503213
 51
81.249368533939659
  0
LINE
  5
AB
  8
0
 10
218.11698600761139
 20
219.16369565581971
 30
0.0
 11
182.93487476778569
 21
225.72852536309151
 31
0.0
  0
ARC
  5
AC
  8
0
 10
170.0000000000002
 20
210.0
 30
0.0
 40
49.99999999999978
 50
350.9475593645825
 51
9.0524406354172626
  0
LINE
  5
AD
  8
0
 10
180.0
 20
226.0
 30
0.0
 11
170.0
 21
226.0
 31
0.0
  0
LINE
  5
AE
  8
0
 10
180.0
 20
194.0
 30
0.0
 11
170.0
 21
194.0
 31
0.0
  0
ARC
  5
AF
  8
0
 10
180.0
 20
210.0
 30
0.0
 40
16.0
 50
270.0
 51
90.0
  0
ARC
  5
B0
  8
0
 10
170.0
 20
210.0
 30
0.0
 40
16.0
 50
90.0
 51
270.0
  0
CIRCLE
  5
B2
  8
0
 10
170.0
 20
210.0
 30
0.0
 40
10.0
  0
CIRCLE
  5
B3
  8
0
 10
170.0
 20
210.0
 30
0.0
 40
9.0
  0
LINE
  5
B4
  8
0
 10
172.88675134594811
 20
215.0
 30
0.0
 11
167.1132486540518
 21
215.0
 31
0.0
  0
LINE
  5
B5
  8
0
 10
167.1132486540518
 20
215.0
 30
0.0
 11
164.22649730810369
 21
210.0
 31
0.0
  0
LINE
  5
B6
  8
0
 10
164.22649730810369
 20
210.0
 30
0.0
 11
167.1132486540518
 21
205.0
 31
0.0
  0
LINE
  5
B7
  8
0
 10
167.1132486540518
 20
205.0
 30
0.0
 11
172.88675134594811
 21
205.0
 31
0.0
  0
LINE
  5
B8
  8
0
 10
172.88675134594811
 20
205.0
 30
0.0
 11
175.77350269189631
 21
210.0
 31
0.0
  0
LINE
  5
B9
  8
0
 10
175.77350269189631
 20
210.0
 30
0.0
 11
172.88675134594811
 21
215.0
 31
0.0
  0
LINE
  5
BA
  8
1
 10
208.0
 20
115.657992992944
 30
0.0
 11
208.0
 21
136.89043823205671
 31
0.0
  0
LINE
  5
BF
  8
0
 10
182.5
 20
117.9999999999999
 30
0.0
 11
157.5
 21
117.9999999999999
 31
0.0
  0
LINE
  5
C0
  8
0
 10
158.5
 20
80.0
 30
0.0
 11
157.5
 21
80.999999999999872
 31
0.0
  0
LINE
  5
C1
  8
0
 10
182.5
 20
80.999999999999872
 30
0.0
 11
181.5
 21
80.0
 31
0.0
  0
ARC
  5
C2
  8
0
 10
182.40000000000001
 20
119.59999999999999
 30
0.0
 40
0.4
 50
90.0
 51
179.99999999999989
  0
ARC
  5
C3
  8
0
 10
157.59999999999991
 20
119.59999999999999
 30
0.0
 40
0.4
 50
0.000000000000007
 51
90.0
  0
ARC
  5
C4
  8
0
 10
154.7999999999999
 20
120.7999999999998
 30
0.0
 40
0.8
 50
180.0
 51
270.0
  0
ARC
  5
C5
  8
0
 10
154.7999999999999
 20
136.1999999999999
 30
0.0
 40
0.8
 50
90.0
 51
179.99999999999989
  0
LINE
  5
C6
  8
0
 10
182.0
 20
117.9999999999999
 30
0.0
 11
182.0
 21
119.59999999999999
 31
0.0
  0
LINE
  5
C8
  8
0
 10
182.5
 20
80.999999999999872
 30
0.0
 11
182.5
 21
117.9999999999999
 31
0.0
  0
LINE
  5
C9
  8
0
 10
157.5
 20
117.9999999999999
 30
0.0
 11
157.5
 21
80.999999999999872
 31
0.0
  0
LINE
  5
CB
  8
0
 10
158.0
 20
119.59999999999999
 30
0.0
 11
158.0
 21
117.9999999999999
 31
0.0
  0
LINE
  5
CC
  8
0
 10
153.9999999999998
 20
136.1999999999999
 30
0.0
 11
154.0
 21
120.7999999999998
 31
0.0
  0
LINE
  5
CD
  8
0
 10
179.0
 20
136.9999999999998
 30
0.0
 11
179.0
 21
147.1999999999999
 31
0.0
  0
LINE
  5
CE
  8
0
 10
179.0
 20
147.1999999999999
 30
0.0
 11
177.61435935394479
 21
147.9999999999998
 31
0.0
  0
LINE
  5
CF
  8
0
 10
161.0
 20
147.1999999999999
 30
0.0
 11
162.38564064605501
 21
147.9999999999998
 31
0.0
  0
LINE
  5
D0
  8
0
 10
161.0
 20
136.9999999999998
 30
0.0
 11
161.0
 21
147.1999999999999
 31
0.0
  0
LINE
  5
D1
  8
0
 10
196.1907498212725
 20
136.9488887394335
 30
0.0
 11
218.8882285676537
 21
130.86711763911819
 31
0.0
  0
LINE
  5
D2
  8
0
 10
190.5275720098445
 20
119.9999999999999
 30
0.0
 11
191.8695790169003
 21
118.657992992944
 31
0.0
  0
LINE
  5
D3
  8
0
 10
191.8695790169003
 20
118.657992992944
 30
0.0
 11
218.5
 21
118.657992992944
 31
0.0
  0
LINE
  5
D4
  8
0
 10
220.0
 20
129.41822889968449
 30
0.0
 11
220.0
 21
120.157992992944
 31
0.0
  0
ARC
  5
D5
  8
0
 10
218.5
 20
129.41822889968449
 30
0.0
 40
1.5
 50
0.000000000000007
 51
74.999999999998778
  0
ARC
  5
D6
  8
0
 10
218.5
 20
120.157992992944
 30
0.0
 40
1.5
 50
270.0
 51
0.000000000000007
  0
ARC
  5
D7
  8
0
 10
195.80252125361881
 20
135.4999999999998
 30
0.0
 40
1.5
 50
74.999999999998778
 51
90.0
  0
LINE
  5
DD
  8
0
 10
182.5
 20
80.999999999999872
 30
0.0
 11
157.5
 21
80.999999999999872
 31
0.0
  0
LINE
  5
DE
  8
0
 10
181.5
 20
80.0
 30
0.0
 11
158.5
 21
80.0
 31
0.0
  0
LINE
  5
DF
  8
0
 10
190.5275720098445
 20
119.9999999999999
 30
0.0
 11
154.7999999999999
 21
119.9999999999999
 31
0.0
  0
LINE
  5
E0
  8
0
 10
195.80252125361881
 20
136.9999999999998
 30
0.0
 11
154.7999999999999
 21
136.9999999999998
 31
0.0
  0
LINE
  5
E1
  8
0
 10
179.0
 20
147.1999999999999
 30
0.0
 11
161.0
 21
147.1999999999999
 31
0.0
  0
LINE
  5
E2
  8
0
 10
177.61435935394479
 20
147.9999999999998
 30
0.0
 11
162.38564064605501
 21
147.9999999999998
 31
0.0
  0
LINE
  5
E3
  8
1
 10
170.0
 20
152.9999999999998
 30
0.0
 11
170.0
 21
50.999999999999943
 31
0.0
  0
LINE
  5
427
  8
0
 10
94.000000000000071
 20
58.000000000000107
 30
0.0
 11
106.0000000000001
 21
58.000000000000107
 31
0.0
  0
LINE
  5
428
  8
0
 10
96.000000000000085
 20
56.000000000000107
 30
0.0
 11
104.0000000000001
 21
56.000000000000107
 31
0.0
  0
LINE
  5
429
  8
0
 10
104.0000000000001
 20
56.000000000000107
 30
0.0
 11
106.0000000000001
 21
58.000000000000107
 31
0.0
  0
LINE
  5
42A
  8
0
 10
96.000000000000085
 20
56.000000000000107
 30
0.0
 11
94.000000000000071
 21
58.000000000000107
 31
0.0
  0
LINE
  5
446
  8
3
 10
94.822000000000216
 20
80.000000000000099
 30
0.0
 11
94.822000000000216
 21
57.17799999999999
 31
0.0
  0
LINE
  5
449
  8
3
 10
105.1780000000002
 20
80.000000000000099
 30
0.0
 11
105.1780000000002
 21
57.17799999999999
 31
0.0
  0
LINE
  5
44A
  8
0
 10
94.000000000000071
 20
58.000000000000107
 30
0.0
 11
94.000000000000071
 21
80.000000000000099
 31
0.0
  0
LINE
  5
44B
  8
0
 10
106.0000000000001
 20
58.000000000000107
 30
0.0
 11
106.0000000000001
 21
80.000000000000099
 31
0.0
  0
CIRCLE
  5
4E0
  8
0
 10
92.400000000000077
 20
55.0
 30
0.0
 40
0.6
  0
LINE
  5
4E1
  8
3
 10
91.800000000000082
 20
55.0
 30
0.0
 11
91.800000000000082
 21
80.0
 31
0.0
  0
LINE
  5
4E2
  8
3
 10
93.000000000000071
 20
55.0
 30
0.0
 11
93.000000000000071
 21
80.0
 31
0.0
  0
CIRCLE
  5
4E3
  8
0
 10
107.59999999999999
 20
55.0
 30
0.0
 40
0.6
  0
LINE
  5
4E4
  8
3
 10
108.2
 20
55.0
 30
0.0
 11
108.2
 21
80.0
 31
0.0
  0
LINE
  5
4E5
  8
3
 10
107.0000000000001
 20
55.0
 30
0.0
 11
107.0000000000001
 21
80.0
 31
0.0
  0
LINE
  5
500
  8
0
 10
164.0
 20
58.0
 30
0.0
 11
176.0
 21
58.0
 31
0.0
  0
LINE
  5
501
  8
0
 10
166.0
 20
56.000000000000007
 30
0.0
 11
174.0
 21
56.000000000000007
 31
0.0
  0
LINE
  5
502
  8
0
 10
174.0
 20
56.000000000000007
 30
0.0
 11
176.0
 21
58.0
 31
0.0
  0
LINE
  5
503
  8
0
 10
166.0
 20
56.000000000000007
 30
0.0
 11
164.0
 21
58.0
 31
0.0
  0
LINE
  5
504
  8
3
 10
164.82200000000009
 20
80.0
 30
0.0
 11
164.82200000000009
 21
57.177999999999891
 31
0.0
  0
LINE
  5
505
  8
3
 10
175.17800000000011
 20
80.0
 30
0.0
 11
175.17800000000011
 21
57.177999999999891
 31
0.0
  0
LINE
  5
506
  8
0
 10
164.0
 20
58.0
 30
0.0
 11
164.0
 21
80.0
 31
0.0
  0
LINE
  5
507
  8
0
 10
176.0
 20
58.0
 30
0.0
 11
176.0
 21
80.0
 31
0.0
  0
CIRCLE
  5
508
  8
0
 10
162.40000000000001
 20
54.999999999999893
 30
0.0
 40
0.6
  0
LINE
  5
509
  8
3
 10
161.80000000000001
 20
54.999999999999893
 30
0.0
 11
161.80000000000001
 21
79.999999999999901
 31
0.0
  0
LINE
  5
50A
  8
3
 10
163.0
 20
54.999999999999893
 30
0.0
 11
163.0
 21
79.999999999999901
 31
0.0
  0
CIRCLE
  5
50B
  8
0
 10
177.59999999999999
 20
54.999999999999893
 30
0.0
 40
0.6
  0
LINE
  5
50C
  8
3
 10
178.19999999999999
 20
54.999999999999893
 30
0.0
 11
178.19999999999999
 21
79.999999999999901
 31
0.0
  0
LINE
  5
50D
  8
3
 10
177.0
 20
54.999999999999893
 30
0.0
 11
177.0
 21
79.999999999999901
 31
0.0
  0
LINE
  5
50E
  8
0
 10
263.99999999999989
 20
57.99999999999995
 30
0.0
 11
275.99999999999989
 21
57.99999999999995
 31
0.0
  0
LINE
  5
50F
  8
0
 10
265.99999999999989
 20
55.99999999999995
 30
0.0
 11
273.99999999999989
 21
55.99999999999995
 31
0.0
  0
LINE
  5
510
  8
0
 10
273.99999999999989
 20
55.99999999999995
 30
0.0
 11
275.99999999999989
 21
57.99999999999995
 31
0.0
  0
LINE
  5
511
  8
0
 10
265.99999999999989
 20
55.99999999999995
 30
0.0
 11
263.99999999999989
 21
57.99999999999995
 31
0.0
  0
LINE
  5
512
  8
3
 10
264.822
 20
79.999999999999915
 30
0.0
 11
264.822
 21
57.17799999999982
 31
0.0
  0
LINE
  5
513
  8
3
 10
275.178
 20
79.999999999999915
 30
0.0
 11
275.178
 21
57.17799999999982
 31
0.0
  0
LINE
  5
514
  8
0
 10
263.99999999999989
 20
57.99999999999995
 30
0.0
 11
263.99999999999989
 21
79.999999999999915
 31
0.0
  0
LINE
  5
515
  8
0
 10
275.99999999999989
 20
57.99999999999995
 30
0.0
 11
275.99999999999989
 21
79.999999999999915
 31
0.0
  0
CIRCLE
  5
516
  8
0
 10
262.39999999999992
 20
54.999999999999851
 30
0.0
 40
0.6
  0
LINE
  5
517
  8
3
 10
261.7999999999999
 20
54.999999999999851
 30
0.0
 11
261.7999999999999
 21
79.999999999999844
 31
0.0
  0
LINE
  5
518
  8
3
 10
262.99999999999989
 20
54.999999999999851
 30
0.0
 11
262.99999999999989
 21
79.999999999999844
 31
0.0
  0
CIRCLE
  5
519
  8
0
 10
277.59999999999991
 20
54.999999999999851
 30
0.0
 40
0.6
  0
LINE
  5
51A
  8
3
 10
278.19999999999987
 20
54.999999999999851
 30
0.0
 11
278.19999999999987
 21
79.999999999999844
 31
0.0
  0
LINE
  5
51B
  8
3
 10
276.99999999999989
 20
54.999999999999851
 30
0.0
 11
276.99999999999989
 21
79.999999999999844
 31
0.0
  0
TEXT
  5
655
  8
0
 62
     3
 10
0.0
 20
0.0
 30
0.0
 40
10.0
  1
BJ130-12150
  7
STANDARD1
  0
ENDSEC
  0
EOF
