  0
SECTION
  2
HEADER
  9
$ACADVER
  1
AC1009
  9
$INSBASE
 10
0.0
 20
0.0
 30
0.0
  9
$EXTMIN
 10
0.0
 20
-2.960436562073669
 30
0.0
  9
$EXTMAX
 10
402.40153375636618
 20
269.81923052600519
 30
0.0
  9
$LIMMIN
 10
0.0
 20
0.0
  9
$LIMMAX
 10
390.0
 20
270.0
  9
$ORTHOMODE
 70
     1
  9
$REGENMODE
 70
     1
  9
$FILLMODE
 70
     1
  9
$QTEXTMODE
 70
     0
  9
$MIRRTEXT
 70
     0
  9
$DRAGMODE
 70
     2
  9
$LTSCALE
 40
5.0
  9
$OSMODE
 70
  3071
  9
$ATTMODE
 70
     1
  9
$TEXTSIZE
 40
2.5
  9
$TRACEWID
 40
1.0
  9
$TEXTSTYLE
  7
STANDARD
  9
$CLAYER
  8
4
  9
$CELTYPE
  6
BYLAYER
  9
$CECOLOR
 62
   256
  9
$DIMSCALE
 40
1.5
  9
$DIMASZ
 40
3.0
  9
$DIMEXO
 40
1.0
  9
$DIMDLI
 40
6.0
  9
$DIMRND
 40
0.0
  9
$DIMDLE
 40
0.0
  9
$DIMEXE
 40
1.0
  9
$DIMTP
 40
495.0
  9
$DIMTM
 40
0.0
  9
$DIMTXT
 40
3.2000000000000002
  9
$DIMCEN
 40
0.0
  9
$DIMTSZ
 40
0.0
  9
$DIMTOL
 70
     0
  9
$DIMLIM
 70
     0
  9
$DIMTIH
 70
     0
  9
$DIMTOH
 70
     0
  9
$DIMSE1
 70
     0
  9
$DIMSE2
 70
     0
  9
$DIMTAD
 70
     1
  9
$DIMZIN
 70
     0
  9
$DIMBLK
  1

  9
$DIMASO
 70
     0
  9
$DIMSHO
 70
     1
  9
$DIMPOST
  1

  9
$DIMAPOST
  1

  9
$DIMALT
 70
     0
  9
$DIMALTD
 70
     2
  9
$DIMALTF
 40
25.399999999999999
  9
$DIMLFAC
 40
1.0
  9
$DIMTOFL
 70
     1
  9
$DIMTVP
 40
0.0
  9
$DIMTIX
 70
     1
  9
$DIMSOXD
 70
     0
  9
$DIMSAH
 70
     0
  9
$DIMBLK1
  1

  9
$DIMBLK2
  1

  9
$DIMSTYLE
  2
ITM
  9
$DIMCLRD
 70
   256
  9
$DIMCLRE
 70
   256
  9
$DIMCLRT
 70
   256
  9
$DIMTFAC
 40
1.0
  9
$DIMGAP
 40
1.0
  9
$LUNITS
 70
     2
  9
$LUPREC
 70
     2
  9
$SKETCHINC
 40
1.0
  9
$FILLETRAD
 40
0.4
  9
$AUNITS
 70
     0
  9
$AUPREC
 70
     0
  9
$MENU
  1
.
  9
$ELEVATION
 40
0.0
  9
$PELEVATION
 40
0.0
  9
$THICKNESS
 40
0.0
  9
$LIMCHECK
 70
     0
  9
$BLIPMODE
 70
     0
  9
$CHAMFERA
 40
1.1999999999999991
  9
$CHAMFERB
 40
1.1999999999999991
  9
$SKPOLY
 70
     0
  9
$TDCREATE
 40
2453354.0921258219
  9
$TDUPDATE
 40
2456597.6216202779
  9
$TDINDWG
 40
513.69137694439996
  9
$TDUSRTIMER
 40
513.69109896990005
  9
$USRTIMER
 70
     1
  9
$ANGBASE
 50
0.0
  9
$ANGDIR
 70
     0
  9
$PDMODE
 70
     0
  9
$PDSIZE
 40
0.0
  9
$PLINEWID
 40
0.0
  9
$COORDS
 70
     1
  9
$SPLFRAME
 70
     0
  9
$SPLINETYPE
 70
     6
  9
$SPLINESEGS
 70
     8
  9
$ATTDIA
 70
     0
  9
$ATTREQ
 70
     1
  9
$HANDLING
 70
     1
  9
$HANDSEED
  5
67F
  9
$SURFTAB1
 70
     6
  9
$SURFTAB2
 70
     6
  9
$SURFTYPE
 70
     6
  9
$SURFU
 70
     6
  9
$SURFV
 70
     6
  9
$UCSNAME
  2

  9
$UCSORG
 10
0.0
 20
0.0
 30
0.0
  9
$UCSXDIR
 10
1.0
 20
0.0
 30
0.0
  9
$UCSYDIR
 10
0.0
 20
1.0
 30
0.0
  9
$PUCSNAME
  2

  9
$PUCSORG
 10
0.0
 20
0.0
 30
0.0
  9
$PUCSXDIR
 10
1.0
 20
0.0
 30
0.0
  9
$PUCSYDIR
 10
0.0
 20
1.0
 30
0.0
  9
$USERI1
 70
     4
  9
$USERI2
 70
     1
  9
$USERI3
 70
     1
  9
$USERI4
 70
     0
  9
$USERI5
 70
     0
  9
$USERR1
 40
1.0
  9
$USERR2
 40
3.0
  9
$USERR3
 40
3.2000000000000002
  9
$USERR4
 40
3.0
  9
$USERR5
 40
10.0
  9
$WORLDVIEW
 70
     1
  9
$SHADEDGE
 70
     3
  9
$SHADEDIF
 70
    70
  9
$TILEMODE
 70
     1
  9
$MAXACTVP
 70
    16
  9
$PLIMCHECK
 70
     0
  9
$PEXTMIN
 10
0.0
 20
0.0
 30
0.0
  9
$PEXTMAX
 10
0.0
 20
0.0
 30
0.0
  9
$PLIMMIN
 10
0.0
 20
0.0
  9
$PLIMMAX
 10
12.0
 20
9.0
  9
$UNITMODE
 70
     0
  9
$VISRETAIN
 70
     0
  9
$PLINEGEN
 70
     0
  9
$PSLTSCALE
 70
     1
  0
ENDSEC
  0
SECTION
  2
TABLES
  0
TABLE
  2
VPORT
 70
     1
  0
VPORT
  2
*ACTIVE
 70
     0
 10
0.0
 20
0.0
 11
1.0
 21
1.0
 12
208.76459775653231
 22
133.5127261426681
 13
0.0
 23
0.0
 14
5.0
 24
5.0
 15
10.0
 25
10.0
 16
0.0
 26
0.0
 36
1.0
 17
0.0
 27
0.0
 37
0.0
 40
275.42274993631997
 41
1.831871345029239
 42
50.0
 43
0.0
 44
0.0
 50
0.0
 51
0.0
 71
    16
 72
   500
 73
     1
 74
     0
 75
     0
 76
     0
 77
     0
 78
     1
  0
ENDTAB
  0
TABLE
  2
LTYPE
 70
     4
  0
LTYPE
  2
CONTINUOUS
 70
     0
  3
Solid line
 72
    65
 73
     0
 40
0.0
  0
LTYPE
  2
CENTER
 70
     0
  3
____ _ ____ _ ____ _ ____ _ ____ _ ____ _ ____
 72
    65
 73
     4
 40
2.0
 49
1.25
 49
-0.25
 49
0.25
 49
-0.25
  0
LTYPE
  2
HIDDEN
 70
     0
  3
_ _ _ _ _ _ _ _ _ _ _ _ _ _ _ _ _ _ _ _ _ _ _
 72
    65
 73
     2
 40
0.375
 49
0.25
 49
-0.125
  0
LTYPE
  2
PHANTOM2
 70
     0
  3
___ _ _ ___ _ _ ___ _ _ ___ _ _
 72
    65
 73
     6
 40
1.25
 49
0.625
 49
-0.125
 49
0.125
 49
-0.125
 49
0.125
 49
-0.125
  0
ENDTAB
  0
TABLE
  2
LAYER
 70
     6
  0
LAYER
  2
0
 70
     0
 62
     7
  6
CONTINUOUS
  0
LAYER
  2
1
 70
     0
 62
     1
  6
CENTER
  0
LAYER
  2
WAKU
 70
     0
 62
     5
  6
CONTINUOUS
  0
LAYER
  2
4
 70
     0
 62
     4
  6
CONTINUOUS
  0
LAYER
  2
2
 70
     0
 62
     2
  6
HIDDEN
  0
LAYER
  2
3
 70
     0
 62
     3
  6
CONTINUOUS
  0
ENDTAB
  0
TABLE
  2
STYLE
 70
     3
  0
STYLE
  2
STANDARD
 70
     0
 40
0.0
 41
1.0
 50
0.0
 71
     0
 42
2.5
  3
ROMANS
  4
EXTFONT
  0
STYLE
  2
K
 70
     0
 40
0.0
 41
0.75
 50
0.0
 71
     0
 42
3.2000000000000002
  3
ROMANS.shx
  4
EXTFONT.shx
  0
STYLE
  2
STANDARD1
 70
     0
 40
0.0
 41
1.0
 50
0.0
 71
     0
 42
3.0
  3
txt
  4

  0
ENDTAB
  0
TABLE
  2
VIEW
 70
     0
  0
ENDTAB
  0
TABLE
  2
UCS
 70
     0
  0
ENDTAB
  0
TABLE
  2
APPID
 70
     3
  0
APPID
  2
ACAD
 70
     0
  0
APPID
  2
ACAD_MLEADERVER
 70
     0
  0
APPID
  2
ACAD_NAV_VCDISPLAY
 70
     0
  0
ENDTAB
  0
TABLE
  2
DIMSTYLE
 70
     2
  0
DIMSTYLE
  2
ITM
 70
     0
  3

  4

  5

  6

  7

 40
0.0
 41
2.5
 42
1.0
 43
6.0
 44
1.0
 45
0.0
 46
0.0
 47
495.0
 48
0.0
140
3.0
141
0.0
142
0.0
143
25.399999999999999
144
1.0
145
0.0
146
1.0
147
1.0
 71
     0
 72
     0
 73
     0
 74
     0
 75
     0
 76
     0
 77
     3
 78
     8
170
     0
171
     2
172
     1
173
     0
174
     0
175
     0
176
     0
177
     0
178
     0
  0
DIMSTYLE
  2
STANDARD
 70
     0
  3

  4

  5

  6

  7

 40
1.0
 41
0.18
 42
0.0625
 43
0.38
 44
0.18
 45
0.0
 46
0.0
 47
0.0
 48
0.0
140
0.18
141
0.09
142
0.0
143
25.399999999999999
144
1.0
145
0.0
146
1.0
147
0.09
 71
     0
 72
     0
 73
     1
 74
     1
 75
     0
 76
     0
 77
     0
 78
     0
170
     0
171
     2
172
     0
173
     0
174
     0
175
     0
176
     0
177
     0
178
     0
  0
ENDTAB
  0
ENDSEC
  0
SECTION
  2
BLOCKS
  0
BLOCK
  8
0
  2
$MODEL_SPACE
 70
     0
 10
0.0
 20
0.0
 30
0.0
  3
$MODEL_SPACE
  1

  0
ENDBLK
  5
12
  8
0
  0
BLOCK
 67
     1
  8
0
  2
$PAPER_SPACE
 70
     0
 10
0.0
 20
0.0
 30
0.0
  3
$PAPER_SPACE
  1

  0
ENDBLK
  5
19
 67
     1
  8
0
  0
BLOCK
  8
0
  2
ARROW1
 70
     0
 10
0.0
 20
0.0
 30
0.0
  3
ARROW1
  1

  0
SOLID
  5
4B
  8
WAKU
  6
CONTINUOUS
 62
     4
 10
-1.0
 20
0.1666666666666714
 30
0.0
 11
-1.0
 21
-0.1666666666666714
 31
0.0
 12
0.0
 22
0.0
 32
0.0
 13
0.0
 23
0.0
 33
0.0
  0
ENDBLK
  5
4D
  8
0
  0
ENDSEC
  0
SECTION
  2
ENTITIES
  0
LINE
  5
74
  8
1
 10
359.90153330933128
 20
20.486690037472609
 30
0.0
 11
359.90153330933111
 21
135.8234189707338
 31
0.0
  0
LINE
  5
77
  8
1
 10
223.11688955888101
 20
20.486690037472052
 30
0.0
 11
223.11688955888081
 21
135.8234189707332
 31
0.0
  0
LINE
  5
78
  8
1
 10
86.332245808430756
 20
20.486690037472052
 30
0.0
 11
86.332245808430571
 21
135.8234189707332
 31
0.0
  0
CIRCLE
  5
79
  8
0
 10
223.1169501725692
 20
190.8656834492044
 30
0.0
 40
6.5
  0
CIRCLE
  5
7A
  8
0
 10
223.11695017256889
 20
255.8656834492044
 30
0.0
 40
6.4999999999999707
  0
LINE
  5
7B
  8
0
 10
213.03605757990039
 20
265.86568389623932
 30
0.0
 11
203.6849516226055
 21
240.1737294605349
 31
0.0
  0
LINE
  5
7C
  8
0
 10
244.116949889447
 20
235.86568133024161
 30
0.0
 11
233.1978427652374
 21
265.86568389623932
 31
0.0
  0
CIRCLE
  5
7D
  8
0
 10
223.11695017256889
 20
255.8656834492044
 30
0.0
 40
6.9999999999999707
  0
LINE
  5
7E
  8
0
 10
233.1978427652374
 20
265.86568389623932
 30
0.0
 11
213.03605757990039
 21
265.86568389623932
 31
0.0
  0
LINE
  5
7F
  8
0
 10
203.68490500920549
 20
206.55776550714791
 30
0.0
 11
213.03605757990061
 21
180.8656830021695
 31
0.0
  0
LINE
  5
80
  8
0
 10
233.19784276523771
 20
180.86568300216959
 30
0.0
 11
244.116949889447
 21
210.86568556816721
 31
0.0
  0
CIRCLE
  5
81
  8
0
 10
223.1169501725692
 20
190.8656834492044
 30
0.0
 40
7.0
  0
LINE
  5
82
  8
0
 10
213.03605757990061
 20
180.8656830021695
 30
0.0
 11
233.19784276523771
 21
180.86568300216959
 31
0.0
  0
LINE
  5
83
  8
0
 10
205.21069787779021
 20
202.3656837323264
 30
0.0
 11
241.0232024673478
 21
202.36568373232649
 31
0.0
  0
LINE
  5
84
  8
0
 10
241.0232024673478
 20
244.36568316608239
 30
0.0
 11
205.2106978777901
 21
244.36568316608231
 31
0.0
  0
LINE
  5
85
  8
0
 10
244.116949889447
 20
210.86568326293991
 30
0.0
 11
244.11694988944689
 21
235.86568363546891
 31
0.0
  0
LINE
  5
86
  8
1
 10
223.11573577741399
 20
269.81923052600519
 30
0.0
 11
223.118164564555
 21
176.9122575966106
 31
0.0
  0
LINE
  5
87
  8
1
 10
156.71347041326939
 20
223.36574406130811
 30
0.0
 11
248.9197294493965
 21
223.36574406130799
 31
0.0
  0
LINE
  5
88
  8
1
 10
211.59967017301821
 20
190.8656834492044
 30
0.0
 11
234.63423017212
 21
190.8656834492044
 31
0.0
  0
LINE
  5
89
  8
1
 10
211.5996701730183
 20
255.8658046734115
 30
0.0
 11
234.63423017212
 21
255.8658046734115
 31
0.0
  0
LINE
  5
93
  8
0
 10
74.332245808430514
 20
127.11056157371399
 30
0.0
 11
74.332245808430514
 21
113.11056157371389
 31
0.0
  0
LINE
  5
94
  8
0
 10
74.332245808430514
 20
127.11056157371399
 30
0.0
 11
76.064296615999453
 21
128.11056157371391
 31
0.0
  0
LINE
  5
96
  8
0
 10
98.332245808430585
 20
127.11056157371399
 30
0.0
 11
98.332245808430585
 21
113.11056157371389
 31
0.0
  0
LINE
  5
97
  8
0
 10
98.332245808430585
 20
127.11056157371399
 30
0.0
 11
96.600195000861675
 21
128.11056157371391
 31
0.0
  0
LINE
  5
98
  8
0
 10
74.332245808430514
 20
127.11056157371399
 30
0.0
 11
98.332245808430585
 21
127.11056157371399
 31
0.0
  0
LINE
  5
99
  8
0
 10
76.064296615999453
 20
128.11056157371391
 30
0.0
 11
96.600195000861675
 21
128.11056157371391
 31
0.0
  0
LINE
  5
A0
  8
0
 10
234.11688955888101
 20
128.1105615737136
 30
0.0
 11
235.11688955888101
 21
127.1105615737136
 31
0.0
  0
LINE
  5
A1
  8
0
 10
212.11688955888101
 20
128.1105615737136
 30
0.0
 11
234.11688955888101
 21
128.1105615737136
 31
0.0
  0
LINE
  5
A2
  8
0
 10
211.11688955888101
 20
127.1105615737136
 30
0.0
 11
212.11688955888101
 21
128.1105615737136
 31
0.0
  0
LINE
  5
A3
  8
0
 10
211.11688955888101
 20
113.1105615737136
 30
0.0
 11
211.11688955888101
 21
127.1105615737136
 31
0.0
  0
LINE
  5
A4
  8
0
 10
235.11688955888101
 20
127.1105615737136
 30
0.0
 11
235.11688955888101
 21
113.1105615737136
 31
0.0
  0
LINE
  5
A5
  8
0
 10
211.11688955888101
 20
127.1105615737136
 30
0.0
 11
235.11688955888101
 21
127.1105615737136
 31
0.0
  0
LINE
  5
AA
  8
0
 10
371.90153330933123
 20
127.110561573715
 30
0.0
 11
371.90153330933128
 21
113.110561573715
 31
0.0
  0
LINE
  5
AB
  8
0
 10
371.90153330933123
 20
127.110561573715
 30
0.0
 11
370.16948250176227
 21
128.11056157371499
 31
0.0
  0
LINE
  5
AD
  8
0
 10
347.90153330933123
 20
127.110561573715
 30
0.0
 11
347.90153330933128
 21
113.110561573715
 31
0.0
  0
LINE
  5
AE
  8
0
 10
347.90153330933123
 20
127.110561573715
 30
0.0
 11
349.63358411690012
 21
128.11056157371499
 31
0.0
  0
LINE
  5
AF
  8
0
 10
371.90153330933123
 20
127.110561573715
 30
0.0
 11
347.90153330933123
 21
127.110561573715
 31
0.0
  0
LINE
  5
B0
  8
0
 10
370.16948250176227
 20
128.11056157371499
 30
0.0
 11
349.63358411690012
 21
128.11056157371499
 31
0.0
  0
CIRCLE
  5
B1
  8
0
 10
223.11688955888101
 20
223.36574406130799
 30
0.0
 40
13.0
  0
ARC
  5
B2
  8
0
 10
213.1168895588803
 20
223.3657440613087
 30
0.0
 40
18.0
 50
90.0
 51
270.0
  0
ARC
  5
B3
  8
0
 10
223.11688955888101
 20
223.36574406130799
 30
0.0
 40
18.0
 50
270.0
 51
90.0
  0
LINE
  5
B4
  8
0
 10
213.1168895588803
 20
241.3657440613087
 30
0.0
 11
223.11688955888101
 21
241.36574406130799
 31
0.0
  0
LINE
  5
B5
  8
0
 10
213.1168895588803
 20
205.3657440613087
 30
0.0
 11
223.11688955888101
 21
205.36574406130799
 31
0.0
  0
ARC
  5
B6
  8
0
 10
165.85625992694321
 20
232.5972279157121
 30
0.0
 40
2.0
 50
90.0
 51
170.84165302817189
  0
LINE
  5
B7
  8
0
 10
165.85317665212821
 20
234.61822434295041
 30
0.0
 11
210.501679948662
 21
241.1747496117211
 31
0.0
  0
ARC
  5
B8
  8
0
 10
165.85625992694321
 20
214.1342602069052
 30
0.0
 40
2.0
 50
189.158346971828
 51
270.0
  0
ARC
  5
B9
  8
0
 10
223.1168895588803
 20
223.36574406130751
 30
0.0
 40
60.0
 50
170.84165302817189
 51
189.1583469718264
  0
LINE
  5
BA
  8
0
 10
165.85317665212821
 20
212.11326377966691
 30
0.0
 11
210.501679948662
 21
205.55673851089611
 31
0.0
  0
LINE
  5
BB
  8
0
 10
215.0339857902263
 20
223.3657440613087
 30
0.0
 11
219.07543767455371
 21
230.3657440613087
 31
0.0
  0
LINE
  5
BC
  8
0
 10
219.07543767455371
 20
216.3657440613089
 30
0.0
 11
215.0339857902263
 21
223.3657440613087
 31
0.0
  0
LINE
  5
BD
  8
0
 10
227.1583414432084
 20
216.3657440613089
 30
0.0
 11
219.07543767455371
 21
216.3657440613089
 31
0.0
  0
LINE
  5
BE
  8
0
 10
231.19979332753559
 20
223.3657440613087
 30
0.0
 11
227.1583414432084
 21
216.3657440613089
 31
0.0
  0
LINE
  5
BF
  8
0
 10
227.1583414432082
 20
230.3657440613087
 30
0.0
 11
231.19979332753559
 21
223.3657440613087
 31
0.0
  0
LINE
  5
C0
  8
0
 10
219.07543767455371
 20
230.3657440613087
 30
0.0
 11
227.1583414432084
 21
230.3657440613087
 31
0.0
  0
CIRCLE
  5
C1
  8
0
 10
223.11688955888101
 20
223.3657440613087
 30
0.0
 40
10.267949192430761
  0
CIRCLE
  5
C2
  8
0
 10
223.11688955888101
 20
223.3657440613087
 30
0.0
 40
12.0
  0
LINE
  5
3FF
  8
0
 10
377.90153330933123
 20
112.31056157371501
 30
0.0
 11
377.90153330933123
 21
93.910561573715057
 31
0.0
  0
ARC
  5
400
  8
0
 10
344.00153330933119
 20
92.71056157371504
 30
0.0
 40
0.4
 50
0.0
 51
90.0
  0
ARC
  5
401
  8
0
 10
375.80153330933132
 20
92.71056157371504
 30
0.0
 40
0.4
 50
90.0
 51
180.0
  0
ARC
  5
402
  8
0
 10
377.10153330933122
 20
112.31056157371501
 30
0.0
 40
0.8
 50
0.0
 51
90.0
  0
ARC
  5
403
  8
0
 10
377.10153330933122
 20
93.910561573715057
 30
0.0
 40
0.8
 50
270.0
 51
0.0
  0
LINE
  5
404
  8
0
 10
341.90153330933123
 20
112.31056157371501
 30
0.0
 11
341.90153330933123
 21
93.910561573715057
 31
0.0
  0
ARC
  5
405
  8
0
 10
342.70153330933118
 20
112.31056157371501
 30
0.0
 40
0.8
 50
90.0
 51
180.0
  0
ARC
  5
406
  8
0
 10
342.70153330933118
 20
93.910561573715057
 30
0.0
 40
0.8
 50
180.0
 51
270.0
  0
LINE
  5
407
  8
0
 10
377.10153330933122
 20
113.110561573715
 30
0.0
 11
342.70153330933118
 21
113.110561573715
 31
0.0
  0
LINE
  5
408
  8
0
 10
342.70153330933118
 20
93.110561573715046
 30
0.0
 11
377.10153330933122
 21
93.110561573715046
 31
0.0
  0
ARC
  5
409
  8
0
 10
342.70153330933118
 20
93.910561573715057
 30
0.0
 40
0.8
 50
180.0
 51
270.0
  0
LINE
  5
40B
  8
0
 10
375.40153330933123
 20
92.71056157371504
 30
0.0
 11
375.40153330933123
 21
92.110551573715043
 31
0.0
  0
LINE
  5
40C
  8
0
 10
344.40153330933123
 20
92.110551573715043
 30
0.0
 11
344.40153330933123
 21
92.71056157371504
 31
0.0
  0
LINE
  5
40D
  8
0
 10
343.5191193093313
 20
92.110551573715043
 30
0.0
 11
343.2202373093312
 21
93.110561573715046
 31
0.0
  0
LINE
  5
40E
  8
0
 10
344.40153330933123
 20
91.110561573715046
 30
0.0
 11
344.40153330933123
 21
92.110551573715043
 31
0.0
  0
LINE
  5
40F
  8
0
 10
343.5191193093313
 20
92.110551573715043
 30
0.0
 11
344.40153330933123
 21
92.110551573715043
 31
0.0
  0
LINE
  5
410
  8
0
 10
376.28394730933121
 20
92.110551573715043
 30
0.0
 11
376.58282930933132
 21
93.110561573715046
 31
0.0
  0
LINE
  5
411
  8
0
 10
376.28394730933121
 20
92.110551573715043
 30
0.0
 11
375.40153330933123
 21
92.110551573715043
 31
0.0
  0
ARC
  5
412
  8
0
 10
239.01688955888099
 20
92.710561573713647
 30
0.0
 40
0.4
 50
90.0
 51
180.0
  0
ARC
  5
413
  8
0
 10
207.21688955888101
 20
92.710561573713647
 30
0.0
 40
0.4
 50
0.0
 51
90.0
  0
LINE
  5
414
  8
0
 10
207.61688955888101
 20
91.110561573713653
 30
0.0
 11
207.61688955888101
 21
92.710561573713647
 31
0.0
  0
LINE
  5
415
  8
0
 10
238.61688955888101
 20
92.710561573713647
 30
0.0
 11
238.61688955888101
 21
91.110561573713653
 31
0.0
  0
LINE
  5
417
  8
0
 10
204.610093558881
 20
93.110558573713661
 30
0.0
 11
203.228150558881
 21
92.113114573713645
 31
0.0
  0
LINE
  5
418
  8
0
 10
203.228150558881
 20
92.110541573713647
 30
0.0
 11
165.11688955888101
 21
92.110541573713647
 31
0.0
  0
LINE
  5
419
  8
0
 10
241.11688955888101
 20
112.3105615737136
 30
0.0
 11
241.11688955888101
 21
96.115322573713655
 31
0.0
  0
LINE
  5
41A
  8
0
 10
163.11688955888101
 20
106.39877557371361
 30
0.0
 11
163.11688955888101
 21
94.110541573713647
 31
0.0
  0
ARC
  5
41B
  8
0
 10
240.316889558881
 20
112.3105615737136
 30
0.0
 40
0.8
 50
0.0
 51
90.0
  0
ARC
  5
41C
  8
0
 10
165.11688955888101
 20
94.110541573713647
 30
0.0
 40
2.0
 50
180.0
 51
270.0
  0
LINE
  5
41D
  8
0
 10
240.316889558881
 20
113.1105615737136
 30
0.0
 11
195.89343155888099
 21
113.1105615737136
 31
0.0
  0
LINE
  5
41E
  8
0
 10
241.11688955888101
 20
96.115322573713655
 30
0.0
 11
241.11688955888101
 21
93.910426573713664
 31
0.0
  0
ARC
  5
41F
  8
0
 10
240.31708520173521
 20
93.910354222349625
 30
0.0
 40
0.7998043604182972
 50
270.1966702038419
 51
0.0051830522706194
  0
LINE
  5
424
  8
0
 10
164.80813455888091
 20
108.3747995737136
 30
0.0
 11
194.34965655888101
 21
112.9906805737136
 31
0.0
  0
ARC
  5
425
  8
0
 10
195.89343155888099
 20
103.1105615737136
 30
0.0
 40
10.0
 50
90.0
 51
98.880693999999295
  0
ARC
  5
426
  8
0
 10
165.11688955888101
 20
106.39877557371361
 30
0.0
 40
2.0
 50
98.880693999999295
 51
180.0
  0
LINE
  5
427
  8
0
 10
204.61008755888099
 20
93.110554573713657
 30
0.0
 11
240.31983055888099
 21
93.110554573713657
 31
0.0
  0
LINE
  5
428
  8
0
 10
234.11688955888101
 20
128.1105615737136
 30
0.0
 11
235.11688955888101
 21
127.1105615737136
 31
0.0
  0
LINE
  5
429
  8
0
 10
212.11688955888101
 20
128.1105615737136
 30
0.0
 11
234.11688955888101
 21
128.1105615737136
 31
0.0
  0
LINE
  5
42A
  8
0
 10
211.11688955888101
 20
127.1105615737136
 30
0.0
 11
212.11688955888101
 21
128.1105615737136
 31
0.0
  0
LINE
  5
42B
  8
0
 10
211.11688955888101
 20
113.1105615737136
 30
0.0
 11
211.11688955888101
 21
127.1105615737136
 31
0.0
  0
LINE
  5
42C
  8
0
 10
235.11688955888101
 20
127.1105615737136
 30
0.0
 11
235.11688955888101
 21
113.1105615737136
 31
0.0
  0
LINE
  5
42D
  8
0
 10
211.11688955888101
 20
127.1105615737136
 30
0.0
 11
235.11688955888101
 21
127.1105615737136
 31
0.0
  0
LINE
  5
42F
  8
0
 10
68.332245808430571
 20
112.3105615737139
 30
0.0
 11
68.332245808430571
 21
93.910561573713977
 31
0.0
  0
LINE
  5
430
  8
0
 10
70.832245808430571
 20
92.110551573713948
 30
0.0
 11
70.832245808430571
 21
91.110561573713966
 31
0.0
  0
LINE
  5
431
  8
2
 10
101.8322458084305
 20
91.110561573713966
 30
0.0
 11
101.8322458084305
 21
92.110551573713948
 31
0.0
  0
ARC
  5
432
  8
0
 10
69.132245808430582
 20
112.3105615737139
 30
0.0
 40
0.8
 50
90.0
 51
180.0
  0
ARC
  5
433
  8
0
 10
69.132245808430582
 20
93.910561573713977
 30
0.0
 40
0.8
 50
180.0
 51
270.0
  0
LINE
  5
434
  8
0
 10
104.3322458084305
 20
112.3105615737139
 30
0.0
 11
104.3322458084305
 21
93.910561573713977
 31
0.0
  0
ARC
  5
435
  8
0
 10
103.5322458084305
 20
112.3105615737139
 30
0.0
 40
0.8
 50
0.0
 51
90.0
  0
ARC
  5
436
  8
0
 10
103.5322458084305
 20
93.910561573713977
 30
0.0
 40
0.8
 50
270.0
 51
0.0
  0
LINE
  5
437
  8
0
 10
69.132245808430582
 20
113.11056157371389
 30
0.0
 11
103.5322458084305
 21
113.11056157371389
 31
0.0
  0
LINE
  5
438
  8
0
 10
103.5322458084305
 20
93.110561573713966
 30
0.0
 11
103.0135418084305
 21
93.110561573713966
 31
0.0
  0
LINE
  5
439
  8
0
 10
102.7146598084305
 20
92.110551573713948
 30
0.0
 11
69.949831808430588
 21
92.110551573713948
 31
0.0
  0
LINE
  5
43A
  8
0
 10
69.949831808430588
 20
92.110551573713948
 30
0.0
 11
69.650949808430596
 21
93.110561573713966
 31
0.0
  0
LINE
  5
43B
  8
0
 10
69.650949808430596
 20
93.110561573713966
 30
0.0
 11
69.132245808430582
 21
93.110561573713966
 31
0.0
  0
LINE
  5
43C
  8
0
 10
102.7146598084305
 20
92.110551573713948
 30
0.0
 11
103.0135418084305
 21
93.110561573713966
 31
0.0
  0
LINE
  5
43D
  8
0
 10
97.265492808430565
 20
106.4234245737139
 30
0.0
 11
97.265492808430565
 21
92.910551573713974
 31
0.0
  0
LINE
  5
43E
  8
0
 10
75.398998808430576
 20
92.910551573713974
 30
0.0
 11
75.398998808430576
 21
106.4234245737139
 31
0.0
  0
LINE
  5
43F
  8
0
 10
76.198998808430588
 20
107.2234245737139
 30
0.0
 11
96.465492808430554
 21
107.2234245737139
 31
0.0
  0
ARC
  5
440
  8
0
 10
96.465492808430554
 20
92.910551573713974
 30
0.0
 40
0.8
 50
270.0
 51
0.0
  0
ARC
  5
441
  8
0
 10
76.198998808430588
 20
92.910551573713974
 30
0.0
 40
0.8
 50
180.0
 51
270.0
  0
ARC
  5
442
  8
0
 10
76.198998808430588
 20
106.4234245737139
 30
0.0
 40
0.8
 50
90.0
 51
180.0
  0
ARC
  5
443
  8
0
 10
96.465492808430554
 20
106.4234245737139
 30
0.0
 40
0.8
 50
0.0
 51
90.0
  0
LINE
  5
444
  8
0
 10
97.265492808430565
 20
107.2234245737139
 30
0.0
 11
103.5322458084305
 21
112.3105615737139
 31
0.0
  0
LINE
  5
445
  8
0
 10
75.398998808430576
 20
107.2234245737139
 30
0.0
 11
69.132245808430582
 21
112.3105615737139
 31
0.0
  0
LINE
  5
4FD
  8
0
 10
78.332245808430699
 20
52.110561573716979
 30
0.0
 11
78.332245808430699
 21
29.110561573716979
 31
0.0
  0
LINE
  5
4FE
  8
3
 10
79.432245808430608
 20
52.110561573716979
 30
0.0
 11
79.432245808430608
 21
28.010561573716991
 31
0.0
  0
LINE
  5
4FF
  8
0
 10
78.332245808430699
 20
29.110561573716979
 30
0.0
 11
94.332245808430699
 21
29.110561573716979
 31
0.0
  0
LINE
  5
500
  8
0
 10
80.332245808430699
 20
27.110561573716979
 30
0.0
 11
92.332245808430685
 21
27.110561573716979
 31
0.0
  0
LINE
  5
501
  8
0
 10
94.332245808430699
 20
29.110561573716979
 30
0.0
 11
92.332245808430685
 21
27.110561573716979
 31
0.0
  0
LINE
  5
502
  8
0
 10
78.332245808430699
 20
29.110561573716979
 30
0.0
 11
80.332245808430699
 21
27.110561573716979
 31
0.0
  0
LINE
  5
503
  8
2
 10
79.432245808430608
 20
53.110561573716979
 30
0.0
 11
79.432245808430608
 21
52.110561573716979
 31
0.0
  0
LINE
  5
504
  8
2
 10
78.332245808430699
 20
53.110561573716979
 30
0.0
 11
78.332245808430699
 21
52.110561573716979
 31
0.0
  0
LINE
  5
505
  8
2
 10
71.332245808430685
 20
53.110561573716979
 30
0.0
 11
70.332245808430699
 21
54.110561573716979
 31
0.0
  0
LINE
  5
506
  8
3
 10
93.232245808430562
 20
52.110561573716979
 30
0.0
 11
93.232245808430562
 21
28.010561573716991
 31
0.0
  0
LINE
  5
507
  8
0
 10
94.332245808430699
 20
52.110561573716979
 30
0.0
 11
94.332245808430699
 21
29.110561573716979
 31
0.0
  0
LINE
  5
508
  8
1
 10
118.8322458084309
 20
50.610561573715849
 30
0.0
 11
118.8322458084309
 21
69.610561573715856
 31
0.0
  0
LINE
  5
509
  8
0
 10
128.83224625546569
 20
52.110561573715877
 30
0.0
 11
128.83224625546569
 21
68.110562333675105
 31
0.0
  0
LINE
  5
50A
  8
2
 10
125.3322466130936
 20
68.110562333675091
 30
0.0
 11
125.3322466130936
 21
52.110561573715898
 31
0.0
  0
LINE
  5
50B
  8
0
 10
107.33224552530881
 20
68.110562333675077
 30
0.0
 11
128.83224625546569
 21
68.110562333675105
 31
0.0
  0
LINE
  5
50C
  8
2
 10
112.3322463448727
 20
52.11056157371587
 30
0.0
 11
112.3322463448727
 21
68.110562333675063
 31
0.0
  0
LINE
  5
50D
  8
2
 10
94.332245808430699
 20
53.110561573716979
 30
0.0
 11
94.332245808430699
 21
52.110561573716979
 31
0.0
  0
LINE
  5
50E
  8
2
 10
93.232245808430562
 20
53.110561573716979
 30
0.0
 11
93.232245808430562
 21
52.110561573716979
 31
0.0
  0
LINE
  5
50F
  8
2
 10
70.332245808430699
 20
54.110561573716979
 30
0.0
 11
102.3322458084307
 21
54.110561573716979
 31
0.0
  0
LINE
  5
510
  8
2
 10
71.332245808430685
 20
53.110561573716979
 30
0.0
 11
101.3322458084307
 21
53.110561573716979
 31
0.0
  0
LINE
  5
511
  8
2
 10
102.3322458084307
 20
54.110561573716979
 30
0.0
 11
101.3322458084307
 21
53.110561573716979
 31
0.0
  0
LINE
  5
512
  8
2
 10
60.332245271988889
 20
52.11056157371587
 30
0.0
 11
60.332245271988889
 21
68.110562333675063
 31
0.0
  0
LINE
  5
513
  8
0
 10
65.332246091552761
 20
68.110562333675077
 30
0.0
 11
43.832245361395863
 21
68.110562333675105
 31
0.0
  0
LINE
  5
514
  8
2
 10
47.332245003767987
 20
68.110562333675091
 30
0.0
 11
47.332245003767987
 21
52.110561573715898
 31
0.0
  0
LINE
  5
515
  8
0
 10
43.832245361395863
 20
52.110561573715877
 30
0.0
 11
43.832245361395863
 21
68.110562333675105
 31
0.0
  0
LINE
  5
516
  8
1
 10
53.832245808430692
 20
50.610561573715849
 30
0.0
 11
53.832245808430692
 21
69.610561573715856
 31
0.0
  0
LINE
  5
517
  8
0
 10
43.832245361395863
 20
52.110561573715877
 30
0.0
 11
128.83224625546569
 21
52.110561573715927
 31
0.0
  0
LINE
  5
518
  8
0
 10
65.332246091552875
 20
92.110560679646014
 30
0.0
 11
107.33224552530871
 21
92.110560679646113
 31
0.0
  0
LINE
  5
519
  8
0
 10
107.33224552530881
 20
68.110562333675077
 30
0.0
 11
107.33224552530871
 21
92.110560679646184
 31
0.0
  0
LINE
  5
51A
  8
0
 10
65.332246091552875
 20
92.110560679646014
 30
0.0
 11
65.332246091552989
 21
68.110562333674906
 31
0.0
  0
LINE
  5
51B
  8
2
 10
70.332245808430699
 20
91.110561573716964
 30
0.0
 11
102.3322458084307
 21
91.110561573716964
 31
0.0
  0
LINE
  5
51C
  8
2
 10
70.832245808430699
 20
91.110561573716964
 30
0.0
 11
70.832245808430699
 21
92.110560679647094
 31
0.0
  0
LINE
  5
51D
  8
0
 10
102.7146598084306
 20
92.110551573716634
 30
0.0
 11
101.8322458084307
 21
92.110551573716634
 31
0.0
  0
LINE
  5
51E
  8
0
 10
69.949831808430659
 20
92.110551573716634
 30
0.0
 11
70.832245808430699
 21
92.110551573716634
 31
0.0
  0
LINE
  5
51F
  8
0
 10
102.7146598084306
 20
92.110551573716634
 30
0.0
 11
69.949831808430659
 21
92.110551573716634
 31
0.0
  0
LINE
  5
520
  8
2
 10
102.33224656839
 20
92.110560679646099
 30
0.0
 11
102.3322465683901
 21
52.110561573715813
 31
0.0
  0
LINE
  5
521
  8
0
 10
98.832185382591916
 20
92.110560679646099
 30
0.0
 11
98.832185382592016
 21
52.110561573715913
 31
0.0
  0
LINE
  5
522
  8
0
 10
73.832306234269723
 20
92.110560679645957
 30
0.0
 11
73.832306234270064
 21
52.110561573715792
 31
0.0
  0
LINE
  5
523
  8
2
 10
70.332245048471705
 20
52.110561573715707
 30
0.0
 11
70.332245048471592
 21
92.110560679645999
 31
0.0
  0
LINE
  5
54F
  8
0
 10
351.90153330933123
 20
52.110561573718059
 30
0.0
 11
351.90153330933123
 21
29.110561573718059
 31
0.0
  0
LINE
  5
550
  8
3
 10
353.00153330933108
 20
52.110561573718059
 30
0.0
 11
353.00153330933108
 21
28.010561573718071
 31
0.0
  0
LINE
  5
551
  8
0
 10
351.90153330933123
 20
29.110561573718059
 30
0.0
 11
367.90153330933123
 21
29.110561573718059
 31
0.0
  0
LINE
  5
552
  8
0
 10
353.90153330933123
 20
27.110561573718059
 30
0.0
 11
365.90153330933123
 21
27.110561573718059
 31
0.0
  0
LINE
  5
553
  8
0
 10
367.90153330933123
 20
29.110561573718059
 30
0.0
 11
365.90153330933123
 21
27.110561573718059
 31
0.0
  0
LINE
  5
554
  8
0
 10
351.90153330933123
 20
29.110561573718059
 30
0.0
 11
353.90153330933123
 21
27.110561573718059
 31
0.0
  0
LINE
  5
555
  8
2
 10
353.00153330933108
 20
53.110561573718059
 30
0.0
 11
353.00153330933108
 21
52.110561573718059
 31
0.0
  0
LINE
  5
556
  8
2
 10
351.90153330933123
 20
53.110561573718059
 30
0.0
 11
351.90153330933123
 21
52.110561573718059
 31
0.0
  0
LINE
  5
557
  8
2
 10
344.90153330933123
 20
53.110561573718059
 30
0.0
 11
343.90153330933123
 21
54.110561573718059
 31
0.0
  0
LINE
  5
558
  8
3
 10
366.80153330933109
 20
52.110561573718059
 30
0.0
 11
366.80153330933109
 21
28.010561573718071
 31
0.0
  0
LINE
  5
559
  8
0
 10
367.90153330933123
 20
52.110561573718059
 30
0.0
 11
367.90153330933123
 21
29.110561573718059
 31
0.0
  0
LINE
  5
55A
  8
1
 10
392.40153330933151
 20
50.610561573716943
 30
0.0
 11
392.40153330933151
 21
69.610561573716936
 31
0.0
  0
LINE
  5
55B
  8
0
 10
402.40153375636618
 20
52.110561573716971
 30
0.0
 11
402.40153375636618
 21
68.110562333676185
 31
0.0
  0
LINE
  5
55C
  8
2
 10
398.90153411399422
 20
68.110562333676171
 30
0.0
 11
398.90153411399422
 21
52.110561573716979
 31
0.0
  0
LINE
  5
55D
  8
0
 10
380.90153302620939
 20
68.110562333676157
 30
0.0
 11
402.40153375636618
 21
68.110562333676185
 31
0.0
  0
LINE
  5
55E
  8
2
 10
385.90153384577332
 20
52.11056157371695
 30
0.0
 11
385.90153384577332
 21
68.110562333676143
 31
0.0
  0
LINE
  5
55F
  8
2
 10
367.90153330933123
 20
53.110561573718059
 30
0.0
 11
367.90153330933123
 21
52.110561573718059
 31
0.0
  0
LINE
  5
560
  8
2
 10
366.80153330933109
 20
53.110561573718059
 30
0.0
 11
366.80153330933109
 21
52.110561573718059
 31
0.0
  0
LINE
  5
561
  8
2
 10
343.90153330933123
 20
54.110561573718059
 30
0.0
 11
375.90153330933123
 21
54.110561573718059
 31
0.0
  0
LINE
  5
562
  8
2
 10
344.90153330933123
 20
53.110561573718059
 30
0.0
 11
374.90153330933123
 21
53.110561573718059
 31
0.0
  0
LINE
  5
563
  8
2
 10
375.90153330933123
 20
54.110561573718059
 30
0.0
 11
374.90153330933123
 21
53.110561573718059
 31
0.0
  0
LINE
  5
564
  8
2
 10
333.90153277288942
 20
52.11056157371695
 30
0.0
 11
333.90153277288942
 21
68.110562333676143
 31
0.0
  0
LINE
  5
565
  8
0
 10
338.90153359245329
 20
68.110562333676157
 30
0.0
 11
317.40153286229639
 21
68.110562333676185
 31
0.0
  0
LINE
  5
566
  8
2
 10
320.90153250466852
 20
68.110562333676171
 30
0.0
 11
320.90153250466852
 21
52.110561573716979
 31
0.0
  0
LINE
  5
567
  8
0
 10
317.40153286229639
 20
52.110561573716971
 30
0.0
 11
317.40153286229639
 21
68.110562333676185
 31
0.0
  0
LINE
  5
568
  8
1
 10
327.40153330933123
 20
50.610561573716943
 30
0.0
 11
327.40153330933123
 21
69.610561573716936
 31
0.0
  0
LINE
  5
569
  8
0
 10
317.40153286229639
 20
52.110561573716971
 30
0.0
 11
402.40153375636618
 21
52.110561573717
 31
0.0
  0
LINE
  5
56A
  8
0
 10
338.9015335924534
 20
92.110560679647094
 30
0.0
 11
380.90153302620928
 21
92.110560679647207
 31
0.0
  0
LINE
  5
56B
  8
0
 10
380.90153302620939
 20
68.110562333676157
 30
0.0
 11
380.90153302620928
 21
92.110560679647264
 31
0.0
  0
LINE
  5
56C
  8
0
 10
338.9015335924534
 20
92.110560679647094
 30
0.0
 11
338.90153359245352
 21
68.110562333675986
 31
0.0
  0
LINE
  5
56D
  8
2
 10
343.90153330933123
 20
91.110561573718044
 30
0.0
 11
375.90153330933123
 21
91.110561573718044
 31
0.0
  0
LINE
  5
56E
  8
2
 10
344.40153330933123
 20
91.110561573718044
 30
0.0
 11
344.40153330933123
 21
92.110560679648174
 31
0.0
  0
LINE
  5
56F
  8
0
 10
376.28394730933121
 20
92.110551573717714
 30
0.0
 11
375.40153330933123
 21
92.110551573717714
 31
0.0
  0
LINE
  5
570
  8
0
 10
343.51911930933119
 20
92.110551573717714
 30
0.0
 11
344.40153330933123
 21
92.110551573717714
 31
0.0
  0
LINE
  5
571
  8
0
 10
376.28394730933121
 20
92.110551573717714
 30
0.0
 11
343.51911930933119
 21
92.110551573717714
 31
0.0
  0
LINE
  5
572
  8
2
 10
375.90153406929062
 20
92.110560679647193
 30
0.0
 11
375.90153406929068
 21
52.1105615737169
 31
0.0
  0
LINE
  5
573
  8
0
 10
372.40147288349237
 20
92.110560679647193
 30
0.0
 11
372.4014728834926
 21
52.110561573716993
 31
0.0
  0
LINE
  5
574
  8
0
 10
347.4015937351702
 20
92.110560679647051
 30
0.0
 11
347.40159373517059
 21
52.110561573716858
 31
0.0
  0
LINE
  5
575
  8
2
 10
343.90153254937229
 20
52.110561573716787
 30
0.0
 11
343.90153254937212
 21
92.110560679647079
 31
0.0
  0
LINE
  5
576
  8
2
 10
375.40153330933123
 20
91.110561573719806
 30
0.0
 11
375.40153330933111
 21
92.110560679649936
 31
0.0
  0
LINE
  5
580
  8
0
 10
202.11688984200291
 20
92.110560679645204
 30
0.0
 11
202.11688984200319
 21
52.110561573715387
 31
0.0
  0
LINE
  5
581
  8
2
 10
207.11688879892179
 20
52.110561573714932
 30
0.0
 11
207.11688879892159
 21
92.110560679645204
 31
0.0
  0
LINE
  5
582
  8
0
 10
205.2105766504709
 20
92.110515455989315
 30
0.0
 11
205.2106372641592
 21
68.110517110095117
 31
0.0
  0
LINE
  5
583
  8
0
 10
238.61688955888081
 20
92.710561573718067
 30
0.0
 11
238.61688955888081
 21
92.110560679645914
 31
0.0
  0
LINE
  5
584
  8
0
 10
207.61688955888081
 20
92.110560679645914
 30
0.0
 11
207.61688955888081
 21
92.710561573718067
 31
0.0
  0
LINE
  5
585
  8
0
 10
202.11688984200291
 20
92.110560679645204
 30
0.0
 11
244.11688927575881
 21
92.110560679645317
 31
0.0
  0
LINE
  5
586
  8
0
 10
215.11688955888081
 20
52.110561573716183
 30
0.0
 11
215.11688955888081
 21
29.110561573716179
 31
0.0
  0
LINE
  5
587
  8
3
 10
216.21688955888061
 20
52.110561573716183
 30
0.0
 11
216.21688955888061
 21
28.010561573716188
 31
0.0
  0
LINE
  5
588
  8
0
 10
215.11688955888081
 20
29.110561573716179
 30
0.0
 11
231.1168895588807
 21
29.110561573716179
 31
0.0
  0
LINE
  5
589
  8
0
 10
217.11688955888081
 20
27.110561573716179
 30
0.0
 11
229.1168895588807
 21
27.110561573716179
 31
0.0
  0
LINE
  5
58A
  8
0
 10
231.1168895588807
 20
29.110561573716179
 30
0.0
 11
229.1168895588807
 21
27.110561573716179
 31
0.0
  0
LINE
  5
58B
  8
0
 10
215.11688955888081
 20
29.110561573716179
 30
0.0
 11
217.11688955888081
 21
27.110561573716179
 31
0.0
  0
LINE
  5
58C
  8
2
 10
216.21688955888061
 20
53.110561573716183
 30
0.0
 11
216.21688955888061
 21
52.110561573716183
 31
0.0
  0
LINE
  5
58D
  8
2
 10
215.11688955888081
 20
53.110561573716183
 30
0.0
 11
215.11688955888081
 21
52.110561573716183
 31
0.0
  0
LINE
  5
58E
  8
2
 10
208.1168895588807
 20
53.110561573716183
 30
0.0
 11
207.11688955888081
 21
54.110561573716183
 31
0.0
  0
LINE
  5
58F
  8
3
 10
230.01688955888059
 20
52.110561573716183
 30
0.0
 11
230.01688955888059
 21
28.010561573716188
 31
0.0
  0
LINE
  5
590
  8
0
 10
231.1168895588807
 20
52.110561573716183
 30
0.0
 11
231.1168895588807
 21
29.110561573716179
 31
0.0
  0
LINE
  5
591
  8
0
 10
244.11688927575901
 20
52.110561573715387
 30
0.0
 11
244.11688927575881
 21
92.110560679645374
 31
0.0
  0
LINE
  5
592
  8
2
 10
239.11689031884009
 20
92.110560679645317
 30
0.0
 11
239.11689031884021
 21
52.11056157371501
 31
0.0
  0
LINE
  5
593
  8
0
 10
241.02320246734789
 20
92.110560679645317
 30
0.0
 11
241.02320246734789
 21
68.110562333674608
 31
0.0
  0
LINE
  5
594
  8
2
 10
231.1168895588807
 20
53.110561573716183
 30
0.0
 11
231.1168895588807
 21
52.110561573716183
 31
0.0
  0
LINE
  5
595
  8
2
 10
230.01688955888059
 20
53.110561573716183
 30
0.0
 11
230.01688955888059
 21
52.110561573716183
 31
0.0
  0
LINE
  5
596
  8
2
 10
207.11688955888081
 20
54.110561573716183
 30
0.0
 11
239.1168895588807
 21
54.110561573716183
 31
0.0
  0
LINE
  5
597
  8
2
 10
208.1168895588807
 20
53.110561573716183
 30
0.0
 11
238.11688955888081
 21
53.110561573716183
 31
0.0
  0
LINE
  5
598
  8
2
 10
239.1168895588807
 20
54.110561573716183
 30
0.0
 11
238.11688955888081
 21
53.110561573716183
 31
0.0
  0
LINE
  5
599
  8
2
 10
207.11688955888081
 20
91.110561573716197
 30
0.0
 11
239.1168895588807
 21
91.110561573716197
 31
0.0
  0
LINE
  5
59A
  8
2
 10
207.61688955888081
 20
91.110561573716197
 30
0.0
 11
207.61688955888081
 21
92.110560679646284
 31
0.0
  0
LINE
  5
59B
  8
0
 10
239.49930355888071
 20
92.110551573715838
 30
0.0
 11
238.61688955888081
 21
92.110551573715838
 31
0.0
  0
LINE
  5
59C
  8
0
 10
206.7344755588808
 20
92.110551573715838
 30
0.0
 11
207.61688955888081
 21
92.110551573715838
 31
0.0
  0
LINE
  5
59D
  8
0
 10
233.1978427652376
 20
52.110561573715387
 30
0.0
 11
233.1978427652376
 21
68.110562333674608
 31
0.0
  0
LINE
  5
59E
  8
0
 10
241.02320246734789
 20
68.110562333674608
 30
0.0
 11
205.21063726402531
 21
68.110570147151876
 31
0.0
  0
LINE
  5
59F
  8
0
 10
244.11694988944689
 20
52.110561573715387
 30
0.0
 11
202.11688984200319
 21
52.110561573715387
 31
0.0
  0
LINE
  5
5A0
  8
0
 10
213.03599696621251
 20
52.110561573715302
 30
0.0
 11
213.03599696621231
 21
68.110562333674551
 31
0.0
  0
LINE
  5
5A1
  8
2
 10
238.61688955888101
 20
91.110561573716197
 30
0.0
 11
238.61688955888101
 21
92.110560679646284
 31
0.0
  0
TEXT
  5
5F2
  8
0
 62
     3
 10
0.0
 20
0.0
 30
0.0
 40
10.0
  1
BJ130-16060B1
  7
STANDARD1
  0
ENDSEC
  0
EOF
