  0
SECTION
  2
HEADER
  9
$ACADVER
  1
AC1009
  9
$INSBASE
 10
0.0
 20
0.0
 30
0.0
  9
$EXTMIN
 10
0.0
 20
-2.960436562073669
 30
0.0
  9
$EXTMAX
 10
288.00000000000011
 20
238.0
 30
0.0
  9
$LIMMIN
 10
0.0
 20
0.0
  9
$LIMMAX
 10
375.0
 20
270.0
  9
$ORTHOMODE
 70
     1
  9
$REGENMODE
 70
     1
  9
$FILLMODE
 70
     1
  9
$QTEXTMODE
 70
     0
  9
$MIRRTEXT
 70
     0
  9
$DRAGMODE
 70
     2
  9
$LTSCALE
 40
10.0
  9
$OSMODE
 70
  3071
  9
$ATTMODE
 70
     1
  9
$TEXTSIZE
 40
0.2
  9
$TRACEWID
 40
0.05
  9
$TEXTSTYLE
  7
STANDARD
  9
$CLAYER
  8
0
  9
$CELTYPE
  6
BYLAYER
  9
$CECOLOR
 62
   256
  9
$DIMSCALE
 40
1.0
  9
$DIMASZ
 40
3.0
  9
$DIMEXO
 40
2.0
  9
$DIMDLI
 40
0.38
  9
$DIMRND
 40
0.0
  9
$DIMDLE
 40
0.0
  9
$DIMEXE
 40
2.0
  9
$DIMTP
 40
0.0
  9
$DIMTM
 40
0.0
  9
$DIMTXT
 40
3.2000000000000002
  9
$DIMCEN
 40
0.0
  9
$DIMTSZ
 40
0.0
  9
$DIMTOL
 70
     0
  9
$DIMLIM
 70
     0
  9
$DIMTIH
 70
     0
  9
$DIMTOH
 70
     0
  9
$DIMSE1
 70
     0
  9
$DIMSE2
 70
     0
  9
$DIMTAD
 70
     1
  9
$DIMZIN
 70
     0
  9
$DIMBLK
  1

  9
$DIMASO
 70
     0
  9
$DIMSHO
 70
     0
  9
$DIMPOST
  1

  9
$DIMAPOST
  1

  9
$DIMALT
 70
     0
  9
$DIMALTD
 70
     2
  9
$DIMALTF
 40
25.399999999999999
  9
$DIMLFAC
 40
1.0
  9
$DIMTOFL
 70
     1
  9
$DIMTVP
 40
1.6000000000000001
  9
$DIMTIX
 70
     1
  9
$DIMSOXD
 70
     0
  9
$DIMSAH
 70
     0
  9
$DIMBLK1
  1

  9
$DIMBLK2
  1

  9
$DIMSTYLE
  2
STANDARD
  9
$DIMCLRD
 70
     0
  9
$DIMCLRE
 70
     0
  9
$DIMCLRT
 70
     0
  9
$DIMTFAC
 40
1.0
  9
$DIMGAP
 40
0.09
  9
$LUNITS
 70
     2
  9
$LUPREC
 70
     4
  9
$SKETCHINC
 40
0.1
  9
$FILLETRAD
 40
0.0
  9
$AUNITS
 70
     0
  9
$AUPREC
 70
     4
  9
$MENU
  1
E:\r13\win\SUPPORT\ACAD
  9
$ELEVATION
 40
0.0
  9
$PELEVATION
 40
0.0
  9
$THICKNESS
 40
0.0
  9
$LIMCHECK
 70
     0
  9
$BLIPMODE
 70
     0
  9
$CHAMFERA
 40
0.0
  9
$CHAMFERB
 40
0.0
  9
$SKPOLY
 70
     0
  9
$TDCREATE
 40
2449839.633645833
  9
$TDUPDATE
 40
2456597.6217966899
  9
$TDINDWG
 40
0.0645041782
  9
$TDUSRTIMER
 40
2456514.3573286459
  9
$USRTIMER
 70
     1
  9
$ANGBASE
 50
0.0
  9
$ANGDIR
 70
     0
  9
$PDMODE
 70
     0
  9
$PDSIZE
 40
0.0
  9
$PLINEWID
 40
0.0
  9
$COORDS
 70
     1
  9
$SPLFRAME
 70
     0
  9
$SPLINETYPE
 70
     6
  9
$SPLINESEGS
 70
     8
  9
$ATTDIA
 70
     0
  9
$ATTREQ
 70
     1
  9
$HANDLING
 70
     1
  9
$HANDSEED
  5
6BA
  9
$SURFTAB1
 70
     6
  9
$SURFTAB2
 70
     6
  9
$SURFTYPE
 70
     6
  9
$SURFU
 70
     6
  9
$SURFV
 70
     6
  9
$UCSNAME
  2

  9
$UCSORG
 10
0.0
 20
0.0
 30
0.0
  9
$UCSXDIR
 10
1.0
 20
0.0
 30
0.0
  9
$UCSYDIR
 10
0.0
 20
1.0
 30
0.0
  9
$PUCSNAME
  2

  9
$PUCSORG
 10
0.0
 20
0.0
 30
0.0
  9
$PUCSXDIR
 10
1.0
 20
0.0
 30
0.0
  9
$PUCSYDIR
 10
0.0
 20
1.0
 30
0.0
  9
$USERI1
 70
     0
  9
$USERI2
 70
     1
  9
$USERI3
 70
     0
  9
$USERI4
 70
     0
  9
$USERI5
 70
     0
  9
$USERR1
 40
0.0
  9
$USERR2
 40
0.0
  9
$USERR3
 40
0.0
  9
$USERR4
 40
0.0
  9
$USERR5
 40
0.0
  9
$WORLDVIEW
 70
     1
  9
$SHADEDGE
 70
     3
  9
$SHADEDIF
 70
    70
  9
$TILEMODE
 70
     1
  9
$MAXACTVP
 70
    16
  9
$PLIMCHECK
 70
     0
  9
$PEXTMIN
 10
1.0000000000000000E+020
 20
1.0000000000000000E+020
 30
1.0000000000000000E+020
  9
$PEXTMAX
 10
-1.0000000000000000E+020
 20
-1.0000000000000000E+020
 30
-1.0000000000000000E+020
  9
$PLIMMIN
 10
0.0
 20
0.0
  9
$PLIMMAX
 10
12.0
 20
9.0
  9
$UNITMODE
 70
     0
  9
$VISRETAIN
 70
     0
  9
$PLINEGEN
 70
     0
  9
$PSLTSCALE
 70
     0
  0
ENDSEC
  0
SECTION
  2
TABLES
  0
TABLE
  2
VPORT
 70
     1
  0
VPORT
  2
*ACTIVE
 70
     0
 10
0.0
 20
0.0
 11
1.0
 21
1.0
 12
187.49427839065231
 22
191.41710799499691
 13
0.0
 23
0.0
 14
10.0
 24
10.0
 15
10.0
 25
10.0
 16
0.0
 26
0.0
 36
1.0
 17
0.0
 27
0.0
 37
0.0
 40
392.30556364789771
 41
1.831871345029239
 42
50.0
 43
0.0
 44
0.0
 50
0.0
 51
0.0
 71
    16
 72
   500
 73
     1
 74
     0
 75
     0
 76
     0
 77
     0
 78
     2
  0
ENDTAB
  0
TABLE
  2
LTYPE
 70
     3
  0
LTYPE
  2
CONTINUOUS
 70
     0
  3
Solid Line
 72
    65
 73
     0
 40
0.0
  0
LTYPE
  2
PHANTOM2
 70
     0
  3
___ _ _ ___ _ _ ___ _ _ ___ _ _
 72
    65
 73
     6
 40
1.25
 49
0.625
 49
-0.125
 49
0.125
 49
-0.125
 49
0.125
 49
-0.125
  0
LTYPE
  2
CENTER
 70
     0
  3
____ _ ____ _ ____ _ ____ _ ____ _ ____ _ ____
 72
    65
 73
     4
 40
2.0
 49
1.25
 49
-0.25
 49
0.25
 49
-0.25
  0
ENDTAB
  0
TABLE
  2
LAYER
 70
     3
  0
LAYER
  2
0
 70
     0
 62
     7
  6
CONTINUOUS
  0
LAYER
  2
1
 70
     0
 62
     1
  6
CENTER
  0
LAYER
  2
3
 70
     0
 62
     3
  6
CONTINUOUS
  0
ENDTAB
  0
TABLE
  2
STYLE
 70
     3
  0
STYLE
  2
STANDARD
 70
     0
 40
0.0
 41
1.0
 50
0.0
 71
     0
 42
0.2
  3
TXT
  4
BIGFONT
  0
STYLE
  2
ANNOTATIVE
 70
     0
 40
0.0
 41
1.0
 50
0.0
 71
     0
 42
0.2
  3
txt
  4

  0
STYLE
  2
STANDARD1
 70
     0
 40
0.0
 41
1.0
 50
0.0
 71
     0
 42
3.0
  3
txt
  4

  0
ENDTAB
  0
TABLE
  2
VIEW
 70
     1
  0
VIEW
  2
ALL
 70
     0
 40
270.0
 10
220.99159663865549
 20
135.0
 41
0.0
 11
0.0
 21
0.0
 31
1.0
 12
0.0
 22
0.0
 32
0.0
 42
0.0
 43
0.0
 44
0.0
 50
0.0
 71
     0
  0
ENDTAB
  0
TABLE
  2
UCS
 70
     0
  0
ENDTAB
  0
TABLE
  2
APPID
 70
     5
  0
APPID
  2
ACAD
 70
     0
  0
APPID
  2
ACADANNOTATIVE
 70
     0
  0
APPID
  2
ACAD_MLEADERVER
 70
     0
  0
APPID
  2
ACAD_EXEMPT_FROM_CAD_STANDARDS
 70
     0
  0
APPID
  2
ACAD_NAV_VCDISPLAY
 70
     0
  0
ENDTAB
  0
TABLE
  2
DIMSTYLE
 70
     2
  0
DIMSTYLE
  2
STANDARD
 70
     0
  3

  4

  5

  6

  7

 40
1.0
 41
0.18
 42
0.0625
 43
0.38
 44
0.18
 45
0.0
 46
0.0
 47
0.0
 48
0.0
140
0.18
141
0.09
142
0.0
143
25.399999999999999
144
1.0
145
0.0
146
1.0
147
0.09
 71
     0
 72
     0
 73
     1
 74
     1
 75
     0
 76
     0
 77
     0
 78
     0
170
     0
171
     2
172
     0
173
     0
174
     0
175
     0
176
     0
177
     0
178
     0
  0
DIMSTYLE
  2
ANNOTATIVE
 70
     0
  3

  4

  5

  6

  7

 40
1.0
 41
0.18
 42
0.0625
 43
0.38
 44
0.18
 45
0.0
 46
0.0
 47
0.0
 48
0.0
140
0.18
141
0.09
142
0.0
143
25.399999999999999
144
1.0
145
0.0
146
1.0
147
0.09
 71
     0
 72
     0
 73
     1
 74
     1
 75
     0
 76
     0
 77
     0
 78
     0
170
     0
171
     2
172
     0
173
     0
174
     0
175
     0
176
     0
177
     0
178
     0
  0
ENDTAB
  0
ENDSEC
  0
SECTION
  2
BLOCKS
  0
BLOCK
  8
0
  2
$MODEL_SPACE
 70
     0
 10
0.0
 20
0.0
 30
0.0
  3
$MODEL_SPACE
  1

  0
ENDBLK
  5
5F2
  8
0
  0
BLOCK
 67
     1
  8
0
  2
$PAPER_SPACE
 70
     0
 10
0.0
 20
0.0
 30
0.0
  3
$PAPER_SPACE
  1

  0
ENDBLK
  5
5EE
 67
     1
  8
0
  0
ENDSEC
  0
SECTION
  2
ENTITIES
  0
LINE
  5
43
  8
0
 10
280.93324745901242
 20
134.11286321896529
 30
0.0
 11
287.19999999999999
 21
139.1999999999999
 31
0.0
  0
LINE
  5
44
  8
0
 10
259.06675254098758
 20
134.11286321896529
 30
0.0
 11
252.80000000000001
 21
139.1999999999999
 31
0.0
  0
ARC
  5
45
  8
0
 10
259.86675254098759
 20
133.3128632189653
 30
0.0
 40
0.8
 50
89.999999999999986
 51
180.0
  0
ARC
  5
46
  8
0
 10
280.13324745901241
 20
133.3128632189653
 30
0.0
 40
0.8
 50
0.0
 51
89.999999999999986
  0
ARC
  5
47
  8
0
 10
280.13324745901241
 20
119.7999898908683
 30
0.0
 40
0.8
 50
270.0
 51
0.0
  0
ARC
  5
48
  8
0
 10
259.8667525409877
 20
119.7999898908683
 30
0.0
 40
0.8
 50
180.0
 51
269.99999999999989
  0
LINE
  5
49
  8
0
 10
280.13324745901241
 20
134.11286321896529
 30
0.0
 11
259.86675254098759
 21
134.11286321896529
 31
0.0
  0
LINE
  5
4A
  8
0
 10
280.93324745901242
 20
119.7999898908683
 30
0.0
 11
280.93324745901242
 21
133.3128632189653
 31
0.0
  0
LINE
  5
4B
  8
0
 10
259.06675254098758
 20
133.3128632189653
 30
0.0
 11
259.06675254098758
 21
119.7999898908683
 31
0.0
  0
LINE
  5
4C
  8
0
 10
253.6175856066518
 20
118.99998989086831
 30
0.0
 11
253.31870385243849
 21
119.9999999999999
 31
0.0
  0
LINE
  5
4D
  8
0
 10
286.68129614756162
 20
119.9999999999999
 30
0.0
 11
287.19999999999999
 21
119.9999999999999
 31
0.0
  0
LINE
  5
4E
  8
0
 10
286.38241439334831
 20
118.99998989086831
 30
0.0
 11
286.68129614756162
 21
119.9999999999999
 31
0.0
  0
LINE
  5
4F
  8
0
 10
253.6175856066518
 20
118.99998989086831
 30
0.0
 11
286.38241439334831
 21
118.99998989086831
 31
0.0
  0
LINE
  5
50
  8
0
 10
252.80000000000001
 20
119.9999999999999
 30
0.0
 11
253.31870385243849
 21
119.9999999999999
 31
0.0
  0
LINE
  5
51
  8
0
 10
287.19999999999999
 20
139.9999999999998
 30
0.0
 11
252.80000000000001
 21
139.9999999999998
 31
0.0
  0
ARC
  5
52
  8
0
 10
252.80000000000001
 20
120.7999999999999
 30
0.0
 40
0.8
 50
180.0
 51
270.0
  0
ARC
  5
53
  8
0
 10
252.80000000000001
 20
139.1999999999999
 30
0.0
 40
0.8
 50
89.999999999999986
 51
180.0
  0
LINE
  5
54
  8
0
 10
252.0
 20
139.1999999999999
 30
0.0
 11
252.0
 21
120.7999999999999
 31
0.0
  0
LINE
  5
55
  8
0
 10
278.0
 20
55.999999999999972
 30
0.0
 11
276.0
 21
53.999999999999979
 31
0.0
  0
LINE
  5
58
  8
0
 10
262.0
 20
55.999999999999972
 30
0.0
 11
264.0
 21
53.999999999999979
 31
0.0
  0
LINE
  5
5A
  8
0
 10
286.0
 20
80.999999999999957
 30
0.0
 11
285.0
 21
79.999999999999957
 31
0.0
  0
LINE
  5
5B
  8
0
 10
255.0
 20
79.999999999999957
 30
0.0
 11
254.0
 21
80.999999999999957
 31
0.0
  0
ARC
  5
5C
  8
0
 10
287.19999999999999
 20
120.7999999999999
 30
0.0
 40
0.8
 50
270.0
 51
0.0
  0
ARC
  5
5D
  8
0
 10
287.19999999999999
 20
139.1999999999999
 30
0.0
 40
0.8
 50
0.0000000000000368
 51
89.999999999999986
  0
LINE
  5
5E
  8
0
 10
258.0
 20
153.9999999999998
 30
0.0
 11
258.0
 21
139.9999999999998
 31
0.0
  0
LINE
  5
5F
  8
0
 10
258.0
 20
153.9999999999998
 30
0.0
 11
259.7320508075689
 21
154.9999999999998
 31
0.0
  0
LINE
  5
60
  8
0
 10
254.5
 20
117.9999999999999
 30
0.0
 11
254.5
 21
118.99998989086831
 31
0.0
  0
LINE
  5
61
  8
0
 10
254.0
 20
80.999999999999957
 30
0.0
 11
254.0
 21
117.9999999999999
 31
0.0
  0
LINE
  5
62
  8
0
 10
286.00000000000011
 20
117.9999999999999
 30
0.0
 11
286.0
 21
80.999999999999957
 31
0.0
  0
LINE
  5
63
  8
0
 10
285.5
 20
118.99998989086831
 30
0.0
 11
285.5
 21
117.9999999999999
 31
0.0
  0
LINE
  5
64
  8
0
 10
288.00000000000011
 20
139.1999999999999
 30
0.0
 11
288.00000000000011
 21
120.7999999999999
 31
0.0
  0
LINE
  5
65
  8
0
 10
282.00000000000011
 20
153.9999999999998
 30
0.0
 11
282.00000000000011
 21
139.9999999999998
 31
0.0
  0
LINE
  5
66
  8
0
 10
282.00000000000011
 20
153.9999999999998
 30
0.0
 11
280.26794919243122
 21
154.9999999999998
 31
0.0
  0
LINE
  5
68
  8
0
 10
264.0
 20
53.999999999999979
 30
0.0
 11
276.0
 21
53.999999999999979
 31
0.0
  0
LINE
  5
69
  8
0
 10
262.0
 20
55.999999999999972
 30
0.0
 11
278.0
 21
55.999999999999972
 31
0.0
  0
LINE
  5
6A
  8
0
 10
254.0
 20
80.999999999999957
 30
0.0
 11
286.0
 21
80.999999999999957
 31
0.0
  0
LINE
  5
6B
  8
0
 10
254.0
 20
117.9999999999999
 30
0.0
 11
286.00000000000011
 21
117.9999999999999
 31
0.0
  0
LINE
  5
6C
  8
0
 10
258.0
 20
153.9999999999998
 30
0.0
 11
282.00000000000011
 21
153.9999999999998
 31
0.0
  0
LINE
  5
6D
  8
0
 10
259.7320508075689
 20
154.9999999999998
 30
0.0
 11
280.26794919243122
 21
154.9999999999998
 31
0.0
  0
LINE
  5
6E
  8
0
 10
255.0
 20
79.999999999999957
 30
0.0
 11
285.0
 21
79.999999999999957
 31
0.0
  0
LINE
  5
6F
  8
1
 10
270.00000000000011
 20
164.9999999999998
 30
0.0
 11
270.0
 21
43.999999999999972
 31
0.0
  0
LINE
  5
70
  8
0
 10
73.617585606651843
 20
118.99998989086841
 30
0.0
 11
74.499999999999929
 21
118.99998989086841
 31
0.0
  0
LINE
  5
71
  8
0
 10
73.617585606651843
 20
118.99998989086841
 30
0.0
 11
73.318703852438446
 21
120.0
 31
0.0
  0
LINE
  5
72
  8
0
 10
106.382414393348
 20
118.99998989086841
 30
0.0
 11
105.4999999999999
 21
118.99998989086841
 31
0.0
  0
LINE
  5
73
  8
0
 10
105.4999999999998
 20
118.0
 30
0.0
 11
105.4999999999998
 21
118.99998989086841
 31
0.0
  0
ARC
  5
74
  8
0
 10
107.1999999999998
 20
120.8
 30
0.0
 40
0.8
 50
270.0
 51
0.0
  0
LINE
  5
75
  8
0
 10
106.382414393348
 20
118.99998989086841
 30
0.0
 11
106.6812961475614
 21
120.0
 31
0.0
  0
LINE
  5
76
  8
0
 10
107.1999999999999
 20
120.0
 30
0.0
 11
72.79999999999994
 21
120.0
 31
0.0
  0
LINE
  5
77
  8
0
 10
72.799999999999955
 20
140.0
 30
0.0
 11
107.1999999999999
 21
140.0
 31
0.0
  0
ARC
  5
78
  8
0
 10
107.1999999999999
 20
120.8
 30
0.0
 40
0.8
 50
270.0
 51
0.0
  0
ARC
  5
79
  8
0
 10
107.1999999999999
 20
139.19999999999999
 30
0.0
 40
0.8
 50
0.0000000000000368
 51
89.999999999999986
  0
LINE
  5
7A
  8
0
 10
107.9999999999999
 20
139.19999999999999
 30
0.0
 11
107.9999999999999
 21
120.8
 31
0.0
  0
LINE
  5
80
  8
0
 10
73.999999999999901
 20
81.0
 30
0.0
 11
74.999999999999901
 21
80.0
 31
0.0
  0
LINE
  5
81
  8
0
 10
104.9999999999999
 20
80.0
 30
0.0
 11
105.9999999999999
 21
81.0
 31
0.0
  0
ARC
  5
82
  8
0
 10
72.79999999999994
 20
120.8
 30
0.0
 40
0.8
 50
180.0
 51
270.0
  0
ARC
  5
83
  8
0
 10
72.799999999999955
 20
139.19999999999999
 30
0.0
 40
0.8
 50
89.999999999999986
 51
179.99999999999989
  0
ARC
  5
84
  8
0
 10
74.099999999999952
 20
119.59999999999999
 30
0.0
 40
0.4
 50
0.0
 51
89.999999999999915
  0
ARC
  5
85
  8
0
 10
105.89999999999991
 20
119.59999999999999
 30
0.0
 40
0.4
 50
89.999999999999986
 51
179.99999999999989
  0
LINE
  5
86
  8
0
 10
101.9999999999999
 20
154.0
 30
0.0
 11
101.9999999999999
 21
140.0
 31
0.0
  0
LINE
  5
87
  8
0
 10
101.9999999999999
 20
154.0
 30
0.0
 11
100.267949192431
 21
155.0
 31
0.0
  0
LINE
  5
88
  8
0
 10
105.4999999999999
 20
118.0
 30
0.0
 11
105.4999999999999
 21
119.59999999999999
 31
0.0
  0
LINE
  5
89
  8
0
 10
105.9999999999999
 20
81.0
 30
0.0
 11
105.9999999999999
 21
118.0
 31
0.0
  0
LINE
  5
8A
  8
0
 10
73.999999999999929
 20
118.0
 30
0.0
 11
73.999999999999901
 21
81.0
 31
0.0
  0
LINE
  5
8B
  8
0
 10
74.499999999999929
 20
119.59999999999999
 30
0.0
 11
74.499999999999929
 21
118.0
 31
0.0
  0
LINE
  5
8C
  8
0
 10
71.999999999999929
 20
139.19999999999999
 30
0.0
 11
71.999999999999929
 21
120.8
 31
0.0
  0
LINE
  5
8D
  8
0
 10
77.999999999999872
 20
154.0
 30
0.0
 11
77.999999999999929
 21
140.0
 31
0.0
  0
LINE
  5
8E
  8
0
 10
77.999999999999872
 20
154.0
 30
0.0
 11
79.732050807568783
 21
155.0
 31
0.0
  0
LINE
  5
92
  8
0
 10
105.9999999999999
 20
81.0
 30
0.0
 11
73.999999999999901
 21
81.0
 31
0.0
  0
LINE
  5
93
  8
0
 10
105.9999999999999
 20
118.0
 30
0.0
 11
73.999999999999929
 21
118.0
 31
0.0
  0
LINE
  5
94
  8
0
 10
101.9999999999999
 20
154.0
 30
0.0
 11
77.999999999999872
 21
154.0
 31
0.0
  0
LINE
  5
95
  8
0
 10
100.267949192431
 20
155.0
 30
0.0
 11
79.732050807568783
 21
155.0
 31
0.0
  0
LINE
  5
96
  8
0
 10
104.9999999999999
 20
80.0
 30
0.0
 11
74.999999999999901
 21
80.0
 31
0.0
  0
LINE
  5
97
  8
1
 10
89.999999999999872
 20
164.9999999999998
 30
0.0
 11
89.999999999999915
 21
44.000000000000007
 31
0.0
  0
LINE
  5
98
  8
1
 10
206.0
 20
200.0
 30
0.0
 11
206.0
 21
220.0
 31
0.0
  0
CIRCLE
  5
99
  8
3
 10
206.0
 20
210.0
 30
0.0
 40
6.0
  0
CIRCLE
  5
9A
  8
0
 10
206.0
 20
210.0
 30
0.0
 40
5.0
  0
CIRCLE
  5
9B
  8
0
 10
160.0
 20
210.0000000000008
 30
0.0
 40
12.0
  0
LINE
  5
9D
  8
0
 10
164.04145188432719
 20
217.00000000000071
 30
0.0
 11
155.9585481156725
 21
217.00000000000071
 31
0.0
  0
LINE
  5
9E
  8
0
 10
155.95854811567281
 20
217.00000000000071
 30
0.0
 11
151.91709623134531
 21
210.0000000000008
 31
0.0
  0
LINE
  5
9F
  8
0
 10
151.91709623134531
 20
210.0000000000008
 30
0.0
 11
155.9585481156725
 21
203.00000000000091
 31
0.0
  0
LINE
  5
A0
  8
0
 10
155.9585481156725
 20
203.00000000000091
 30
0.0
 11
164.04145188432719
 21
203.00000000000091
 31
0.0
  0
LINE
  5
A1
  8
0
 10
164.04145188432719
 20
203.00000000000091
 30
0.0
 11
168.0829037686546
 21
210.0000000000008
 31
0.0
  0
LINE
  5
A2
  8
0
 10
168.0829037686546
 20
210.0000000000008
 30
0.0
 11
164.04145188432719
 21
217.00000000000071
 31
0.0
  0
LINE
  5
A3
  8
0
 10
217.2637129067528
 20
198.74751971835889
 30
0.0
 11
172.6152096102189
 21
192.190994449588
 31
0.0
  0
ARC
  5
A4
  8
0
 10
160.0000000000006
 20
209.9999999999996
 30
0.0
 40
60.0
 50
350.84165302817451
 51
9.158346971827795
  0
ARC
  5
A5
  8
0
 10
217.26062963193769
 20
200.7685161455972
 30
0.0
 40
2.0
 50
270.0
 51
350.8416530281724
  0
LINE
  5
A6
  8
0
 10
217.2637129067528
 20
221.25248028164239
 30
0.0
 11
172.6152096102189
 21
227.8090055504131
 31
0.0
  0
ARC
  5
A7
  8
0
 10
217.26062963193769
 20
219.2314838544041
 30
0.0
 40
2.0
 50
9.1583469718275925
 51
89.999999999999986
  0
LINE
  5
A8
  8
0
 10
170.00000000000071
 20
192.00000000000071
 30
0.0
 11
160.0
 21
192.0
 31
0.0
  0
LINE
  5
A9
  8
0
 10
170.00000000000071
 20
228.00000000000071
 30
0.0
 11
160.0
 21
228.0
 31
0.0
  0
ARC
  5
AA
  8
0
 10
160.0
 20
210.0
 30
0.0
 40
18.0
 50
90.000000000000298
 51
269.99999999999972
  0
ARC
  5
AB
  8
0
 10
170.00000000000071
 20
210.0000000000008
 30
0.0
 40
18.0
 50
270.0
 51
89.999999999999986
  0
LINE
  5
AC
  8
1
 10
230.00000000000071
 20
210.0000000000008
 30
0.0
 11
132.0
 21
210.0000000000008
 31
0.0
  0
CIRCLE
  5
AD
  8
0
 10
160.0
 20
210.0
 30
0.0
 40
13.0
  0
LINE
  5
AE
  8
1
 10
160.0
 20
182.0
 30
0.0
 11
160.0
 21
238.0
 31
0.0
  0
LINE
  5
AF
  8
1
 10
205.9999999999998
 20
142.18748876224001
 30
0.0
 11
206.0
 21
113.9999800219079
 31
0.0
  0
LINE
  5
B0
  8
0
 10
172.0
 20
154.0
 30
0.0
 11
148.0
 21
154.0
 31
0.0
  0
LINE
  5
B1
  8
0
 10
148.0
 20
154.0
 30
0.0
 11
148.0
 21
140.0
 31
0.0
  0
LINE
  5
B2
  8
0
 10
172.0
 20
140.0
 30
0.0
 11
172.0
 21
154.0
 31
0.0
  0
LINE
  5
B3
  8
0
 10
172.0
 20
154.0
 30
0.0
 11
171.0
 21
155.0
 31
0.0
  0
LINE
  5
B4
  8
0
 10
171.0
 20
155.0
 30
0.0
 11
149.0
 21
155.0
 31
0.0
  0
LINE
  5
B5
  8
0
 10
149.0
 20
155.0
 30
0.0
 11
148.0
 21
154.0
 31
0.0
  0
LINE
  5
B6
  8
1
 10
160.0
 20
165.0
 30
0.0
 11
160.0
 21
44.0
 31
0.0
  0
LINE
  5
B7
  8
0
 10
178.50680156732321
 20
119.99999323374431
 30
0.0
 11
142.7970593507016
 21
119.9999932337446
 31
0.0
  0
ARC
  5
B8
  8
0
 10
218.0
 20
133.2882142351686
 30
0.0
 40
2.0
 50
0.0
 51
81.119305931299465
  0
ARC
  5
B9
  8
0
 10
187.22345797163231
 20
130.0
 30
0.0
 40
10.0
 50
81.119305931299465
 51
89.999999999999915
  0
LINE
  5
BA
  8
0
 10
218.30875496480991
 20
135.26423811450439
 30
0.0
 11
188.76723279568111
 21
139.88011939667899
 31
0.0
  0
ARC
  5
BF
  8
0
 10
142.79980330673109
 20
120.7997918368029
 30
0.0
 40
0.7998033100386615
 50
179.99478911287611
 51
269.80342991070017
  0
LINE
  5
C1
  8
0
 10
142.80000000000021
 20
140.0
 30
0.0
 11
187.22345797163231
 21
140.0
 31
0.0
  0
ARC
  5
C2
  8
0
 10
218.0
 20
120.9999800218843
 30
0.0
 40
2.0
 50
270.0
 51
359.99999999999977
  0
ARC
  5
C3
  8
0
 10
142.80000000000021
 20
139.19999999999999
 30
0.0
 40
0.8
 50
89.999999999999986
 51
180.0
  0
LINE
  5
C4
  8
0
 10
220.0
 20
133.2882142351686
 30
0.0
 11
220.0
 21
120.9999800218843
 31
0.0
  0
LINE
  5
C5
  8
0
 10
142.0
 20
139.19999999999999
 30
0.0
 11
142.0
 21
120.7998645766242
 31
0.0
  0
LINE
  5
C6
  8
0
 10
179.88873895334879
 20
118.9999800218842
 30
0.0
 11
218.0
 21
118.9999800218842
 31
0.0
  0
LINE
  5
C7
  8
0
 10
178.5067959131579
 20
119.99999731474961
 30
0.0
 11
179.88873895334879
 21
119.0025526442432
 31
0.0
  0
LINE
  5
D0
  8
0
 10
175.0
 20
80.0
 30
0.0
 11
145.0
 21
80.0
 31
0.0
  0
LINE
  5
D1
  8
0
 10
176.0
 20
118.0
 30
0.0
 11
144.0
 21
118.0
 31
0.0
  0
LINE
  5
D2
  8
0
 10
176.0
 20
81.0
 30
0.0
 11
144.0
 21
81.0
 31
0.0
  0
LINE
  5
D3
  8
0
 10
144.5
 20
119.5999999999998
 30
0.0
 11
144.5
 21
118.0
 31
0.0
  0
LINE
  5
D4
  8
0
 10
144.0
 20
118.0
 30
0.0
 11
144.0
 21
81.0
 31
0.0
  0
LINE
  5
D5
  8
0
 10
176.0
 20
81.0
 30
0.0
 11
176.0
 21
118.0
 31
0.0
  0
LINE
  5
D6
  8
0
 10
175.5
 20
118.0
 30
0.0
 11
175.5
 21
119.5999999999998
 31
0.0
  0
ARC
  5
D7
  8
0
 10
175.90000000000001
 20
119.5999999999998
 30
0.0
 40
0.4
 50
90.0
 51
179.99999999999989
  0
ARC
  5
D8
  8
0
 10
144.09999999999991
 20
119.5999999999998
 30
0.0
 40
0.4
 50
0.0
 51
89.999999999999943
  0
LINE
  5
D9
  8
0
 10
175.0
 20
80.0
 30
0.0
 11
176.0
 21
81.0
 31
0.0
  0
LINE
  5
DA
  8
0
 10
144.0
 20
81.0
 30
0.0
 11
145.0
 21
80.0
 31
0.0
  0
LINE
  5
326
  8
0
 10
278.0
 20
79.999999999999915
 30
0.0
 11
278.0
 21
55.999999999999972
 31
0.0
  0
LINE
  5
327
  8
3
 10
276.89999999999998
 20
79.999999999999957
 30
0.0
 11
276.89999999999998
 21
54.900000000000013
 31
0.0
  0
LINE
  5
328
  8
3
 10
263.10000000000002
 20
79.999999999999915
 30
0.0
 11
263.10000000000002
 21
54.900000000000013
 31
0.0
  0
LINE
  5
329
  8
0
 10
262.0
 20
79.999999999999957
 30
0.0
 11
262.0
 21
55.999999999999972
 31
0.0
  0
LINE
  5
380
  8
0
 10
168.0
 20
56.000000000000021
 30
0.0
 11
166.0
 21
54.000000000000021
 31
0.0
  0
LINE
  5
381
  8
0
 10
152.0
 20
56.000000000000021
 30
0.0
 11
154.0
 21
54.000000000000021
 31
0.0
  0
LINE
  5
382
  8
0
 10
154.0
 20
54.000000000000021
 30
0.0
 11
166.0
 21
54.000000000000021
 31
0.0
  0
LINE
  5
383
  8
0
 10
152.0
 20
56.000000000000021
 30
0.0
 11
168.0
 21
56.000000000000021
 31
0.0
  0
LINE
  5
3A4
  8
0
 10
168.0
 20
80.0
 30
0.0
 11
168.0
 21
56.000000000000021
 31
0.0
  0
LINE
  5
3A6
  8
3
 10
166.90000000000001
 20
80.0
 30
0.0
 11
166.90000000000001
 21
54.900000000000048
 31
0.0
  0
LINE
  5
3A8
  8
0
 10
152.0
 20
80.0
 30
0.0
 11
152.0
 21
56.000000000000021
 31
0.0
  0
LINE
  5
3AB
  8
3
 10
153.09999999999999
 20
80.0
 30
0.0
 11
153.09999999999999
 21
54.90000000000007
 31
0.0
  0
LINE
  5
403
  8
0
 10
97.999999999999901
 20
56.000000000000021
 30
0.0
 11
95.999999999999915
 21
54.000000000000021
 31
0.0
  0
LINE
  5
404
  8
0
 10
81.999999999999901
 20
56.000000000000043
 30
0.0
 11
83.999999999999886
 21
54.000000000000021
 31
0.0
  0
LINE
  5
405
  8
0
 10
83.999999999999886
 20
54.000000000000021
 30
0.0
 11
95.999999999999915
 21
54.000000000000021
 31
0.0
  0
LINE
  5
406
  8
0
 10
81.999999999999901
 20
56.000000000000043
 30
0.0
 11
97.999999999999901
 21
56.000000000000021
 31
0.0
  0
LINE
  5
427
  8
0
 10
97.999999999999901
 20
80.0
 30
0.0
 11
97.999999999999901
 21
56.000000000000021
 31
0.0
  0
LINE
  5
429
  8
3
 10
96.899999999999906
 20
80.0
 30
0.0
 11
96.899999999999906
 21
54.90000000000007
 31
0.0
  0
LINE
  5
42B
  8
0
 10
81.999999999999901
 20
80.0
 30
0.0
 11
81.999999999999901
 21
56.000000000000043
 31
0.0
  0
LINE
  5
42E
  8
3
 10
83.099999999999952
 20
80.0
 30
0.0
 11
83.099999999999923
 21
54.90000000000007
 31
0.0
  0
CIRCLE
  5
4DC
  8
0
 10
261.0
 20
53.299999999999997
 30
0.0
 40
0.7
  0
CIRCLE
  5
4DD
  8
0
 10
279.0
 20
53.299999999999997
 30
0.0
 40
0.7
  0
LINE
  5
4DE
  8
3
 10
260.30000000000001
 20
79.999999999999915
 30
0.0
 11
260.30000000000001
 21
53.299999999999997
 31
0.0
  0
LINE
  5
4DF
  8
3
 10
261.69999999999999
 20
79.999999999999915
 30
0.0
 11
261.69999999999999
 21
53.299999999999997
 31
0.0
  0
LINE
  5
4E0
  8
3
 10
278.30000000000001
 20
79.999999999999915
 30
0.0
 11
278.30000000000001
 21
53.299999999999997
 31
0.0
  0
LINE
  5
4E1
  8
3
 10
279.69999999999987
 20
79.999999999999915
 30
0.0
 11
279.69999999999999
 21
53.299999999999997
 31
0.0
  0
CIRCLE
  5
4E2
  8
0
 10
151.0
 20
53.300000000000011
 30
0.0
 40
0.7
  0
CIRCLE
  5
4E3
  8
0
 10
169.0
 20
53.300000000000011
 30
0.0
 40
0.7
  0
LINE
  5
4E4
  8
3
 10
150.30000000000001
 20
80.0
 30
0.0
 11
150.30000000000001
 21
53.300000000000011
 31
0.0
  0
LINE
  5
4E5
  8
3
 10
151.69999999999999
 20
80.0
 30
0.0
 11
151.69999999999999
 21
53.300000000000011
 31
0.0
  0
LINE
  5
4E6
  8
3
 10
168.30000000000001
 20
80.0
 30
0.0
 11
168.30000000000001
 21
53.300000000000011
 31
0.0
  0
LINE
  5
4E7
  8
3
 10
169.69999999999999
 20
80.0
 30
0.0
 11
169.69999999999999
 21
53.300000000000011
 31
0.0
  0
CIRCLE
  5
4E8
  8
0
 10
80.999999999999901
 20
53.300000000000011
 30
0.0
 40
0.7
  0
CIRCLE
  5
4E9
  8
0
 10
98.999999999999929
 20
53.300000000000011
 30
0.0
 40
0.7
  0
LINE
  5
4EA
  8
3
 10
80.299999999999926
 20
80.0
 30
0.0
 11
80.299999999999926
 21
53.300000000000011
 31
0.0
  0
LINE
  5
4EB
  8
3
 10
81.699999999999903
 20
80.0
 30
0.0
 11
81.699999999999903
 21
53.300000000000011
 31
0.0
  0
LINE
  5
4EC
  8
3
 10
98.299999999999926
 20
80.0
 30
0.0
 11
98.299999999999926
 21
53.300000000000011
 31
0.0
  0
LINE
  5
4ED
  8
3
 10
99.699999999999903
 20
80.0
 30
0.0
 11
99.699999999999903
 21
53.300000000000011
 31
0.0
  0
TEXT
  5
65B
  8
0
 62
     3
 10
0.0
 20
0.0
 30
0.0
 40
10.0
  1
BJ130-16160
  7
STANDARD1
  0
ENDSEC
  0
EOF
