  0
SECTION
  2
HEADER
  9
$ACADVER
  1
AC1009
  9
$INSBASE
 10
0.0
 20
0.0
 30
0.0
  9
$EXTMIN
 10
0.0
 20
-2.960436562073669
 30
0.0
  9
$EXTMAX
 10
140.30787710219909
 20
110.4840827942562
 30
0.0
  9
$LIMMIN
 10
0.0
 20
0.0
  9
$LIMMAX
 10
375.0
 20
270.0
  9
$ORTHOMODE
 70
     0
  9
$REGENMODE
 70
     1
  9
$FILLMODE
 70
     1
  9
$QTEXTMODE
 70
     0
  9
$MIRRTEXT
 70
     0
  9
$DRAGMODE
 70
     2
  9
$LTSCALE
 40
10.0
  9
$OSMODE
 70
  3071
  9
$ATTMODE
 70
     1
  9
$TEXTSIZE
 40
0.2
  9
$TRACEWID
 40
0.05
  9
$TEXTSTYLE
  7
STANDARD
  9
$CLAYER
  8
1
  9
$CELTYPE
  6
BYLAYER
  9
$CECOLOR
 62
   256
  9
$DIMSCALE
 40
1.0
  9
$DIMASZ
 40
3.0
  9
$DIMEXO
 40
2.0
  9
$DIMDLI
 40
10.0
  9
$DIMRND
 40
0.0
  9
$DIMDLE
 40
0.0
  9
$DIMEXE
 40
2.0
  9
$DIMTP
 40
0.0
  9
$DIMTM
 40
0.0
  9
$DIMTXT
 40
3.2000000000000002
  9
$DIMCEN
 40
0.09
  9
$DIMTSZ
 40
0.0
  9
$DIMTOL
 70
     0
  9
$DIMLIM
 70
     0
  9
$DIMTIH
 70
     0
  9
$DIMTOH
 70
     0
  9
$DIMSE1
 70
     0
  9
$DIMSE2
 70
     0
  9
$DIMTAD
 70
     1
  9
$DIMZIN
 70
     0
  9
$DIMBLK
  1

  9
$DIMASO
 70
     0
  9
$DIMSHO
 70
     0
  9
$DIMPOST
  1

  9
$DIMAPOST
  1

  9
$DIMALT
 70
     0
  9
$DIMALTD
 70
     2
  9
$DIMALTF
 40
25.399999999999999
  9
$DIMLFAC
 40
1.0
  9
$DIMTOFL
 70
     1
  9
$DIMTVP
 40
1.6000000000000001
  9
$DIMTIX
 70
     0
  9
$DIMSOXD
 70
     0
  9
$DIMSAH
 70
     0
  9
$DIMBLK1
  1

  9
$DIMBLK2
  1

  9
$DIMSTYLE
  2
STANDARD
  9
$DIMCLRD
 70
     0
  9
$DIMCLRE
 70
     0
  9
$DIMCLRT
 70
     0
  9
$DIMTFAC
 40
1.0
  9
$DIMGAP
 40
0.09
  9
$LUNITS
 70
     2
  9
$LUPREC
 70
     4
  9
$SKETCHINC
 40
0.1
  9
$FILLETRAD
 40
0.0
  9
$AUNITS
 70
     0
  9
$AUPREC
 70
     0
  9
$MENU
  1
E:\r13\win\SUPPORT\ACAD
  9
$ELEVATION
 40
0.0
  9
$PELEVATION
 40
0.0
  9
$THICKNESS
 40
0.0
  9
$LIMCHECK
 70
     0
  9
$BLIPMODE
 70
     0
  9
$CHAMFERA
 40
0.0
  9
$CHAMFERB
 40
0.0
  9
$SKPOLY
 70
     0
  9
$TDCREATE
 40
2449840.6171180559
  9
$TDUPDATE
 40
2456597.622809398
  9
$TDINDWG
 40
0.2259729398
  9
$TDUSRTIMER
 40
0.2259729398
  9
$USRTIMER
 70
     1
  9
$ANGBASE
 50
0.0
  9
$ANGDIR
 70
     0
  9
$PDMODE
 70
     0
  9
$PDSIZE
 40
0.0
  9
$PLINEWID
 40
0.0
  9
$COORDS
 70
     1
  9
$SPLFRAME
 70
     0
  9
$SPLINETYPE
 70
     6
  9
$SPLINESEGS
 70
     8
  9
$ATTDIA
 70
     0
  9
$ATTREQ
 70
     1
  9
$HANDLING
 70
     1
  9
$HANDSEED
  5
1A47
  9
$SURFTAB1
 70
     6
  9
$SURFTAB2
 70
     6
  9
$SURFTYPE
 70
     6
  9
$SURFU
 70
     6
  9
$SURFV
 70
     6
  9
$UCSNAME
  2

  9
$UCSORG
 10
0.0
 20
0.0
 30
0.0
  9
$UCSXDIR
 10
1.0
 20
0.0
 30
0.0
  9
$UCSYDIR
 10
0.0
 20
1.0
 30
0.0
  9
$PUCSNAME
  2

  9
$PUCSORG
 10
0.0
 20
0.0
 30
0.0
  9
$PUCSXDIR
 10
1.0
 20
0.0
 30
0.0
  9
$PUCSYDIR
 10
0.0
 20
1.0
 30
0.0
  9
$USERI1
 70
     0
  9
$USERI2
 70
     1
  9
$USERI3
 70
     0
  9
$USERI4
 70
     0
  9
$USERI5
 70
     0
  9
$USERR1
 40
0.0
  9
$USERR2
 40
0.0
  9
$USERR3
 40
0.0
  9
$USERR4
 40
0.0
  9
$USERR5
 40
0.0
  9
$WORLDVIEW
 70
     1
  9
$SHADEDGE
 70
     3
  9
$SHADEDIF
 70
    70
  9
$TILEMODE
 70
     1
  9
$MAXACTVP
 70
    16
  9
$PLIMCHECK
 70
     0
  9
$PEXTMIN
 10
1.0000000000000000E+020
 20
1.0000000000000000E+020
 30
1.0000000000000000E+020
  9
$PEXTMAX
 10
-1.0000000000000000E+020
 20
-1.0000000000000000E+020
 30
-1.0000000000000000E+020
  9
$PLIMMIN
 10
0.0
 20
0.0
  9
$PLIMMAX
 10
12.0
 20
9.0
  9
$UNITMODE
 70
     0
  9
$VISRETAIN
 70
     0
  9
$PLINEGEN
 70
     0
  9
$PSLTSCALE
 70
     0
  0
ENDSEC
  0
SECTION
  2
TABLES
  0
TABLE
  2
VPORT
 70
     1
  0
VPORT
  2
*ACTIVE
 70
     0
 10
0.0
 20
0.0
 11
1.0
 21
1.0
 12
195.0581083320873
 22
133.5127261426681
 13
0.0
 23
0.0
 14
10.0
 24
10.0
 15
10.0
 25
10.0
 16
0.0
 26
0.0
 36
1.0
 17
0.0
 27
0.0
 37
0.0
 40
275.42274993631997
 41
1.831871345029239
 42
50.0
 43
0.0
 44
0.0
 50
0.0
 51
0.0
 71
     0
 72
   100
 73
     1
 74
     0
 75
     0
 76
     0
 77
     0
 78
     0
  0
ENDTAB
  0
TABLE
  2
LTYPE
 70
    23
  0
LTYPE
  2
CONTINUOUS
 70
     0
  3
Solid Line
 72
    65
 73
     0
 40
0.0
  0
LTYPE
  2
CENTER
 70
     0
  3
____ _ ____ _ ____ _ ____ _ ____ _ ____ _ ____
 72
    65
 73
     4
 40
2.0
 49
1.25
 49
-0.25
 49
0.25
 49
-0.25
  0
LTYPE
  2
HIDDEN
 70
     0
  3
Hidden __ __ __ __ __ __ __ __ __ __ __ __ __ _
 72
    65
 73
     2
 40
0.375
 49
0.25
 49
-0.125
  0
LTYPE
  2
SLDVISIBLE1
 70
     0
  3

 72
    65
 73
     1
 40
60.960000000000001
 49
60.960000000000001
  0
LTYPE
  2
SLDHIDDEN0
 70
     0
  3

 72
    65
 73
     2
 40
1.905
 49
1.27
 49
-0.635
  0
LTYPE
  2
SLDSKETCH0
 70
     0
  3

 72
    65
 73
     1
 40
60.960000000000001
 49
60.960000000000001
  0
LTYPE
  2
SLDDETAIL0
 70
     0
  3

 72
    65
 73
     1
 40
60.960000000000001
 49
60.960000000000001
  0
LTYPE
  2
SLDSECTION0
 70
     0
  3

 72
    65
 73
     4
 40
10.16
 49
6.3499999999999988
 49
-1.27
 49
1.27
 49
-1.27
  0
LTYPE
  2
SLDDIMENSIONS0
 70
     0
  3

 72
    65
 73
     1
 40
60.960000000000001
 49
60.960000000000001
  0
LTYPE
  2
SLDCENTERLINES0
 70
     0
  3

 72
    65
 73
     4
 40
34.289999999999999
 49
30.48
 49
-1.27
 49
1.27
 49
-1.27
  0
LTYPE
  2
SLDCROSSHATCH0
 70
     0
  3

 72
    65
 73
     1
 40
60.960000000000001
 49
60.960000000000001
  0
LTYPE
  2
SLDTANVISIBLE0
 70
     0
  3

 72
    65
 73
     6
 40
12.699999999999999
 49
6.3499999999999988
 49
-1.27
 49
1.27
 49
-1.27
 49
1.27
 49
-1.27
  0
LTYPE
  2
SLDDETAILBORDER0
 70
     0
  3

 72
    65
 73
     1
 40
60.960000000000001
 49
60.960000000000001
  0
LTYPE
  2
SLDDUMMY1
 70
     0
  3

 72
    65
 73
     0
 40
0.0
  0
LTYPE
  2
SLDTANHIDDEN0
 70
     0
  3

 72
    65
 73
     2
 40
1.905
 49
1.27
 49
-0.635
  0
LTYPE
  2
SLDVIEWARROW2
 70
     0
  3

 72
    65
 73
     6
 40
12.699999999999999
 49
6.3499999999999988
 49
-1.27
 49
1.27
 49
-1.27
 49
1.27
 49
-1.27
  0
LTYPE
  2
SLDEXPLODELINES0
 70
     0
  3

 72
    65
 73
     6
 40
12.699999999999999
 49
6.3499999999999988
 49
-1.27
 49
1.27
 49
-1.27
 49
1.27
 49
-1.27
  0
LTYPE
  2
SLDBREAKLINES0
 70
     0
  3

 72
    65
 73
     2
 40
1.905
 49
1.27
 49
-0.635
  0
LTYPE
  2
SLD--SPACER--0
 70
     0
  3

 72
    65
 73
     1
 40
60.960000000000001
 49
60.960000000000001
  0
LTYPE
  2
SLDUSER-DASHED0
 70
     0
  3

 72
    65
 73
     2
 40
1.905
 49
1.27
 49
-0.635
  0
LTYPE
  2
SLDUSER-PHANTOM0
 70
     0
  3

 72
    65
 73
     6
 40
12.699999999999999
 49
6.3499999999999988
 49
-1.27
 49
1.27
 49
-1.27
 49
1.27
 49
-1.27
  0
LTYPE
  2
SLDUSER-CENTER0
 70
     0
  3

 72
    65
 73
     4
 40
34.289999999999999
 49
30.48
 49
-1.27
 49
1.27
 49
-1.27
  0
LTYPE
  2
PHANTOM2
 70
     0
  3
___ _ _ ___ _ _ ___ _ _ ___ _ _
 72
    65
 73
     6
 40
1.25
 49
0.625
 49
-0.125
 49
0.125
 49
-0.125
 49
0.125
 49
-0.125
  0
ENDTAB
  0
TABLE
  2
LAYER
 70
     5
  0
LAYER
  2
0
 70
     0
 62
     7
  6
CONTINUOUS
  0
LAYER
  2
1
 70
     0
 62
     1
  6
CENTER
  0
LAYER
  2
3
 70
     0
 62
     3
  6
CONTINUOUS
  0
LAYER
  2
2
 70
     0
 62
     2
  6
HIDDEN
  0
LAYER
  2
DEFPOINTS
 70
     0
 62
     7
  6
CONTINUOUS
  0
ENDTAB
  0
TABLE
  2
STYLE
 70
     2
  0
STYLE
  2
STANDARD
 70
     0
 40
0.0
 41
1.0
 50
0.0
 71
     0
 42
0.2
  3
TXT
  4
BIGFONT
  0
STYLE
  2
STANDARD1
 70
     0
 40
0.0
 41
1.0
 50
0.0
 71
     0
 42
3.0
  3
txt
  4

  0
ENDTAB
  0
TABLE
  2
VIEW
 70
     1
  0
VIEW
  2
ALL
 70
     0
 40
270.0
 10
220.99159700000001
 20
135.0
 41
0.0
 11
0.0
 21
0.0
 31
1.0
 12
0.0
 22
0.0
 32
0.0
 42
0.0
 43
0.0
 44
0.0
 50
0.0
 71
     0
  0
ENDTAB
  0
TABLE
  2
UCS
 70
     0
  0
ENDTAB
  0
TABLE
  2
APPID
 70
     3
  0
APPID
  2
ACAD
 70
     0
  0
APPID
  2
ACAD_MLEADERVER
 70
     0
  0
APPID
  2
ACAD_NAV_VCDISPLAY
 70
     0
  0
ENDTAB
  0
TABLE
  2
DIMSTYLE
 70
     1
  0
DIMSTYLE
  2
STANDARD
 70
     0
  3

  4

  5

  6

  7

 40
1.0
 41
0.18
 42
0.0625
 43
0.38
 44
0.18
 45
0.0
 46
0.0
 47
0.0
 48
0.0
140
0.18
141
0.09
142
0.0
143
25.399999999999999
144
1.0
145
0.0
146
1.0
147
0.09
 71
     0
 72
     0
 73
     1
 74
     1
 75
     0
 76
     0
 77
     0
 78
     0
170
     0
171
     2
172
     0
173
     0
174
     0
175
     0
176
     0
177
     0
178
     0
  0
ENDTAB
  0
ENDSEC
  0
SECTION
  2
BLOCKS
  0
BLOCK
  8
0
  2
$MODEL_SPACE
 70
     0
 10
0.0
 20
0.0
 30
0.0
  3
$MODEL_SPACE
  1

  0
ENDBLK
  5
E8
  8
0
  0
BLOCK
 67
     1
  8
0
  2
$PAPER_SPACE
 70
     0
 10
0.0
 20
0.0
 30
0.0
  3
$PAPER_SPACE
  1

  0
ENDBLK
  5
E6
 67
     1
  8
0
  0
BLOCK
  8
0
 62
     0
  2
SW_CENTERMARK0
 70
     0
 10
0.0
 20
0.0
 30
0.0
  3
SW_CENTERMARK0
  1

  0
LINE
  5
13AA
  8
0
  6
CONTINUOUS
 62
     7
 10
122.0508188874516
 20
156.68974126778781
 30
0.0
 11
127.0508188874516
 21
156.68974126778781
 31
0.0
  0
LINE
  5
13AB
  8
0
  6
CONTINUOUS
 62
     7
 10
122.0508188874516
 20
156.68974126778781
 30
0.0
 11
122.0508188874516
 21
161.68974126778781
 31
0.0
  0
LINE
  5
13AC
  8
0
  6
CONTINUOUS
 62
     7
 10
122.0508188874516
 20
156.68974126778781
 30
0.0
 11
117.0508188874516
 21
156.68974126778781
 31
0.0
  0
LINE
  5
13AD
  8
0
  6
CONTINUOUS
 62
     7
 10
122.0508188874516
 20
156.68974126778781
 30
0.0
 11
122.0508188874516
 21
151.68974126778781
 31
0.0
  0
ENDBLK
  5
13AE
  8
0
  0
BLOCK
  8
0
 62
     0
  2
SW_CENTERMARK1
 70
     0
 10
0.0
 20
0.0
 30
0.0
  3
SW_CENTERMARK1
  1

  0
LINE
  5
13B1
  8
0
  6
CONTINUOUS
 62
     7
 10
122.1229849695808
 20
156.68974126778781
 30
0.0
 11
127.1229849695808
 21
156.68974126778781
 31
0.0
  0
LINE
  5
13B2
  8
0
  6
CONTINUOUS
 62
     7
 10
122.1229849695808
 20
156.68974126778781
 30
0.0
 11
122.1229849695809
 21
161.68974126778781
 31
0.0
  0
LINE
  5
13B3
  8
0
  6
CONTINUOUS
 62
     7
 10
122.1229849695808
 20
156.68974126778781
 30
0.0
 11
117.1229849695808
 21
156.68974126778781
 31
0.0
  0
LINE
  5
13B4
  8
0
  6
CONTINUOUS
 62
     7
 10
122.1229849695808
 20
156.68974126778781
 30
0.0
 11
122.1229849695808
 21
151.68974126778781
 31
0.0
  0
ENDBLK
  5
13B5
  8
0
  0
BLOCK
  8
0
 62
     0
  2
SW_CENTERMARK2
 70
     0
 10
0.0
 20
0.0
 30
0.0
  3
SW_CENTERMARK2
  1

  0
LINE
  5
13B8
  8
0
  6
CONTINUOUS
 62
     7
 10
150.0508188874517
 20
156.68974126778789
 30
0.0
 11
155.0508188874517
 21
156.68974126778781
 31
0.0
  0
LINE
  5
13B9
  8
0
  6
CONTINUOUS
 62
     7
 10
150.0508188874517
 20
156.68974126778789
 30
0.0
 11
150.0508188874517
 21
161.68974126778789
 31
0.0
  0
LINE
  5
13BA
  8
0
  6
CONTINUOUS
 62
     7
 10
150.0508188874517
 20
156.68974126778789
 30
0.0
 11
145.0508188874517
 21
156.68974126778789
 31
0.0
  0
LINE
  5
13BB
  8
0
  6
CONTINUOUS
 62
     7
 10
150.0508188874517
 20
156.68974126778789
 30
0.0
 11
150.0508188874517
 21
151.68974126778789
 31
0.0
  0
ENDBLK
  5
13BC
  8
0
  0
BLOCK
  8
0
 62
     0
  2
SW_CENTERMARK3
 70
     0
 10
0.0
 20
0.0
 30
0.0
  3
SW_CENTERMARK3
  1

  0
LINE
  5
13BF
  8
0
  6
CONTINUOUS
 62
     7
 10
122.0508188874516
 20
156.68974126778781
 30
0.0
 11
127.0508188874516
 21
156.68974126778781
 31
0.0
  0
LINE
  5
13C0
  8
0
  6
CONTINUOUS
 62
     7
 10
122.0508188874516
 20
156.68974126778781
 30
0.0
 11
122.0508188874516
 21
161.68974126778781
 31
0.0
  0
LINE
  5
13C1
  8
0
  6
CONTINUOUS
 62
     7
 10
122.0508188874516
 20
156.68974126778781
 30
0.0
 11
117.0508188874516
 21
156.68974126778781
 31
0.0
  0
LINE
  5
13C2
  8
0
  6
CONTINUOUS
 62
     7
 10
122.0508188874516
 20
156.68974126778781
 30
0.0
 11
122.0508188874516
 21
151.68974126778781
 31
0.0
  0
LINE
  5
13C3
  8
0
  6
CONTINUOUS
 62
     7
 10
132.05081888745161
 20
156.6897412677877
 30
0.0
 11
163.4918987377699
 21
156.68974126778761
 31
0.0
  0
LINE
  5
13C4
  8
0
  6
CONTINUOUS
 62
     7
 10
122.0508188874516
 20
166.68974126778781
 30
0.0
 11
122.0508188874517
 21
175.2897412677878
 31
0.0
  0
LINE
  5
13C5
  8
0
  6
CONTINUOUS
 62
     7
 10
112.0508188874516
 20
156.68974126778781
 30
0.0
 11
103.4508188874516
 21
156.68974126778781
 31
0.0
  0
LINE
  5
13C6
  8
0
  6
CONTINUOUS
 62
     7
 10
122.0508188874516
 20
146.68974126778781
 30
0.0
 11
122.0508188874515
 21
138.08974126778779
 31
0.0
  0
ENDBLK
  5
13C7
  8
0
  0
ENDSEC
  0
SECTION
  2
ENTITIES
  0
CIRCLE
  5
17F0
  8
0
  6
CONTINUOUS
 62
     7
 10
80.01077231565327
 20
97.48408279430798
 30
0.0
 40
7.7999999999999972
  0
CIRCLE
  5
17F1
  8
0
  6
CONTINUOUS
 62
     7
 10
80.01077231565327
 20
97.48408279430798
 30
0.0
 40
6.0
  0
ARC
  5
17F2
  8
0
  6
CONTINUOUS
 62
     7
 10
89.338151368653527
 20
110.4840827943073
 30
0.0
 40
7.999999999999674
 50
234.34091229164929
 51
270.00000000976468
  0
LINE
  5
17F3
  8
0
  6
CONTINUOUS
 62
     7
 10
90.144379767779554
 20
102.48408279430789
 30
0.0
 11
89.338151370009626
 21
102.48408279430789
 31
0.0
  0
ARC
  5
17F4
  8
0
  6
CONTINUOUS
 62
     7
 10
80.01077231565327
 20
97.48408279430798
 30
0.0
 40
11.29999999972517
 50
333.73791342675992
 51
26.262086572508171
  0
LINE
  5
17F5
  8
0
  6
CONTINUOUS
 62
     7
 10
89.338151370238066
 20
92.484082794052981
 30
0.0
 11
90.144379767715606
 21
92.484082794307923
 31
0.0
  0
ARC
  5
17F6
  8
0
  6
CONTINUOUS
 62
     7
 10
89.338151367456206
 20
84.484082796669824
 30
0.0
 40
7.9999999973831564
 50
89.999999980076396
 51
125.65908772003181
  0
ARC
  5
17F7
  8
0
  6
CONTINUOUS
 62
     7
 10
80.01077231565327
 20
97.48408279430798
 30
0.0
 40
7.9999999999482174
 50
54.340912323230093
 51
305.6590876842364
  0
ARC
  5
17F8
  8
0
  6
CONTINUOUS
 62
     7
 10
79.810772315653281
 20
97.48408279430798
 30
0.0
 40
4.8000000002317442
 50
47.732570029666533
 51
312.26742997173852
  0
ARC
  5
17F9
  8
0
  6
CONTINUOUS
 62
     7
 10
84.108840228653264
 20
94.901789659307937
 30
0.0
 40
1.4438000019999899
 50
68.200671678051535
 51
222.1968785074526
  0
LINE
  5
17FA
  8
0
  6
CONTINUOUS
 62
     7
 10
84.645005395092966
 20
96.242343782850384
 30
0.0
 11
85.806327273401934
 21
95.931168523745967
 31
0.0
  0
LINE
  5
17FB
  8
0
  6
CONTINUOUS
 62
     7
 10
85.808557600905459
 20
99.028649330949648
 30
0.0
 11
84.545978308674904
 21
98.690342228859365
 31
0.0
  0
ARC
  5
17FC
  8
0
  6
CONTINUOUS
 62
     7
 10
84.108840228653307
 20
100.0663759293079
 30
0.0
 40
1.4438000019999999
 50
137.8031214976927
 51
287.62400004869409
  0
CIRCLE
  5
17FD
  8
0
  6
CONTINUOUS
 62
     7
 10
84.108840228653264
 20
94.901789659307937
 30
0.0
 40
0.75
  0
CIRCLE
  5
17FE
  8
0
  6
CONTINUOUS
 62
     7
 10
84.108840228653307
 20
100.0663759293079
 30
0.0
 40
0.75
  0
ARC
  5
17FF
  8
0
  6
CONTINUOUS
 62
     7
 10
80.01077231565327
 20
97.48408279430798
 30
0.0
 40
4.0000000002618812
 50
343.07917740672428
 51
16.920822592154021
  0
ARC
  5
1800
  8
0
  6
CONTINUOUS
 62
     7
 10
80.01077231565327
 20
97.48408279430798
 30
0.0
 40
4.0000000000478861
 50
47.511248183051258
 51
312.4887518227348
  0
LINE
  5
1801
  8
0
  6
CONTINUOUS
 62
     7
 10
81.454147989011233
 20
99.984082793687961
 30
0.0
 11
78.567396642295336
 21
99.984082793687961
 31
0.0
  0
LINE
  5
1802
  8
0
  6
CONTINUOUS
 62
     7
 10
82.897523661653295
 20
97.484082794307966
 30
0.0
 11
81.454147989011233
 21
99.984082793687961
 31
0.0
  0
LINE
  5
1803
  8
0
  6
CONTINUOUS
 62
     7
 10
78.567396642295336
 20
99.984082793687961
 30
0.0
 11
77.124020969653273
 21
97.48408279430798
 31
0.0
  0
LINE
  5
1804
  8
0
  6
CONTINUOUS
 62
     7
 10
77.124020969653273
 20
97.48408279430798
 30
0.0
 11
78.567396642295307
 21
94.984082794927986
 31
0.0
  0
LINE
  5
1805
  8
0
  6
CONTINUOUS
 62
     7
 10
81.454147989011204
 20
94.984082794927957
 30
0.0
 11
82.897523661653295
 21
97.484082794307966
 31
0.0
  0
LINE
  5
1806
  8
0
  6
CONTINUOUS
 62
     7
 10
78.567396642295307
 20
94.984082794927986
 30
0.0
 11
81.454147989011204
 21
94.984082794927957
 31
0.0
  0
ARC
  5
1807
  8
0
  6
CONTINUOUS
 62
     7
 10
97.010772315653284
 20
97.484082794307895
 30
0.0
 40
5.0
 50
270.00000000000068
 51
89.999999988248334
  0
CIRCLE
  5
1808
  8
0
  6
CONTINUOUS
 62
     7
 10
97.010772315653284
 20
97.484082794307895
 30
0.0
 40
2.1000000000000081
  0
LINE
  5
1809
  8
0
  6
CONTINUOUS
 62
     7
 10
97.010772315653256
 20
92.484082794307895
 30
0.0
 11
90.144379767715606
 21
92.484082794307923
 31
0.0
  0
LINE
  5
180A
  8
0
  6
CONTINUOUS
 62
     7
 10
90.144379767779554
 20
102.48408279430789
 30
0.0
 11
97.010772316678811
 21
102.48408279430789
 31
0.0
  0
LINE
  5
180D
  8
0
  6
CONTINUOUS
 62
     7
 10
72.010772315903353
 20
71.138103492739191
 30
0.0
 11
72.010772315679205
 21
59.338103492884947
 31
0.0
  0
LINE
  5
180E
  8
0
  6
CONTINUOUS
 62
     7
 10
91.310772315653381
 20
67.838103492884883
 30
0.0
 11
87.810772315653367
 21
71.338103492884883
 31
0.0
  0
LINE
  5
180F
  8
0
  6
CONTINUOUS
 62
     7
 10
72.210772315653344
 20
71.33810349288494
 30
0.0
 11
72.010772315903353
 21
71.138103492739191
 31
0.0
  0
POLYLINE
  5
1810
  8
0
  6
CONTINUOUS
 62
     7
 66
     1
 10
0.0
 20
0.0
 30
0.0
 70
   128
  0
VERTEX
  5
19A9
  8
0
  6
CONTINUOUS
 62
     7
 10
74.635772315653284
 20
51.83810349288494
 30
0.0
  0
VERTEX
  5
19AA
  8
0
  6
CONTINUOUS
 62
     7
 10
74.523067397620494
 20
51.825808410917709
 30
0.0
  0
VERTEX
  5
19AB
  8
0
  6
CONTINUOUS
 62
     7
 10
74.395387700268685
 20
51.780411185192641
 30
0.0
  0
VERTEX
  5
19AC
  8
0
  6
CONTINUOUS
 62
     7
 10
74.260772315653284
 20
51.688103492884942
 30
0.0
  0
VERTEX
  5
19AD
  8
0
  6
CONTINUOUS
 62
     7
 10
74.135772315653298
 20
51.538103492884943
 30
0.0
  0
VERTEX
  5
19AE
  8
0
  6
CONTINUOUS
 62
     7
 10
74.044556099437074
 20
51.331346736128182
 30
0.0
  0
VERTEX
  5
19AF
  8
0
  6
CONTINUOUS
 62
     7
 10
74.010772315653284
 20
51.08810349288494
 30
0.0
  0
VERTEX
  5
19B0
  8
0
  6
CONTINUOUS
 62
     7
 10
74.044556099437074
 20
50.844860249641698
 30
0.0
  0
VERTEX
  5
19B1
  8
0
  6
CONTINUOUS
 62
     7
 10
74.135772315653284
 20
50.63810349288493
 30
0.0
  0
VERTEX
  5
19B2
  8
0
  6
CONTINUOUS
 62
     7
 10
74.260772315653284
 20
50.488103492884932
 30
0.0
  0
VERTEX
  5
19B3
  8
0
  6
CONTINUOUS
 62
     7
 10
74.395387700268671
 20
50.39579580057724
 30
0.0
  0
VERTEX
  5
19B4
  8
0
  6
CONTINUOUS
 62
     7
 10
74.523067397620494
 20
50.35039857485215
 30
0.0
  0
VERTEX
  5
19B5
  8
0
  6
CONTINUOUS
 62
     7
 10
74.635772315653284
 20
50.33810349288494
 30
0.0
  0
SEQEND
  5
19B6
  8
0
  6
CONTINUOUS
 62
     7
  0
POLYLINE
  5
1811
  8
0
  6
CONTINUOUS
 62
     7
 66
     1
 10
0.0
 20
0.0
 30
0.0
 70
   128
  0
VERTEX
  5
19B7
  8
0
  6
CONTINUOUS
 62
     7
 10
85.385772315653284
 20
50.338103492884898
 30
0.0
  0
VERTEX
  5
19B8
  8
0
  6
CONTINUOUS
 62
     7
 10
85.498477233686074
 20
50.350398574852107
 30
0.0
  0
VERTEX
  5
19B9
  8
0
  6
CONTINUOUS
 62
     7
 10
85.626156931037897
 20
50.395795800577197
 30
0.0
  0
VERTEX
  5
19BA
  8
0
  6
CONTINUOUS
 62
     7
 10
85.760772315653284
 20
50.488103492884889
 30
0.0
  0
VERTEX
  5
19BB
  8
0
  6
CONTINUOUS
 62
     7
 10
85.885772315653284
 20
50.638103492884888
 30
0.0
  0
VERTEX
  5
19BC
  8
0
  6
CONTINUOUS
 62
     7
 10
85.976988531869495
 20
50.844860249641648
 30
0.0
  0
VERTEX
  5
19BD
  8
0
  6
CONTINUOUS
 62
     7
 10
86.010772315653284
 20
51.08810349288489
 30
0.0
  0
VERTEX
  5
19BE
  8
0
  6
CONTINUOUS
 62
     7
 10
85.976988531869495
 20
51.33134673612814
 30
0.0
  0
VERTEX
  5
19BF
  8
0
  6
CONTINUOUS
 62
     7
 10
85.885772315653284
 20
51.538103492884893
 30
0.0
  0
VERTEX
  5
19C0
  8
0
  6
CONTINUOUS
 62
     7
 10
85.760772315653284
 20
51.688103492884899
 30
0.0
  0
VERTEX
  5
19C1
  8
0
  6
CONTINUOUS
 62
     7
 10
85.626156931037926
 20
51.780411185192591
 30
0.0
  0
VERTEX
  5
19C2
  8
0
  6
CONTINUOUS
 62
     7
 10
85.498477233686074
 20
51.825808410917681
 30
0.0
  0
VERTEX
  5
19C3
  8
0
  6
CONTINUOUS
 62
     7
 10
85.385772315653298
 20
51.83810349288489
 30
0.0
  0
SEQEND
  5
19C4
  8
0
  6
CONTINUOUS
 62
     7
  0
LINE
  5
1812
  8
0
  6
CONTINUOUS
 62
     7
 10
86.010772315653298
 20
51.83810349288489
 30
0.0
 11
86.010772315653327
 21
57.338103492884862
 31
0.0
  0
LINE
  5
1813
  8
0
  6
CONTINUOUS
 62
     7
 10
74.010772315653313
 20
57.33810349288489
 30
0.0
 11
74.010772315653284
 21
51.83810349288494
 31
0.0
  0
LINE
  5
1814
  8
0
  6
CONTINUOUS
 62
     7
 10
86.010772315653327
 20
57.338103492884862
 30
0.0
 11
85.760772315653313
 21
57.588103492884898
 31
0.0
  0
LINE
  5
1815
  8
0
  6
CONTINUOUS
 62
     7
 10
74.260772315653313
 20
57.588103492884933
 30
0.0
 11
74.010772315653313
 21
57.33810349288489
 31
0.0
  0
LINE
  5
1816
  8
0
  6
CONTINUOUS
 62
     7
 10
86.010772315653256
 20
40.83810349288489
 30
0.0
 11
86.010772315653284
 21
49.83810349288489
 31
0.0
  0
LINE
  5
1817
  8
0
  6
CONTINUOUS
 62
     7
 10
74.010772315653284
 20
49.838103492884933
 30
0.0
 11
74.010772315653256
 21
40.838103492884933
 31
0.0
  0
LINE
  5
1818
  8
0
  6
CONTINUOUS
 62
     7
 10
85.760772315653313
 20
57.588103492884898
 30
0.0
 11
85.760772315653327
 21
59.33810349288489
 31
0.0
  0
LINE
  5
1819
  8
0
  6
CONTINUOUS
 62
     7
 10
74.260772315653313
 20
59.338103492884933
 30
0.0
 11
74.260772315653313
 21
57.588103492884933
 31
0.0
  0
LINE
  5
181A
  8
0
  6
CONTINUOUS
 62
     7
 10
102.0107723156533
 20
58.338103492884841
 30
0.0
 11
102.0107723156533
 21
67.838103492884841
 31
0.0
  0
LINE
  5
181B
  8
0
  6
CONTINUOUS
 62
     7
 10
84.760772315653284
 20
49.83810349288489
 30
0.0
 11
84.760772315653284
 21
50.338103492884898
 31
0.0
  0
LINE
  5
181C
  8
0
  6
CONTINUOUS
 62
     7
 10
75.260772315653284
 20
50.33810349288494
 30
0.0
 11
75.260772315653284
 21
49.838103492884933
 31
0.0
  0
LINE
  5
181D
  8
0
  6
CONTINUOUS
 62
     7
 10
77.010772315653242
 20
40.838103492884919
 30
0.0
 11
77.010772315653199
 21
27.33810349288493
 31
0.0
  0
LINE
  5
181E
  8
0
  6
CONTINUOUS
 62
     7
 10
83.010772315653199
 20
27.338103492884908
 30
0.0
 11
83.010772315653256
 21
40.838103492884898
 31
0.0
  0
LINE
  5
181F
  8
0
  6
CONTINUOUS
 62
     7
 10
84.674461840817216
 20
71.138103493134935
 30
0.0
 11
84.674461840947814
 21
59.338103492884898
 31
0.0
  0
LINE
  5
1820
  8
0
  6
CONTINUOUS
 62
     7
 10
92.010772318233151
 20
59.33810349288489
 30
0.0
 11
72.010772315679205
 21
59.338103492884947
 31
0.0
  0
LINE
  5
1821
  8
0
  6
CONTINUOUS
 62
     7
 10
84.674461840817216
 20
71.138103493134935
 30
0.0
 11
72.010772315903353
 21
71.138103492739191
 31
0.0
  0
LINE
  5
1822
  8
0
  6
CONTINUOUS
 62
     7
 10
72.210772315653344
 20
71.33810349288494
 30
0.0
 11
87.810772315653367
 21
71.338103492884883
 31
0.0
  0
LINE
  5
1823
  8
0
  6
CONTINUOUS
 62
     7
 10
89.338151370238151
 20
68.555098247548131
 30
0.0
 11
90.144379767345313
 21
67.83810349354917
 31
0.0
  0
ARC
  5
1824
  8
0
  6
CONTINUOUS
 62
     7
 10
83.213548170237686
 20
62.998667504463448
 30
0.0
 40
8.2695034288736498
 50
42.215293851764692
 51
79.824562390428966
  0
LINE
  5
1825
  8
0
  6
CONTINUOUS
 62
     7
 10
89.338151370294142
 20
59.33810349288489
 30
0.0
 11
89.338151371027024
 21
68.555098246612744
 31
0.0
  0
LINE
  5
1828
  8
0
  6
CONTINUOUS
 62
     7
 10
74.635772315653284
 20
50.33810349288494
 30
0.0
 11
85.385772315653355
 21
50.338103492884898
 31
0.0
  0
LINE
  5
1829
  8
0
  6
CONTINUOUS
 62
     7
 10
86.010772315653298
 20
51.83810349288489
 30
0.0
 11
74.010772315653284
 21
51.83810349288494
 31
0.0
  0
LINE
  5
182B
  8
0
  6
CONTINUOUS
 62
     7
 10
86.010772315653327
 20
57.338103492884862
 30
0.0
 11
74.010772315653384
 21
57.338103492884962
 31
0.0
  0
LINE
  5
182D
  8
0
  6
CONTINUOUS
 62
     7
 10
85.760772315653313
 20
57.588103492884898
 30
0.0
 11
74.260772315653313
 21
57.588103492884919
 31
0.0
  0
LINE
  5
182E
  8
0
  6
CONTINUOUS
 62
     7
 10
74.010772315653284
 20
49.838103492884933
 30
0.0
 11
86.010772315653284
 21
49.83810349288489
 31
0.0
  0
LINE
  5
182F
  8
0
  6
CONTINUOUS
 62
     7
 10
86.010772315653256
 20
40.83810349288489
 30
0.0
 11
74.010772315653256
 21
40.838103492884933
 31
0.0
  0
LINE
  5
1830
  8
0
  6
CONTINUOUS
 62
     7
 10
97.010772315653355
 20
67.838103492884855
 30
0.0
 11
97.010772315653313
 21
58.338103492884862
 31
0.0
  0
LINE
  5
1831
  8
0
  6
CONTINUOUS
 62
     7
 10
102.0107723156533
 20
58.338103492884841
 30
0.0
 11
92.010772318233151
 21
58.338103492884869
 31
0.0
  0
LINE
  5
1832
  8
0
  6
CONTINUOUS
 62
     7
 10
102.0107723156533
 20
67.838103492642972
 30
0.0
 11
90.144379767715677
 21
67.838103493217019
 31
0.0
  0
LINE
  5
1833
  8
0
  6
CONTINUOUS
 62
     7
 10
92.010772318233151
 20
58.338103492884869
 30
0.0
 11
92.010772318233151
 21
59.338103492884883
 31
0.0
  0
LINE
  5
1837
  8
0
  6
CONTINUOUS
 62
     7
 10
83.010772315653199
 20
27.338103492884908
 30
0.0
 11
77.010772315653199
 21
27.33810349288493
 31
0.0
  0
LINE
  5
1839
  8
1
 10
97.010772315653327
 20
70.338103492884841
 30
0.0
 11
97.010772315653298
 21
55.838103492884862
 31
0.0
  0
LINE
  5
183A
  8
1
 10
80.010772315653384
 20
76.338103492884414
 30
0.0
 11
80.010772315653199
 21
22.338103492884589
 31
0.0
  0
LINE
  5
183B
  8
0
  6
CONTINUOUS
 62
     7
 10
140.30787710219909
 20
71.138103492884952
 30
0.0
 11
140.1078771021991
 21
71.33810349288494
 31
0.0
  0
LINE
  5
183C
  8
0
  6
CONTINUOUS
 62
     7
 10
124.5078771021991
 20
71.338103492884827
 30
0.0
 11
124.3078771021991
 21
71.138103492884838
 31
0.0
  0
POLYLINE
  5
183D
  8
0
  6
CONTINUOUS
 62
     7
 66
     1
 10
0.0
 20
0.0
 30
0.0
 70
   128
  0
VERTEX
  5
19C5
  8
0
  6
CONTINUOUS
 62
     7
 10
126.9328771021992
 20
51.838103492884848
 30
0.0
  0
VERTEX
  5
19C6
  8
0
  6
CONTINUOUS
 62
     7
 10
126.8201721841664
 20
51.825808410917631
 30
0.0
  0
VERTEX
  5
19C7
  8
0
  6
CONTINUOUS
 62
     7
 10
126.6924924868146
 20
51.780411185192548
 30
0.0
  0
VERTEX
  5
19C8
  8
0
  6
CONTINUOUS
 62
     7
 10
126.5578771021992
 20
51.688103492884842
 30
0.0
  0
VERTEX
  5
19C9
  8
0
  6
CONTINUOUS
 62
     7
 10
126.4328771021992
 20
51.538103492884836
 30
0.0
  0
VERTEX
  5
19CA
  8
0
  6
CONTINUOUS
 62
     7
 10
126.341660885983
 20
51.33134673612809
 30
0.0
  0
VERTEX
  5
19CB
  8
0
  6
CONTINUOUS
 62
     7
 10
126.3078771021992
 20
51.088103492884848
 30
0.0
  0
VERTEX
  5
19CC
  8
0
  6
CONTINUOUS
 62
     7
 10
126.341660885983
 20
50.844860249641599
 30
0.0
  0
VERTEX
  5
19CD
  8
0
  6
CONTINUOUS
 62
     7
 10
126.4328771021992
 20
50.638103492884838
 30
0.0
  0
VERTEX
  5
19CE
  8
0
  6
CONTINUOUS
 62
     7
 10
126.5578771021992
 20
50.488103492884854
 30
0.0
  0
VERTEX
  5
19CF
  8
0
  6
CONTINUOUS
 62
     7
 10
126.6924924868146
 20
50.395795800577147
 30
0.0
  0
VERTEX
  5
19D0
  8
0
  6
CONTINUOUS
 62
     7
 10
126.8201721841664
 20
50.350398574852058
 30
0.0
  0
VERTEX
  5
19D1
  8
0
  6
CONTINUOUS
 62
     7
 10
126.9328771021992
 20
50.338103492884862
 30
0.0
  0
SEQEND
  5
19D2
  8
0
  6
CONTINUOUS
 62
     7
  0
POLYLINE
  5
183E
  8
0
  6
CONTINUOUS
 62
     7
 66
     1
 10
0.0
 20
0.0
 30
0.0
 70
   128
  0
VERTEX
  5
19D3
  8
0
  6
CONTINUOUS
 62
     7
 10
137.6828771021992
 20
50.338103492884933
 30
0.0
  0
VERTEX
  5
19D4
  8
0
  6
CONTINUOUS
 62
     7
 10
137.79558202023199
 20
50.350398574852143
 30
0.0
  0
VERTEX
  5
19D5
  8
0
  6
CONTINUOUS
 62
     7
 10
137.92326171758381
 20
50.39579580057724
 30
0.0
  0
VERTEX
  5
19D6
  8
0
  6
CONTINUOUS
 62
     7
 10
138.0578771021992
 20
50.488103492884932
 30
0.0
  0
VERTEX
  5
19D7
  8
0
  6
CONTINUOUS
 62
     7
 10
138.1828771021992
 20
50.63810349288493
 30
0.0
  0
VERTEX
  5
19D8
  8
0
  6
CONTINUOUS
 62
     7
 10
138.2740933184154
 20
50.844860249641691
 30
0.0
  0
VERTEX
  5
19D9
  8
0
  6
CONTINUOUS
 62
     7
 10
138.3078771021992
 20
51.088103492884933
 30
0.0
  0
VERTEX
  5
19DA
  8
0
  6
CONTINUOUS
 62
     7
 10
138.2740933184154
 20
51.331346736128182
 30
0.0
  0
VERTEX
  5
19DB
  8
0
  6
CONTINUOUS
 62
     7
 10
138.1828771021992
 20
51.538103492884929
 30
0.0
  0
VERTEX
  5
19DC
  8
0
  6
CONTINUOUS
 62
     7
 10
138.0578771021992
 20
51.688103492884927
 30
0.0
  0
VERTEX
  5
19DD
  8
0
  6
CONTINUOUS
 62
     7
 10
137.92326171758381
 20
51.780411185192627
 30
0.0
  0
VERTEX
  5
19DE
  8
0
  6
CONTINUOUS
 62
     7
 10
137.79558202023199
 20
51.825808410917709
 30
0.0
  0
VERTEX
  5
19DF
  8
0
  6
CONTINUOUS
 62
     7
 10
137.6828771021992
 20
51.838103492884933
 30
0.0
  0
SEQEND
  5
19E0
  8
0
  6
CONTINUOUS
 62
     7
  0
LINE
  5
183F
  8
0
  6
CONTINUOUS
 62
     7
 10
138.3078771021992
 20
51.838103492884933
 30
0.0
 11
138.3078771021992
 21
57.33810349288489
 31
0.0
  0
LINE
  5
1840
  8
0
  6
CONTINUOUS
 62
     7
 10
126.3078771021992
 20
57.338103492884848
 30
0.0
 11
126.3078771021992
 21
51.838103492884848
 31
0.0
  0
LINE
  5
1841
  8
0
  6
CONTINUOUS
 62
     7
 10
138.3078771021992
 20
57.33810349288489
 30
0.0
 11
138.0578771021992
 21
57.588103492884919
 31
0.0
  0
LINE
  5
1842
  8
0
  6
CONTINUOUS
 62
     7
 10
126.5578771021992
 20
57.588103492884848
 30
0.0
 11
126.3078771021992
 21
57.338103492884848
 31
0.0
  0
LINE
  5
1843
  8
0
  6
CONTINUOUS
 62
     7
 10
138.30787710219931
 20
40.838103492884919
 30
0.0
 11
138.3078771021992
 21
49.838103492884933
 31
0.0
  0
LINE
  5
1844
  8
0
  6
CONTINUOUS
 62
     7
 10
126.3078771021992
 20
49.838103492884862
 30
0.0
 11
126.3078771021993
 21
40.838103492884841
 31
0.0
  0
LINE
  5
1845
  8
0
  6
CONTINUOUS
 62
     7
 10
138.0578771021992
 20
57.588103492884919
 30
0.0
 11
138.05787710219909
 21
59.338103492884933
 31
0.0
  0
LINE
  5
1846
  8
0
  6
CONTINUOUS
 62
     7
 10
126.5578771021992
 20
59.338103492884848
 30
0.0
 11
126.5578771021992
 21
57.588103492884848
 31
0.0
  0
LINE
  5
1847
  8
0
  6
CONTINUOUS
 62
     7
 10
137.0578771021992
 20
49.838103492884919
 30
0.0
 11
137.0578771021992
 21
50.338103492884933
 31
0.0
  0
LINE
  5
1848
  8
0
  6
CONTINUOUS
 62
     7
 10
127.5578771021992
 20
50.338103492884862
 30
0.0
 11
127.5578771021992
 21
49.838103492884862
 31
0.0
  0
LINE
  5
1849
  8
0
  6
CONTINUOUS
 62
     7
 10
140.30787710219909
 20
59.338103492884947
 30
0.0
 11
140.30787710219909
 21
71.138103492884952
 31
0.0
  0
LINE
  5
184A
  8
0
  6
CONTINUOUS
 62
     7
 10
124.3078771021991
 20
71.138103492884838
 30
0.0
 11
124.3078771021991
 21
59.338103492884827
 31
0.0
  0
LINE
  5
184B
  8
0
  6
CONTINUOUS
 62
     7
 10
129.30787710219931
 20
40.838103492884862
 30
0.0
 11
129.3078771021994
 21
27.338103492884869
 31
0.0
  0
LINE
  5
184C
  8
0
  6
CONTINUOUS
 62
     7
 10
135.3078771021994
 20
27.338103492884908
 30
0.0
 11
135.30787710219931
 21
40.838103492884912
 31
0.0
  0
LINE
  5
184D
  8
0
  6
CONTINUOUS
 62
     7
 10
137.30787710219909
 20
67.838103492884926
 30
0.0
 11
137.3078771021992
 21
58.338103492884919
 31
0.0
  0
LINE
  5
184E
  8
0
  6
CONTINUOUS
 62
     7
 10
137.3078771021992
 20
58.338103492884919
 30
0.0
 11
127.3078771021992
 21
58.338103492884862
 31
0.0
  0
LINE
  5
184F
  8
0
  6
CONTINUOUS
 62
     7
 10
127.3078771021991
 20
67.838103492884855
 30
0.0
 11
127.3078771021992
 21
58.338103492884862
 31
0.0
  0
LINE
  5
1850
  8
0
  6
CONTINUOUS
 62
     7
 10
137.30787710219909
 20
67.838103492884926
 30
0.0
 11
127.3078771021991
 21
67.838103492884855
 31
0.0
  0
LINE
  5
1851
  8
0
  6
CONTINUOUS
 62
     7
 10
124.5078771021991
 20
71.338103492884827
 30
0.0
 11
140.1078771021991
 21
71.33810349288494
 31
0.0
  0
POLYLINE
  5
1852
  8
0
  6
CONTINUOUS
 62
     7
 66
     1
 10
0.0
 20
0.0
 30
0.0
 70
   128
  0
VERTEX
  5
19E1
  8
0
  6
CONTINUOUS
 62
     7
 10
138.80787710319291
 20
71.138103492936693
 30
0.0
  0
VERTEX
  5
19E2
  8
0
  6
CONTINUOUS
 62
     7
 10
138.41600155086249
 20
71.073951975663491
 30
0.0
  0
VERTEX
  5
19E3
  8
0
  6
CONTINUOUS
 62
     7
 10
138.07710046359151
 20
70.882956109622214
 30
0.0
  0
VERTEX
  5
19E4
  8
0
  6
CONTINUOUS
 62
     7
 10
137.75182116153209
 20
70.505656674731853
 30
0.0
  0
VERTEX
  5
19E5
  8
0
  6
CONTINUOUS
 62
     7
 10
137.52092382050449
 20
70.009719609670896
 30
0.0
  0
VERTEX
  5
19E6
  8
0
  6
CONTINUOUS
 62
     7
 10
137.35931582726559
 20
69.317667833681185
 30
0.0
  0
VERTEX
  5
19E7
  8
0
  6
CONTINUOUS
 62
     7
 10
137.30787710219909
 20
68.555098247503054
 30
0.0
  0
SEQEND
  5
19E8
  8
0
  6
CONTINUOUS
 62
     7
  0
POLYLINE
  5
1853
  8
0
  6
CONTINUOUS
 62
     7
 66
     1
 10
0.0
 20
0.0
 30
0.0
 70
   128
  0
VERTEX
  5
19E9
  8
0
  6
CONTINUOUS
 62
     7
 10
127.3078771019441
 20
68.555098247548102
 30
0.0
  0
VERTEX
  5
19EA
  8
0
  6
CONTINUOUS
 62
     7
 10
127.2861319439133
 20
69.060473407913364
 30
0.0
  0
VERTEX
  5
19EB
  8
0
  6
CONTINUOUS
 62
     7
 10
127.21820742448089
 20
69.543859297169575
 30
0.0
  0
VERTEX
  5
19EC
  8
0
  6
CONTINUOUS
 62
     7
 10
127.09561766236131
 20
70.007768899012419
 30
0.0
  0
VERTEX
  5
19ED
  8
0
  6
CONTINUOUS
 62
     7
 10
126.91226082603011
 20
70.423977351378184
 30
0.0
  0
VERTEX
  5
19EE
  8
0
  6
CONTINUOUS
 62
     7
 10
126.6804113106853
 20
70.749007799064259
 30
0.0
  0
VERTEX
  5
19EF
  8
0
  6
CONTINUOUS
 62
     7
 10
126.3749807438484
 20
70.99463881208618
 30
0.0
  0
VERTEX
  5
19F0
  8
0
  6
CONTINUOUS
 62
     7
 10
126.1122245584715
 20
71.100569676553235
 30
0.0
  0
VERTEX
  5
19F1
  8
0
  6
CONTINUOUS
 62
     7
 10
125.8078771004899
 20
71.138103492936622
 30
0.0
  0
SEQEND
  5
19F2
  8
0
  6
CONTINUOUS
 62
     7
  0
LINE
  5
1854
  8
0
  6
CONTINUOUS
 62
     7
 10
125.8078771015162
 20
71.138103493134878
 30
0.0
 11
124.3078771021991
 21
71.138103492884838
 31
0.0
  0
LINE
  5
1855
  8
0
  6
CONTINUOUS
 62
     7
 10
140.30787710219909
 20
71.138103492884952
 30
0.0
 11
138.8078771037336
 21
71.138103493160841
 31
0.0
  0
LINE
  5
1856
  8
0
  6
CONTINUOUS
 62
     7
 10
127.3078771019441
 20
68.555098247548102
 30
0.0
 11
127.3078771021991
 21
67.838103492884855
 31
0.0
  0
LINE
  5
1857
  8
0
  6
CONTINUOUS
 62
     7
 10
137.30787710219909
 20
67.838103492884926
 30
0.0
 11
137.30787710219909
 21
68.55509824750942
 31
0.0
  0
LINE
  5
1858
  8
0
  6
CONTINUOUS
 62
     7
 10
125.8078771015162
 20
71.138103493134878
 30
0.0
 11
125.8078771013342
 21
59.338103492884848
 31
0.0
  0
LINE
  5
1859
  8
0
  6
CONTINUOUS
 62
     7
 10
125.8078771013342
 20
59.338103492884848
 30
0.0
 11
127.30787710546321
 21
59.338103492884848
 31
0.0
  0
LINE
  5
185A
  8
0
  6
CONTINUOUS
 62
     7
 10
138.80787710324731
 20
59.33810349288494
 30
0.0
 11
138.8078771037336
 21
71.138103493160841
 31
0.0
  0
LINE
  5
185B
  8
0
  6
CONTINUOUS
 62
     7
 10
137.30787709893511
 20
59.338103492884933
 30
0.0
 11
138.80787710324731
 21
59.33810349288494
 31
0.0
  0
LINE
  5
185C
  8
0
  6
CONTINUOUS
 62
     7
 10
126.9328771021992
 20
50.338103492884862
 30
0.0
 11
137.68287710092051
 21
50.338103492884933
 31
0.0
  0
LINE
  5
185D
  8
0
  6
CONTINUOUS
 62
     7
 10
138.3078771021992
 20
57.33810349288489
 30
0.0
 11
126.3078771021992
 21
57.338103492884848
 31
0.0
  0
LINE
  5
185E
  8
0
  6
CONTINUOUS
 62
     7
 10
138.3078771021992
 20
51.838103492884933
 30
0.0
 11
126.3078771021992
 21
51.838103492884848
 31
0.0
  0
LINE
  5
185F
  8
0
  6
CONTINUOUS
 62
     7
 10
138.0578771021992
 20
57.588103492884919
 30
0.0
 11
126.5578771021992
 21
57.588103492884848
 31
0.0
  0
LINE
  5
1860
  8
0
  6
CONTINUOUS
 62
     7
 10
138.30787710219931
 20
40.838103492884919
 30
0.0
 11
126.3078771021993
 21
40.838103492884841
 31
0.0
  0
LINE
  5
1861
  8
0
  6
CONTINUOUS
 62
     7
 10
126.3078771021992
 20
49.838103492884862
 30
0.0
 11
138.3078771021992
 21
49.838103492884933
 31
0.0
  0
LINE
  5
1862
  8
0
  6
CONTINUOUS
 62
     7
 10
125.8078771013342
 20
59.338103492884848
 30
0.0
 11
124.3078771021991
 21
59.338103492884827
 31
0.0
  0
LINE
  5
1863
  8
0
  6
CONTINUOUS
 62
     7
 10
140.30787710219909
 20
59.338103492884947
 30
0.0
 11
138.80787710324731
 21
59.33810349288494
 31
0.0
  0
LINE
  5
1864
  8
0
  6
CONTINUOUS
 62
     7
 10
135.3078771021994
 20
27.338103492884908
 30
0.0
 11
129.3078771021994
 21
27.338103492884869
 31
0.0
  0
LINE
  5
1865
  8
1
 10
132.307877102199
 20
76.338103492884898
 30
0.0
 11
132.3078771021994
 21
22.33810349288489
 31
0.0
  0
LINE
  5
1866
  8
0
  6
CONTINUOUS
 62
     7
 10
43.731031047865457
 20
59.33810349288489
 30
0.0
 11
43.731031047865457
 21
71.138103492884895
 31
0.0
  0
LINE
  5
1867
  8
0
  6
CONTINUOUS
 62
     7
 10
27.731031047865461
 20
71.138103492884895
 30
0.0
 11
27.731031047865461
 21
59.33810349288489
 31
0.0
  0
LINE
  5
1868
  8
0
  6
CONTINUOUS
 62
     7
 10
43.731031047865457
 20
71.138103492884895
 30
0.0
 11
43.531031047865469
 21
71.338103492884883
 31
0.0
  0
LINE
  5
1869
  8
0
  6
CONTINUOUS
 62
     7
 10
27.93103104786546
 20
71.338103492884883
 30
0.0
 11
27.731031047865461
 21
71.138103492884895
 31
0.0
  0
POLYLINE
  5
186A
  8
0
  6
CONTINUOUS
 62
     7
 66
     1
 10
0.0
 20
0.0
 30
0.0
 70
   128
  0
VERTEX
  5
19F3
  8
0
  6
CONTINUOUS
 62
     7
 10
30.356031047865471
 20
51.83810349288489
 30
0.0
  0
VERTEX
  5
19F4
  8
0
  6
CONTINUOUS
 62
     7
 10
30.243326129832681
 20
51.825808410917674
 30
0.0
  0
VERTEX
  5
19F5
  8
0
  6
CONTINUOUS
 62
     7
 10
30.115646432480851
 20
51.780411185192577
 30
0.0
  0
VERTEX
  5
19F6
  8
0
  6
CONTINUOUS
 62
     7
 10
29.981031047865471
 20
51.688103492884892
 30
0.0
  0
VERTEX
  5
19F7
  8
0
  6
CONTINUOUS
 62
     7
 10
29.856031047865471
 20
51.538103492884879
 30
0.0
  0
VERTEX
  5
19F8
  8
0
  6
CONTINUOUS
 62
     7
 10
29.76481483164925
 20
51.331346736128133
 30
0.0
  0
VERTEX
  5
19F9
  8
0
  6
CONTINUOUS
 62
     7
 10
29.731031047865471
 20
51.08810349288489
 30
0.0
  0
VERTEX
  5
19FA
  8
0
  6
CONTINUOUS
 62
     7
 10
29.76481483164925
 20
50.844860249641648
 30
0.0
  0
VERTEX
  5
19FB
  8
0
  6
CONTINUOUS
 62
     7
 10
29.856031047865471
 20
50.638103492884881
 30
0.0
  0
VERTEX
  5
19FC
  8
0
  6
CONTINUOUS
 62
     7
 10
29.981031047865471
 20
50.488103492884889
 30
0.0
  0
VERTEX
  5
19FD
  8
0
  6
CONTINUOUS
 62
     7
 10
30.115646432480851
 20
50.39579580057719
 30
0.0
  0
VERTEX
  5
19FE
  8
0
  6
CONTINUOUS
 62
     7
 10
30.243326129832681
 20
50.3503985748521
 30
0.0
  0
VERTEX
  5
19FF
  8
0
  6
CONTINUOUS
 62
     7
 10
30.356031047865471
 20
50.338103492884898
 30
0.0
  0
SEQEND
  5
1A00
  8
0
  6
CONTINUOUS
 62
     7
  0
POLYLINE
  5
186B
  8
0
  6
CONTINUOUS
 62
     7
 66
     1
 10
0.0
 20
0.0
 30
0.0
 70
   128
  0
VERTEX
  5
1A01
  8
0
  6
CONTINUOUS
 62
     7
 10
41.106031047865457
 20
50.338103492884898
 30
0.0
  0
VERTEX
  5
1A02
  8
0
  6
CONTINUOUS
 62
     7
 10
41.21873596589824
 20
50.3503985748521
 30
0.0
  0
VERTEX
  5
1A03
  8
0
  6
CONTINUOUS
 62
     7
 10
41.346415663250077
 20
50.39579580057719
 30
0.0
  0
VERTEX
  5
1A04
  8
0
  6
CONTINUOUS
 62
     7
 10
41.481031047865457
 20
50.488103492884889
 30
0.0
  0
VERTEX
  5
1A05
  8
0
  6
CONTINUOUS
 62
     7
 10
41.606031047865457
 20
50.638103492884881
 30
0.0
  0
VERTEX
  5
1A06
  8
0
  6
CONTINUOUS
 62
     7
 10
41.697247264081682
 20
50.844860249641648
 30
0.0
  0
VERTEX
  5
1A07
  8
0
  6
CONTINUOUS
 62
     7
 10
41.731031047865457
 20
51.08810349288489
 30
0.0
  0
VERTEX
  5
1A08
  8
0
  6
CONTINUOUS
 62
     7
 10
41.697247264081682
 20
51.331346736128133
 30
0.0
  0
VERTEX
  5
1A09
  8
0
  6
CONTINUOUS
 62
     7
 10
41.606031047865457
 20
51.538103492884879
 30
0.0
  0
VERTEX
  5
1A0A
  8
0
  6
CONTINUOUS
 62
     7
 10
41.481031047865457
 20
51.688103492884892
 30
0.0
  0
VERTEX
  5
1A0B
  8
0
  6
CONTINUOUS
 62
     7
 10
41.34641566325007
 20
51.780411185192577
 30
0.0
  0
VERTEX
  5
1A0C
  8
0
  6
CONTINUOUS
 62
     7
 10
41.21873596589824
 20
51.825808410917674
 30
0.0
  0
VERTEX
  5
1A0D
  8
0
  6
CONTINUOUS
 62
     7
 10
41.106031047865457
 20
51.83810349288489
 30
0.0
  0
SEQEND
  5
1A0E
  8
0
  6
CONTINUOUS
 62
     7
  0
LINE
  5
186C
  8
0
  6
CONTINUOUS
 62
     7
 10
41.731031047865457
 20
51.83810349288489
 30
0.0
 11
41.731031047865457
 21
57.33810349288489
 31
0.0
  0
LINE
  5
186D
  8
0
  6
CONTINUOUS
 62
     7
 10
29.731031047865471
 20
57.338103492884848
 30
0.0
 11
29.731031047865471
 21
51.83810349288489
 31
0.0
  0
LINE
  5
186E
  8
0
  6
CONTINUOUS
 62
     7
 10
41.731031047865457
 20
40.838103492884883
 30
0.0
 11
41.731031047865457
 21
49.83810349288489
 31
0.0
  0
LINE
  5
186F
  8
0
  6
CONTINUOUS
 62
     7
 10
29.731031047865471
 20
49.83810349288489
 30
0.0
 11
29.731031047865471
 21
40.838103492884883
 31
0.0
  0
LINE
  5
1870
  8
0
  6
CONTINUOUS
 62
     7
 10
41.731031047865457
 20
57.33810349288489
 30
0.0
 11
41.481031047865457
 21
57.58810349288489
 31
0.0
  0
LINE
  5
1871
  8
0
  6
CONTINUOUS
 62
     7
 10
29.981031047865471
 20
57.58810349288489
 30
0.0
 11
29.731031047865471
 21
57.338103492884848
 31
0.0
  0
LINE
  5
1872
  8
0
  6
CONTINUOUS
 62
     7
 10
41.481031047865457
 20
57.58810349288489
 30
0.0
 11
41.481031047865457
 21
59.33810349288489
 31
0.0
  0
LINE
  5
1873
  8
0
  6
CONTINUOUS
 62
     7
 10
29.981031047865471
 20
59.33810349288489
 30
0.0
 11
29.981031047865471
 21
57.58810349288489
 31
0.0
  0
LINE
  5
1874
  8
0
  6
CONTINUOUS
 62
     7
 10
40.481031047865457
 20
49.83810349288489
 30
0.0
 11
40.481031047865457
 21
50.338103492884898
 31
0.0
  0
LINE
  5
1875
  8
0
  6
CONTINUOUS
 62
     7
 10
30.981031047865471
 20
50.338103492884898
 30
0.0
 11
30.981031047865471
 21
49.83810349288489
 31
0.0
  0
LINE
  5
1876
  8
0
  6
CONTINUOUS
 62
     7
 10
32.731031047865457
 20
40.838103492884883
 30
0.0
 11
32.731031047865457
 21
27.33810349288489
 31
0.0
  0
LINE
  5
1877
  8
0
  6
CONTINUOUS
 62
     7
 10
38.731031047865457
 20
27.33810349288489
 30
0.0
 11
38.731031047865457
 21
40.838103492884883
 31
0.0
  0
LINE
  5
1878
  8
0
  6
CONTINUOUS
 62
     7
 10
43.731031047865457
 20
59.33810349288489
 30
0.0
 11
27.731031047865461
 21
59.33810349288489
 31
0.0
  0
LINE
  5
1879
  8
0
  6
CONTINUOUS
 62
     7
 10
43.731031047865457
 20
71.138103492884895
 30
0.0
 11
27.731031047865461
 21
71.138103492884895
 31
0.0
  0
LINE
  5
187A
  8
0
  6
CONTINUOUS
 62
     7
 10
27.93103104786546
 20
71.338103492884883
 30
0.0
 11
43.531031047865469
 21
71.338103492884883
 31
0.0
  0
LINE
  5
187B
  8
0
  6
CONTINUOUS
 62
     7
 10
30.356031049144178
 20
50.338103492884898
 30
0.0
 11
41.106031047865457
 21
50.338103492884898
 31
0.0
  0
LINE
  5
187C
  8
0
  6
CONTINUOUS
 62
     7
 10
41.731031047865457
 20
51.83810349288489
 30
0.0
 11
29.731031047865471
 21
51.83810349288489
 31
0.0
  0
LINE
  5
187D
  8
0
  6
CONTINUOUS
 62
     7
 10
41.731031047865457
 20
57.33810349288489
 30
0.0
 11
29.731031047865471
 21
57.338103492884848
 31
0.0
  0
LINE
  5
187E
  8
0
  6
CONTINUOUS
 62
     7
 10
29.731031047865471
 20
49.83810349288489
 30
0.0
 11
41.731031047865457
 21
49.83810349288489
 31
0.0
  0
LINE
  5
187F
  8
0
  6
CONTINUOUS
 62
     7
 10
41.731031047865457
 20
40.838103492884883
 30
0.0
 11
29.731031047865471
 21
40.838103492884883
 31
0.0
  0
LINE
  5
1880
  8
0
  6
CONTINUOUS
 62
     7
 10
41.481031047865457
 20
57.58810349288489
 30
0.0
 11
29.981031047865471
 21
57.58810349288489
 31
0.0
  0
LINE
  5
1881
  8
0
  6
CONTINUOUS
 62
     7
 10
38.731031047865457
 20
27.33810349288489
 30
0.0
 11
32.731031047865457
 21
27.33810349288489
 31
0.0
  0
LINE
  5
1882
  8
1
 10
35.731031047865457
 20
76.338103492884002
 30
0.0
 11
35.731031047865471
 21
22.338103492884319
 31
0.0
  0
LINE
  5
1887
  8
1
 10
67.010772315705054
 20
97.48408279430798
 30
0.0
 11
107.0107723156533
 21
97.484082794307895
 31
0.0
  0
LINE
  5
1888
  8
1
 10
80.01077231565327
 20
110.4840827942562
 30
0.0
 11
80.01077231565327
 21
84.48408279435975
 31
0.0
  0
LINE
  5
188A
  8
1
 10
97.010772315653284
 20
102.0840827943079
 30
0.0
 11
97.010772315653284
 21
92.884082794307886
 31
0.0
  0
CIRCLE
  5
188B
  8
3
 10
97.010772315653284
 20
97.484082794307895
 30
0.0
 40
2.5
  0
LINE
  5
1891
  8
3
 10
38.189531047865472
 20
27.33810349288489
 30
0.0
 11
38.189531047865472
 21
40.838103492884883
 31
0.0
  0
LINE
  5
1892
  8
3
 10
33.272531047865463
 20
27.33810349288489
 30
0.0
 11
33.272531047865463
 21
40.838103492884883
 31
0.0
  0
LINE
  5
1893
  8
3
 10
82.469272315653214
 20
27.338103492884908
 30
0.0
 11
82.469272315653214
 21
40.838103492884898
 31
0.0
  0
LINE
  5
1894
  8
3
 10
77.552272315653198
 20
27.338103492884908
 30
0.0
 11
77.552272315653198
 21
40.838103492884898
 31
0.0
  0
LINE
  5
1895
  8
3
 10
134.76637710219941
 20
27.33810349288489
 30
0.0
 11
134.76637710219941
 21
40.838103492884883
 31
0.0
  0
LINE
  5
1896
  8
3
 10
129.84937710219941
 20
27.33810349288489
 30
0.0
 11
129.84937710219941
 21
40.838103492884883
 31
0.0
  0
TEXT
  5
1950
  8
0
 62
     3
 10
0.0
 20
0.0
 30
0.0
 40
10.0
  1
BJ132-06022
  7
STANDARD1
  0
ENDSEC
  0
EOF
