  0
SECTION
  2
HEADER
  9
$ACADVER
  1
AC1009
  9
$INSBASE
 10
82.638099999999994
 20
103.82319099999999
 30
0.0
  9
$EXTMIN
 10
0.0
 20
-2.960436562073669
 30
0.0
  9
$EXTMAX
 10
304.0
 20
249.70130651659889
 30
0.0
  9
$LIMMIN
 10
0.0
 20
0.0
  9
$LIMMAX
 10
375.0
 20
270.0
  9
$ORTHOMODE
 70
     1
  9
$REGENMODE
 70
     1
  9
$FILLMODE
 70
     1
  9
$QTEXTMODE
 70
     0
  9
$MIRRTEXT
 70
     0
  9
$DRAGMODE
 70
     2
  9
$LTSCALE
 40
10.0
  9
$OSMODE
 70
  3071
  9
$ATTMODE
 70
     1
  9
$TEXTSIZE
 40
0.06
  9
$TRACEWID
 40
0.05
  9
$TEXTSTYLE
  7
STANDARD
  9
$CLAYER
  8
0
  9
$CELTYPE
  6
BYLAYER
  9
$CECOLOR
 62
   256
  9
$DIMSCALE
 40
1.0
  9
$DIMASZ
 40
3.0
  9
$DIMEXO
 40
2.0
  9
$DIMDLI
 40
10.0
  9
$DIMRND
 40
0.0
  9
$DIMDLE
 40
0.0
  9
$DIMEXE
 40
2.0
  9
$DIMTP
 40
0.0
  9
$DIMTM
 40
0.0
  9
$DIMTXT
 40
3.0
  9
$DIMCEN
 40
0.0
  9
$DIMTSZ
 40
0.0
  9
$DIMTOL
 70
     0
  9
$DIMLIM
 70
     0
  9
$DIMTIH
 70
     0
  9
$DIMTOH
 70
     0
  9
$DIMSE1
 70
     0
  9
$DIMSE2
 70
     0
  9
$DIMTAD
 70
     1
  9
$DIMZIN
 70
     0
  9
$DIMBLK
  1

  9
$DIMASO
 70
     0
  9
$DIMSHO
 70
     0
  9
$DIMPOST
  1

  9
$DIMAPOST
  1

  9
$DIMALT
 70
     0
  9
$DIMALTD
 70
     2
  9
$DIMALTF
 40
25.399999999999999
  9
$DIMLFAC
 40
1.0
  9
$DIMTOFL
 70
     1
  9
$DIMTVP
 40
1.6000000000000001
  9
$DIMTIX
 70
     1
  9
$DIMSOXD
 70
     0
  9
$DIMSAH
 70
     0
  9
$DIMBLK1
  1

  9
$DIMBLK2
  1

  9
$DIMSTYLE
  2
STANDARD
  9
$DIMCLRD
 70
     0
  9
$DIMCLRE
 70
     0
  9
$DIMCLRT
 70
     0
  9
$DIMTFAC
 40
1.0
  9
$DIMGAP
 40
0.09
  9
$LUNITS
 70
     2
  9
$LUPREC
 70
     4
  9
$SKETCHINC
 40
0.1
  9
$FILLETRAD
 40
0.0
  9
$AUNITS
 70
     0
  9
$AUPREC
 70
     4
  9
$MENU
  1
E:\r13\win\SUPPORT\ACAD
  9
$ELEVATION
 40
0.0
  9
$PELEVATION
 40
0.0
  9
$THICKNESS
 40
0.0
  9
$LIMCHECK
 70
     0
  9
$BLIPMODE
 70
     0
  9
$CHAMFERA
 40
0.0
  9
$CHAMFERB
 40
0.0
  9
$SKPOLY
 70
     0
  9
$TDCREATE
 40
2449840.3473726851
  9
$TDUPDATE
 40
2456597.6381669329
  9
$TDINDWG
 40
0.0157627778
  9
$TDUSRTIMER
 40
0.0157627778
  9
$USRTIMER
 70
     1
  9
$ANGBASE
 50
0.0
  9
$ANGDIR
 70
     0
  9
$PDMODE
 70
     1
  9
$PDSIZE
 40
0.0
  9
$PLINEWID
 40
0.0
  9
$COORDS
 70
     1
  9
$SPLFRAME
 70
     0
  9
$SPLINETYPE
 70
     6
  9
$SPLINESEGS
 70
     8
  9
$ATTDIA
 70
     0
  9
$ATTREQ
 70
     1
  9
$HANDLING
 70
     1
  9
$HANDSEED
  5
5DF
  9
$SURFTAB1
 70
     6
  9
$SURFTAB2
 70
     6
  9
$SURFTYPE
 70
     6
  9
$SURFU
 70
     6
  9
$SURFV
 70
     6
  9
$UCSNAME
  2

  9
$UCSORG
 10
0.0
 20
0.0
 30
0.0
  9
$UCSXDIR
 10
1.0
 20
0.0
 30
0.0
  9
$UCSYDIR
 10
0.0
 20
1.0
 30
0.0
  9
$PUCSNAME
  2

  9
$PUCSORG
 10
0.0
 20
0.0
 30
0.0
  9
$PUCSXDIR
 10
1.0
 20
0.0
 30
0.0
  9
$PUCSYDIR
 10
0.0
 20
1.0
 30
0.0
  9
$USERI1
 70
     3
  9
$USERI2
 70
     1
  9
$USERI3
 70
     0
  9
$USERI4
 70
     0
  9
$USERI5
 70
     0
  9
$USERR1
 40
1.0
  9
$USERR2
 40
3.0
  9
$USERR3
 40
3.0
  9
$USERR4
 40
3.0
  9
$USERR5
 40
10.0
  9
$WORLDVIEW
 70
     1
  9
$SHADEDGE
 70
     3
  9
$SHADEDIF
 70
    70
  9
$TILEMODE
 70
     1
  9
$MAXACTVP
 70
    16
  9
$PLIMCHECK
 70
     0
  9
$PEXTMIN
 10
1.0000000000000000E+020
 20
1.0000000000000000E+020
 30
1.0000000000000000E+020
  9
$PEXTMAX
 10
-1.0000000000000000E+020
 20
-1.0000000000000000E+020
 30
-1.0000000000000000E+020
  9
$PLIMMIN
 10
0.0
 20
0.0
  9
$PLIMMAX
 10
12.0
 20
9.0
  9
$UNITMODE
 70
     0
  9
$VISRETAIN
 70
     0
  9
$PLINEGEN
 70
     0
  9
$PSLTSCALE
 70
     0
  0
ENDSEC
  0
SECTION
  2
TABLES
  0
TABLE
  2
VPORT
 70
     1
  0
VPORT
  2
*ACTIVE
 70
     0
 10
0.0
 20
0.0
 11
1.0
 21
1.0
 12
195.0581083320873
 22
133.5127261426681
 13
0.0
 23
0.0
 14
5.0
 24
5.0
 15
10.0
 25
10.0
 16
0.0
 26
0.0
 36
1.0
 17
0.0
 27
0.0
 37
0.0
 40
275.42274993631997
 41
1.831871345029239
 42
50.0
 43
0.0
 44
0.0
 50
0.0
 51
0.0
 71
     0
 72
   100
 73
     1
 74
     0
 75
     0
 76
     0
 77
     0
 78
     0
  0
ENDTAB
  0
TABLE
  2
LTYPE
 70
     4
  0
LTYPE
  2
CONTINUOUS
 70
     0
  3
Solid Line
 72
    65
 73
     0
 40
0.0
  0
LTYPE
  2
CENTER
 70
     0
  3
____ _ ____ _ ____ _ ____ _ ____ _ ____ _ ____
 72
    65
 73
     4
 40
2.0
 49
1.25
 49
-0.25
 49
0.25
 49
-0.25
  0
LTYPE
  2
HIDDEN
 70
     0
  3
__ __ __ __ __ __ __ __ __ __ __ __ __ __ __ __
 72
    65
 73
     2
 40
0.375
 49
0.25
 49
-0.125
  0
LTYPE
  2
PHANTOM2
 70
     0
  3
___ _ _ ___ _ _ ___ _ _ ___ _ _
 72
    65
 73
     6
 40
1.25
 49
0.625
 49
-0.125
 49
0.125
 49
-0.125
 49
0.125
 49
-0.125
  0
ENDTAB
  0
TABLE
  2
LAYER
 70
     4
  0
LAYER
  2
0
 70
     0
 62
     7
  6
CONTINUOUS
  0
LAYER
  2
1
 70
     0
 62
     1
  6
CENTER
  0
LAYER
  2
2
 70
     0
 62
     2
  6
HIDDEN
  0
LAYER
  2
3
 70
     0
 62
     3
  6
CONTINUOUS
  0
ENDTAB
  0
TABLE
  2
STYLE
 70
     2
  0
STYLE
  2
STANDARD
 70
     0
 40
0.0
 41
1.0
 50
0.0
 71
     0
 42
0.06
  3
TXT
  4
BIGFONT
  0
STYLE
  2
STANDARD1
 70
     0
 40
0.0
 41
1.0
 50
0.0
 71
     0
 42
3.0
  3
txt
  4

  0
ENDTAB
  0
TABLE
  2
VIEW
 70
     0
  0
ENDTAB
  0
TABLE
  2
UCS
 70
     0
  0
ENDTAB
  0
TABLE
  2
APPID
 70
     4
  0
APPID
  2
ACAD
 70
     0
  0
APPID
  2
ACAD_EXEMPT_FROM_CAD_STANDARDS
 70
     0
  0
APPID
  2
ACAD_MLEADERVER
 70
     0
  0
APPID
  2
ACAD_NAV_VCDISPLAY
 70
     0
  0
ENDTAB
  0
TABLE
  2
DIMSTYLE
 70
     1
  0
DIMSTYLE
  2
STANDARD
 70
     0
  3

  4

  5

  6

  7

 40
1.0
 41
0.18
 42
0.0625
 43
0.38
 44
0.18
 45
0.0
 46
0.0
 47
0.0
 48
0.0
140
0.18
141
0.09
142
0.0
143
25.399999999999999
144
1.0
145
0.0
146
1.0
147
0.09
 71
     0
 72
     0
 73
     1
 74
     1
 75
     0
 76
     0
 77
     0
 78
     0
170
     0
171
     2
172
     0
173
     0
174
     0
175
     0
176
     0
177
     0
178
     0
  0
ENDTAB
  0
ENDSEC
  0
SECTION
  2
BLOCKS
  0
BLOCK
  8
0
  2
$MODEL_SPACE
 70
     0
 10
0.0
 20
0.0
 30
0.0
  3
$MODEL_SPACE
  1

  0
ENDBLK
  5
20F
  8
0
  0
BLOCK
 67
     1
  8
0
  2
$PAPER_SPACE
 70
     0
 10
0.0
 20
0.0
 30
0.0
  3
$PAPER_SPACE
  1

  0
ENDBLK
  5
20D
 67
     1
  8
0
  0
ENDSEC
  0
SECTION
  2
ENTITIES
  0
ARC
  5
27D
  8
0
 10
96.0
 20
62.381197999999991
 30
0.0
 40
17.33012699999999
 50
69.743841999999916
 51
110.2561580000001
  0
LINE
  5
27E
  8
0
 10
102.0
 20
79.711325000000002
 30
0.0
 11
101.5
 21
80.0
 31
0.0
  0
LINE
  5
27F
  8
0
 10
102.0
 20
70.288674999999998
 30
0.0
 11
101.5
 21
70.0
 31
0.0
  0
ARC
  5
280
  8
0
 10
96.0
 20
87.618802000000002
 30
0.0
 40
17.33012699999999
 50
249.74384199999989
 51
290.25615800000008
  0
LINE
  5
281
  8
0
 10
102.0
 20
79.711325000000002
 30
0.0
 11
102.0
 21
70.288674999999998
 31
0.0
  0
LINE
  5
282
  8
0
 10
90.0
 20
71.360472000000001
 30
0.0
 11
90.0
 21
78.639527999999984
 31
0.0
  0
LINE
  5
283
  8
0
 10
78.0
 20
79.711325000000002
 30
0.0
 11
78.0
 21
70.288674999999998
 31
0.0
  0
ARC
  5
284
  8
0
 10
84.0
 20
87.618802000000002
 30
0.0
 40
17.33012699999999
 50
249.74384199999989
 51
290.25615800000008
  0
LINE
  5
285
  8
0
 10
78.0
 20
70.288674999999998
 30
0.0
 11
78.5
 21
70.0
 31
0.0
  0
LINE
  5
286
  8
0
 10
78.0
 20
79.711325000000002
 30
0.0
 11
78.5
 21
80.0
 31
0.0
  0
ARC
  5
287
  8
0
 10
84.0
 20
62.381197999999991
 30
0.0
 40
17.33012699999999
 50
69.743841999999916
 51
110.2561580000001
  0
LINE
  5
288
  8
0
 10
78.5
 20
80.0
 30
0.0
 11
101.5
 21
80.0
 31
0.0
  0
LINE
  5
28A
  8
1
 10
90.0
 20
181.0
 30
0.0
 11
90.0
 21
38.5
 31
0.0
  0
LINE
  5
28B
  8
0
 10
96.029568000000012
 20
46.0
 30
0.0
 11
98.029567999999998
 21
48.0
 31
0.0
  0
LINE
  5
28C
  8
0
 10
82.029567999999998
 20
169.0
 30
0.0
 11
98.029567999999998
 21
169.0
 31
0.0
  0
LINE
  5
28D
  8
3
 10
83.098506999999998
 20
156.15346199999999
 30
0.0
 11
83.098506999999998
 21
170.068939
 31
0.0
  0
LINE
  5
291
  8
3
 10
96.960627999999986
 20
156.15346199999999
 30
0.0
 11
96.960627999999986
 21
170.068939
 31
0.0
  0
LINE
  5
292
  8
3
 10
96.960627999999986
 20
86.0
 30
0.0
 11
96.960627999999986
 21
80.0
 31
0.0
  0
LINE
  5
293
  8
3
 10
98.059135999999995
 20
87.851457000000011
 30
0.0
 11
96.990195999999983
 21
86.0
 31
0.0
  0
LINE
  5
294
  8
0
 10
82.059135999999995
 20
86.0
 30
0.0
 11
98.059135999999995
 21
86.0
 31
0.0
  0
LINE
  5
295
  8
3
 10
83.098506999999998
 20
86.0
 30
0.0
 11
83.098506999999998
 21
80.0
 31
0.0
  0
LINE
  5
296
  8
3
 10
82.059135999999995
 20
87.851457000000011
 30
0.0
 11
83.128074999999995
 21
86.0
 31
0.0
  0
LINE
  5
297
  8
0
 10
82.029567999999998
 20
48.0
 30
0.0
 11
98.029567999999998
 21
48.0
 31
0.0
  0
LINE
  5
298
  8
0
 10
82.029567999999998
 20
48.0
 30
0.0
 11
84.029567999999998
 21
46.0
 31
0.0
  0
LINE
  5
299
  8
0
 10
82.029567999999998
 20
169.0
 30
0.0
 11
84.029567999999998
 21
171.0
 31
0.0
  0
LINE
  5
29A
  8
0
 10
98.029567999999998
 20
169.0
 30
0.0
 11
96.029568000000012
 21
171.0
 31
0.0
  0
LINE
  5
29B
  8
0
 10
98.029567999999998
 20
169.0
 30
0.0
 11
98.029567999999983
 21
156.15346199999999
 31
0.0
  0
LINE
  5
29C
  8
0
 10
84.029567999999998
 20
171.0
 30
0.0
 11
96.029568000000012
 21
171.0
 31
0.0
  0
LINE
  5
29D
  8
0
 10
82.029567999999998
 20
48.0
 30
0.0
 11
82.029567999999998
 21
70.0
 31
0.0
  0
LINE
  5
29E
  8
0
 10
96.029568000000012
 20
46.0
 30
0.0
 11
84.029567999999998
 21
46.0
 31
0.0
  0
LINE
  5
2A0
  8
0
 10
290.33333299999998
 20
155.40000000000001
 30
0.0
 11
279.66666700000002
 21
155.40000000000001
 31
0.0
  0
LINE
  5
2A1
  8
0
 10
277.0
 20
152.73333299999999
 30
0.0
 11
277.0
 21
129.0
 31
0.0
  0
LINE
  5
2A2
  8
0
 10
277.0
 20
87.140448000000006
 30
0.0
 11
293.0
 21
87.140448000000006
 31
0.0
  0
LINE
  5
2A4
  8
0
 10
293.0
 20
152.73333299999999
 30
0.0
 11
290.33333299999998
 21
155.40000000000001
 31
0.0
  0
LINE
  5
2A5
  8
0
 10
279.66666700000002
 20
155.40000000000001
 30
0.0
 11
277.0
 21
152.73333299999999
 31
0.0
  0
LINE
  5
2A6
  8
0
 10
293.0
 20
152.73333299999999
 30
0.0
 11
277.0
 21
152.73333299999999
 31
0.0
  0
LINE
  5
2A7
  8
0
 10
289.80000000000001
 20
85.292926999999992
 30
0.0
 11
289.80000000000001
 21
85.0
 31
0.0
  0
LINE
  5
2A8
  8
0
 10
293.0
 20
87.140448000000006
 30
0.0
 11
289.80000000000001
 21
85.292926999999992
 31
0.0
  0
LINE
  5
2AA
  8
0
 10
277.0
 20
87.140448000000006
 30
0.0
 11
280.19999999999999
 21
85.292926999999992
 31
0.0
  0
LINE
  5
2AB
  8
0
 10
280.19999999999999
 20
85.292926999999992
 30
0.0
 11
280.19999999999999
 21
85.0
 31
0.0
  0
LINE
  5
2AC
  8
0
 10
280.19999999999999
 20
85.292926999999992
 30
0.0
 11
289.80000000000001
 21
85.292926999999992
 31
0.0
  0
LINE
  5
2AD
  8
3
 10
291.83333299999998
 20
153.90000000000001
 30
0.0
 11
291.83333299999998
 21
129.0
 31
0.0
  0
LINE
  5
2AE
  8
3
 10
278.16666700000002
 20
153.90000000000001
 30
0.0
 11
278.16666700000002
 21
129.0
 31
0.0
  0
LINE
  5
2AF
  8
0
 10
296.0
 20
80.0
 30
0.0
 11
296.0
 21
84.0
 31
0.0
  0
LINE
  5
2B3
  8
0
 10
270.0
 20
77.0
 30
0.0
 11
300.0
 21
77.0
 31
0.0
  0
LINE
  5
2B4
  8
0
 10
274.0
 20
80.0
 30
0.0
 11
274.0
 21
84.0
 31
0.0
  0
LINE
  5
2B5
  8
0
 10
275.0
 20
85.0
 30
0.0
 11
295.0
 21
85.0
 31
0.0
  0
LINE
  5
2B6
  8
0
 10
269.0
 20
71.0
 30
0.0
 11
269.0
 21
76.0
 31
0.0
  0
LINE
  5
2B7
  8
0
 10
300.0
 20
70.0
 30
0.0
 11
270.0
 21
70.0
 31
0.0
  0
LINE
  5
2B9
  8
0
 10
301.0
 20
71.0
 30
0.0
 11
301.0
 21
76.0
 31
0.0
  0
LINE
  5
2BA
  8
0
 10
301.0
 20
71.0
 30
0.0
 11
300.0
 21
70.0
 31
0.0
  0
LINE
  5
2BB
  8
0
 10
301.0
 20
76.0
 30
0.0
 11
300.0
 21
77.0
 31
0.0
  0
LINE
  5
2BC
  8
0
 10
270.0
 20
77.0
 30
0.0
 11
269.0
 21
76.0
 31
0.0
  0
LINE
  5
2BD
  8
0
 10
269.0
 20
71.0
 30
0.0
 11
270.0
 21
70.0
 31
0.0
  0
ARC
  5
2BE
  8
0
 10
271.0
 20
80.0
 30
0.0
 40
3.0
 50
270.0
 51
0.0
  0
ARC
  5
2BF
  8
0
 10
299.0
 20
80.0
 30
0.0
 40
3.0
 50
180.0
 51
270.0
  0
LINE
  5
2C0
  8
0
 10
296.0
 20
84.0
 30
0.0
 11
295.0
 21
85.0
 31
0.0
  0
LINE
  5
2C1
  8
0
 10
274.0
 20
84.0
 30
0.0
 11
275.0
 21
85.0
 31
0.0
  0
LINE
  5
2C2
  8
1
 10
285.0
 20
181.0
 30
0.0
 11
285.0
 21
38.5
 31
0.0
  0
LINE
  5
2C3
  8
0
 10
291.0
 20
46.0
 30
0.0
 11
293.0
 21
48.0
 31
0.0
  0
LINE
  5
2C4
  8
0
 10
277.0
 20
169.0
 30
0.0
 11
293.0
 21
169.0
 31
0.0
  0
LINE
  5
2C5
  8
3
 10
278.068939
 20
156.15346199999999
 30
0.0
 11
278.068939
 21
170.068939
 31
0.0
  0
LINE
  5
2C9
  8
3
 10
291.93106
 20
156.15346199999999
 30
0.0
 11
291.93106
 21
170.068939
 31
0.0
  0
LINE
  5
2CC
  8
0
 10
277.0
 20
86.0
 30
0.0
 11
278.97531373121058
 21
86.000000000000014
 31
0.0
  0
LINE
  5
2CD
  8
3
 10
278.068939
 20
86.0
 30
0.0
 11
278.068939
 21
85.0
 31
0.0
  0
LINE
  5
2CE
  8
3
 10
277.61575170889859
 20
86.784943558445022
 30
0.0
 11
278.068939
 21
86.0
 31
0.0
  0
LINE
  5
2CF
  8
0
 10
277.0
 20
48.0
 30
0.0
 11
293.0
 21
48.0
 31
0.0
  0
LINE
  5
2D0
  8
0
 10
277.0
 20
48.0
 30
0.0
 11
279.0
 21
46.0
 31
0.0
  0
LINE
  5
2D1
  8
0
 10
277.0
 20
169.0
 30
0.0
 11
279.0
 21
171.0
 31
0.0
  0
LINE
  5
2D2
  8
0
 10
293.0
 20
169.0
 30
0.0
 11
291.0
 21
171.0
 31
0.0
  0
LINE
  5
2D3
  8
0
 10
293.0
 20
169.0
 30
0.0
 11
293.0
 21
156.15346199999999
 31
0.0
  0
LINE
  5
2D4
  8
0
 10
279.0
 20
171.0
 30
0.0
 11
291.0
 21
171.0
 31
0.0
  0
LINE
  5
2D5
  8
0
 10
277.0
 20
48.0
 30
0.0
 11
277.0
 21
70.0
 31
0.0
  0
LINE
  5
2D6
  8
0
 10
291.0
 20
46.0
 30
0.0
 11
279.0
 21
46.0
 31
0.0
  0
LINE
  5
2D7
  8
0
 10
196.5
 20
70.0
 30
0.0
 11
173.5
 21
70.0
 31
0.0
  0
LINE
  5
2D8
  8
0
 10
173.5
 20
80.0
 30
0.0
 11
196.5
 21
80.0
 31
0.0
  0
ARC
  5
2D9
  8
0
 10
195.39230499999999
 20
73.577349999999996
 30
0.0
 40
6.1339750000000004
 50
64.384247000000116
 51
124.3842470000001
  0
LINE
  5
2DA
  8
0
 10
198.85640599999999
 20
78.639527999999984
 30
0.0
 11
196.5
 21
80.0
 31
0.0
  0
LINE
  5
2DB
  8
0
 10
198.85640599999999
 20
71.360472000000001
 30
0.0
 11
196.5
 21
70.0
 31
0.0
  0
ARC
  5
2DC
  8
0
 10
195.39230499999999
 20
76.422650000000004
 30
0.0
 40
6.1339750000000004
 50
235.6157529999999
 51
295.61575299999993
  0
LINE
  5
2DD
  8
0
 10
198.85640599999999
 20
78.639527999999984
 30
0.0
 11
198.85640599999999
 21
71.360472000000001
 31
0.0
  0
LINE
  5
2DE
  8
0
 10
191.928203
 20
78.639527999999984
 30
0.0
 11
191.928203
 21
71.360472000000001
 31
0.0
  0
LINE
  5
2DF
  8
0
 10
178.071797
 20
78.639527999999984
 30
0.0
 11
178.071797
 21
71.360472000000001
 31
0.0
  0
LINE
  5
2E0
  8
0
 10
171.14359400000001
 20
78.639527999999984
 30
0.0
 11
171.14359400000001
 21
71.360472000000001
 31
0.0
  0
ARC
  5
2E1
  8
0
 10
185.0
 20
93.216878000000008
 30
0.0
 40
22.928203
 50
252.41204599999941
 51
287.58795400000059
  0
ARC
  5
2E2
  8
0
 10
174.60769500000001
 20
76.422650000000004
 30
0.0
 40
6.1339750000000004
 50
244.3842470000001
 51
304.38424700000007
  0
LINE
  5
2E3
  8
0
 10
171.14359400000001
 20
71.360472000000001
 30
0.0
 11
173.5
 21
70.0
 31
0.0
  0
LINE
  5
2E4
  8
0
 10
171.14359400000001
 20
78.639527999999984
 30
0.0
 11
173.5
 21
80.0
 31
0.0
  0
ARC
  5
2E5
  8
0
 10
174.60769500000001
 20
73.577349999999996
 30
0.0
 40
6.1339750000000004
 50
55.61575299999987
 51
115.6157529999999
  0
ARC
  5
2E6
  8
0
 10
185.0
 20
56.783121999999999
 30
0.0
 40
22.928203
 50
72.412045999999393
 51
107.58795400000059
  0
LINE
  5
2E7
  8
1
 10
185.0
 20
181.0
 30
0.0
 11
185.0
 21
38.5
 31
0.0
  0
LINE
  5
2E8
  8
0
 10
191.02956800000001
 20
46.0
 30
0.0
 11
193.02956800000001
 21
48.0
 31
0.0
  0
LINE
  5
2E9
  8
0
 10
177.02956800000001
 20
169.0
 30
0.0
 11
193.02956800000001
 21
169.0
 31
0.0
  0
LINE
  5
2EA
  8
3
 10
178.09850700000001
 20
156.15346199999999
 30
0.0
 11
178.09850700000001
 21
170.068939
 31
0.0
  0
LINE
  5
2EE
  8
3
 10
191.96062800000001
 20
156.15346199999999
 30
0.0
 11
191.96062800000001
 21
170.068939
 31
0.0
  0
LINE
  5
2EF
  8
3
 10
191.96062800000001
 20
86.0
 30
0.0
 11
191.96062800000001
 21
80.0
 31
0.0
  0
LINE
  5
2F0
  8
3
 10
193.059136
 20
87.851457000000011
 30
0.0
 11
191.990196
 21
86.0
 31
0.0
  0
LINE
  5
2F1
  8
0
 10
177.059136
 20
86.0
 30
0.0
 11
193.059136
 21
86.0
 31
0.0
  0
LINE
  5
2F2
  8
3
 10
178.09850700000001
 20
86.0
 30
0.0
 11
178.09850700000001
 21
80.0
 31
0.0
  0
LINE
  5
2F3
  8
3
 10
177.059136
 20
87.851457000000011
 30
0.0
 11
178.128075
 21
86.0
 31
0.0
  0
LINE
  5
2F4
  8
0
 10
177.02956800000001
 20
48.0
 30
0.0
 11
193.02956800000001
 21
48.0
 31
0.0
  0
LINE
  5
2F5
  8
0
 10
177.02956800000001
 20
48.0
 30
0.0
 11
179.02956800000001
 21
46.0
 31
0.0
  0
LINE
  5
2F6
  8
0
 10
177.02956800000001
 20
169.0
 30
0.0
 11
179.02956800000001
 21
171.0
 31
0.0
  0
LINE
  5
2F7
  8
0
 10
193.02956800000001
 20
169.0
 30
0.0
 11
191.02956800000001
 21
171.0
 31
0.0
  0
LINE
  5
2F8
  8
0
 10
193.02956800000001
 20
169.0
 30
0.0
 11
193.02956800000001
 21
156.15346199999999
 31
0.0
  0
LINE
  5
2F9
  8
0
 10
179.02956800000001
 20
171.0
 30
0.0
 11
191.02956800000001
 21
171.0
 31
0.0
  0
LINE
  5
2FA
  8
0
 10
177.02956800000001
 20
48.0
 30
0.0
 11
177.02956800000001
 21
70.0
 31
0.0
  0
LINE
  5
2FB
  8
0
 10
191.02956800000001
 20
46.0
 30
0.0
 11
179.02956800000001
 21
46.0
 31
0.0
  0
LINE
  5
2FC
  8
1
 10
215.0
 20
164.156091
 30
0.0
 11
215.0
 21
64.757776000000007
 31
0.0
  0
LINE
  5
2FD
  8
0
 10
220.33333300000001
 20
155.40000000000001
 30
0.0
 11
209.66666699999999
 21
155.40000000000001
 31
0.0
  0
LINE
  5
2FE
  8
0
 10
207.0
 20
152.73333299999999
 30
0.0
 11
207.0
 21
129.0
 31
0.0
  0
LINE
  5
2FF
  8
0
 10
207.0
 20
87.140448000000006
 30
0.0
 11
223.0
 21
87.140448000000006
 31
0.0
  0
LINE
  5
300
  8
0
 10
223.0
 20
87.140448000000006
 30
0.0
 11
223.0
 21
110.0
 31
0.0
  0
LINE
  5
301
  8
0
 10
223.0
 20
152.73333299999999
 30
0.0
 11
220.33333300000001
 21
155.40000000000001
 31
0.0
  0
LINE
  5
302
  8
0
 10
209.66666699999999
 20
155.40000000000001
 30
0.0
 11
207.0
 21
152.73333299999999
 31
0.0
  0
LINE
  5
303
  8
0
 10
223.0
 20
152.73333299999999
 30
0.0
 11
207.0
 21
152.73333299999999
 31
0.0
  0
LINE
  5
304
  8
0
 10
219.80000000000001
 20
85.292926999999992
 30
0.0
 11
219.80000000000001
 21
85.0
 31
0.0
  0
LINE
  5
305
  8
0
 10
223.0
 20
87.140448000000006
 30
0.0
 11
219.80000000000001
 21
85.292926999999992
 31
0.0
  0
LINE
  5
306
  8
0
 10
219.80000000000001
 20
85.292926999999992
 30
0.0
 11
210.19999999999999
 21
85.292926999999992
 31
0.0
  0
LINE
  5
307
  8
0
 10
207.0
 20
87.140448000000006
 30
0.0
 11
210.19999999999999
 21
85.292926999999992
 31
0.0
  0
LINE
  5
308
  8
0
 10
210.19999999999999
 20
85.292926999999992
 30
0.0
 11
210.19999999999999
 21
85.0
 31
0.0
  0
LINE
  5
30A
  8
3
 10
221.83333300000001
 20
153.90000000000001
 30
0.0
 11
221.83333300000001
 21
129.0
 31
0.0
  0
LINE
  5
30B
  8
3
 10
208.16666699999999
 20
153.90000000000001
 30
0.0
 11
208.16666699999999
 21
129.0
 31
0.0
  0
LINE
  5
30C
  8
0
 10
226.0
 20
80.0
 30
0.0
 11
226.0
 21
84.0
 31
0.0
  0
LINE
  5
30D
  8
0
 10
200.0
 20
70.0
 30
0.0
 11
230.0
 21
70.0
 31
0.0
  0
LINE
  5
30E
  8
0
 10
225.0
 20
85.0
 30
0.0
 11
205.0
 21
85.0
 31
0.0
  0
LINE
  5
30F
  8
0
 10
230.0
 20
77.0
 30
0.0
 11
200.0
 21
77.0
 31
0.0
  0
LINE
  5
311
  8
0
 10
204.0
 20
80.0
 30
0.0
 11
204.0
 21
84.0
 31
0.0
  0
LINE
  5
313
  8
0
 10
199.0
 20
71.0
 30
0.0
 11
199.0
 21
76.0
 31
0.0
  0
LINE
  5
316
  8
0
 10
231.0
 20
71.0
 30
0.0
 11
231.0
 21
76.0
 31
0.0
  0
LINE
  5
317
  8
0
 10
231.0
 20
71.0
 30
0.0
 11
230.0
 21
70.0
 31
0.0
  0
LINE
  5
318
  8
0
 10
231.0
 20
76.0
 30
0.0
 11
230.0
 21
77.0
 31
0.0
  0
LINE
  5
319
  8
0
 10
200.0
 20
77.0
 30
0.0
 11
199.0
 21
76.0
 31
0.0
  0
LINE
  5
31A
  8
0
 10
199.0
 20
71.0
 30
0.0
 11
200.0
 21
70.0
 31
0.0
  0
ARC
  5
31B
  8
0
 10
201.0
 20
80.0
 30
0.0
 40
3.0
 50
270.0
 51
0.0
  0
ARC
  5
31C
  8
0
 10
229.0
 20
80.0
 30
0.0
 40
3.0
 50
180.0
 51
270.0
  0
LINE
  5
31D
  8
0
 10
226.0
 20
84.0
 30
0.0
 11
225.0
 21
85.0
 31
0.0
  0
LINE
  5
31E
  8
0
 10
204.0
 20
84.0
 30
0.0
 11
205.0
 21
85.0
 31
0.0
  0
CIRCLE
  5
321
  8
3
 10
185.0
 20
225.701306516599
 30
0.0
 40
7.0
  0
CIRCLE
  5
322
  8
0
 10
185.0
 20
225.701306516599
 30
0.0
 40
8.0
  0
LINE
  5
323
  8
0
 10
198.59230500000001
 20
225.24386951659889
 30
0.0
 11
192.192305
 21
214.15874351659889
 31
0.0
  0
ARC
  5
324
  8
0
 10
185.0
 20
225.701306516599
 30
0.0
 40
13.6
 50
358.07248700000048
 51
1.9275129999994161
  0
ARC
  5
325
  8
0
 10
185.0
 20
225.701306516599
 30
0.0
 40
13.6
 50
58.072487000000528
 51
61.927513000000502
  0
LINE
  5
326
  8
0
 10
192.192305
 20
237.24386951659889
 30
0.0
 11
198.59230500000001
 21
226.15874351659889
 31
0.0
  0
ARC
  5
327
  8
0
 10
185.0
 20
225.701306516599
 30
0.0
 40
13.6
 50
118.0724869999994
 51
121.92751299999939
  0
LINE
  5
328
  8
0
 10
178.59999999999999
 20
237.70130651659889
 30
0.0
 11
191.40000000000001
 21
237.70130651659889
 31
0.0
  0
ARC
  5
329
  8
0
 10
185.0
 20
225.701306516599
 30
0.0
 40
13.6
 50
178.07248700000059
 51
181.92751299999941
  0
LINE
  5
32A
  8
0
 10
171.40769499999999
 20
226.15874351659889
 30
0.0
 11
177.807695
 21
237.24386951659889
 31
0.0
  0
ARC
  5
32B
  8
0
 10
185.0
 20
225.701306516599
 30
0.0
 40
13.6
 50
238.07248700000051
 51
241.92751300000049
  0
LINE
  5
32C
  8
0
 10
177.807695
 20
214.15874351659889
 30
0.0
 11
171.40769499999999
 21
225.24386951659889
 31
0.0
  0
ARC
  5
32D
  8
0
 10
185.0
 20
225.701306516599
 30
0.0
 40
13.6
 50
298.0724869999994
 51
301.92751299999952
  0
LINE
  5
32E
  8
0
 10
191.40000000000001
 20
213.70130651659889
 30
0.0
 11
178.59999999999999
 21
213.70130651659889
 31
0.0
  0
CIRCLE
  5
32F
  8
0
 10
185.0
 20
225.701306516599
 30
0.0
 40
16.0
  0
CIRCLE
  5
330
  8
0
 10
185.0
 20
225.701306516599
 30
0.0
 40
11.5
  0
LINE
  5
332
  8
1
 10
185.0
 20
201.70130651659889
 30
0.0
 11
185.0
 21
249.70130651659889
 31
0.0
  0
LINE
  5
333
  8
0
 10
162.12435600000001
 20
129.0
 30
0.0
 11
162.12435600000001
 21
110.0
 31
0.0
  0
LINE
  5
334
  8
0
 10
151.0
 20
110.0
 30
0.0
 11
150.0
 21
111.0
 31
0.0
  0
LINE
  5
335
  8
0
 10
230.0
 20
111.0
 30
0.0
 11
229.0
 21
110.0
 31
0.0
  0
LINE
  5
336
  8
0
 10
229.0
 20
129.0
 30
0.0
 11
230.0
 21
128.0
 31
0.0
  0
LINE
  5
337
  8
2
 10
223.0
 20
115.0
 30
0.0
 11
223.0
 21
129.0
 31
0.0
  0
LINE
  5
338
  8
2
 10
221.91749999999999
 20
115.0
 30
0.0
 11
221.91749999999999
 21
129.0
 31
0.0
  0
LINE
  5
339
  8
2
 10
208.08250000000001
 20
115.0
 30
0.0
 11
208.08250000000001
 21
129.0
 31
0.0
  0
LINE
  5
33A
  8
2
 10
207.0
 20
115.0
 30
0.0
 11
207.0
 21
129.0
 31
0.0
  0
LINE
  5
33B
  8
2
 10
193.5
 20
115.0
 30
0.0
 11
193.5
 21
129.0
 31
0.0
  0
LINE
  5
33C
  8
2
 10
159.5
 20
110.0
 30
0.0
 11
159.5
 21
129.0
 31
0.0
  0
LINE
  5
33D
  8
1
 10
168.0
 20
105.0
 30
0.0
 11
168.0
 21
134.01878500000001
 31
0.0
  0
LINE
  5
340
  8
0
 10
150.0
 20
124.0
 30
0.0
 11
158.66025400000001
 21
129.0
 31
0.0
  0
LINE
  5
341
  8
2
 10
230.0
 20
115.0
 30
0.0
 11
185.0
 21
115.0
 31
0.0
  0
LINE
  5
342
  8
0
 10
230.0
 20
128.0
 30
0.0
 11
230.0
 21
111.0
 31
0.0
  0
LINE
  5
343
  8
0
 10
158.66025400000001
 20
129.0
 30
0.0
 11
229.0
 21
129.0
 31
0.0
  0
LINE
  5
344
  8
0
 10
150.0
 20
111.0
 30
0.0
 11
150.0
 21
124.0
 31
0.0
  0
LINE
  5
345
  8
0
 10
229.0
 20
110.0
 30
0.0
 11
151.0
 21
110.0
 31
0.0
  0
LINE
  5
348
  8
0
 10
102.0
 20
124.0
 30
0.0
 11
107.0
 21
129.0
 31
0.0
  0
LINE
  5
349
  8
0
 10
78.0
 20
124.0
 30
0.0
 11
73.0
 21
129.0
 31
0.0
  0
LINE
  5
34A
  8
0
 10
102.0
 20
124.0
 30
0.0
 11
102.0
 21
110.0
 31
0.0
  0
LINE
  5
34B
  8
0
 10
78.0
 20
124.0
 30
0.0
 11
78.0
 21
110.0
 31
0.0
  0
LINE
  5
34C
  8
0
 10
109.0
 20
128.0
 30
0.0
 11
109.0
 21
111.0
 31
0.0
  0
LINE
  5
34D
  8
0
 10
108.0
 20
110.0
 30
0.0
 11
72.0
 21
110.0
 31
0.0
  0
LINE
  5
34E
  8
0
 10
71.0
 20
111.0
 30
0.0
 11
71.0
 21
128.0
 31
0.0
  0
LINE
  5
34F
  8
0
 10
72.0
 20
129.0
 30
0.0
 11
108.0
 21
129.0
 31
0.0
  0
LINE
  5
351
  8
0
 10
78.0
 20
124.0
 30
0.0
 11
102.0
 21
124.0
 31
0.0
  0
LINE
  5
352
  8
0
 10
72.0
 20
110.0
 30
0.0
 11
71.0
 21
111.0
 31
0.0
  0
LINE
  5
353
  8
0
 10
108.0
 20
110.0
 30
0.0
 11
109.0
 21
111.0
 31
0.0
  0
LINE
  5
354
  8
0
 10
109.0
 20
128.0
 30
0.0
 11
108.0
 21
129.0
 31
0.0
  0
LINE
  5
355
  8
0
 10
72.0
 20
129.0
 30
0.0
 11
71.0
 21
128.0
 31
0.0
  0
LINE
  5
358
  8
0
 10
266.0
 20
111.0
 30
0.0
 11
266.0
 21
128.0
 31
0.0
  0
LINE
  5
359
  8
0
 10
267.0
 20
129.0
 30
0.0
 11
303.0
 21
129.0
 31
0.0
  0
LINE
  5
35A
  8
0
 10
304.0
 20
128.0
 30
0.0
 11
304.0
 21
111.0
 31
0.0
  0
LINE
  5
35B
  8
0
 10
303.0
 20
110.0
 30
0.0
 11
267.0
 21
110.0
 31
0.0
  0
LINE
  5
35D
  8
0
 10
293.5
 20
115.0
 30
0.0
 11
276.5
 21
115.0
 31
0.0
  0
LINE
  5
35E
  8
0
 10
276.5
 20
115.0
 30
0.0
 11
276.5
 21
110.0
 31
0.0
  0
LINE
  5
35F
  8
0
 10
293.5
 20
115.0
 30
0.0
 11
293.5
 21
110.0
 31
0.0
  0
LINE
  5
361
  8
0
 10
303.0
 20
129.0
 30
0.0
 11
304.0
 21
128.0
 31
0.0
  0
LINE
  5
362
  8
0
 10
267.0
 20
129.0
 30
0.0
 11
266.0
 21
128.0
 31
0.0
  0
LINE
  5
363
  8
0
 10
266.0
 20
111.0
 30
0.0
 11
267.0
 21
110.0
 31
0.0
  0
LINE
  5
364
  8
0
 10
303.0
 20
110.0
 30
0.0
 11
304.0
 21
111.0
 31
0.0
  0
LINE
  5
365
  8
0
 10
158.66025400000001
 20
208.701306516599
 30
0.0
 11
158.66025400000001
 21
242.701306516599
 31
0.0
  0
LINE
  5
366
  8
0
 10
230.0
 20
242.701306516599
 30
0.0
 11
228.0
 21
244.701306516599
 31
0.0
  0
LINE
  5
367
  8
0
 10
230.0
 20
208.701306516599
 30
0.0
 11
228.0
 21
206.701306516599
 31
0.0
  0
LINE
  5
368
  8
2
 10
171.44455828827401
 20
234.201306516599
 30
0.0
 11
230.0
 21
234.201306516599
 31
0.0
  0
LINE
  5
369
  8
2
 10
171.44455828827401
 20
217.201306516599
 30
0.0
 11
230.0
 21
217.201306516599
 31
0.0
  0
LINE
  5
36A
  8
0
 10
150.0
 20
237.70130651659889
 30
0.0
 11
162.12435600000001
 21
244.701306516599
 31
0.0
  0
LINE
  5
36B
  8
0
 10
171.44455828827401
 20
234.201306516599
 30
0.0
 11
168.0
 21
234.201306516599
 31
0.0
  0
LINE
  5
36C
  8
0
 10
171.44455828827401
 20
217.201306516599
 30
0.0
 11
168.0
 21
217.201306516599
 31
0.0
  0
ARC
  5
36E
  8
0
 10
168.0
 20
225.701306516599
 30
0.0
 40
8.5
 50
90.0
 51
270.0
  0
ARC
  5
36F
  8
2
 10
185.0
 20
225.701306516599
 30
0.0
 40
8.5
 50
270.0
 51
90.0
  0
LINE
  5
370
  8
1
 10
240.0
 20
225.701306516599
 30
0.0
 11
140.0
 21
225.701306516599
 31
0.0
  0
LINE
  5
371
  8
1
 10
168.0
 20
211.97608651659891
 30
0.0
 11
168.0
 21
239.98667851659889
 31
0.0
  0
LINE
  5
374
  8
0
 10
150.0
 20
213.70130651659889
 30
0.0
 11
162.12435600000001
 21
206.701306516599
 31
0.0
  0
LINE
  5
375
  8
0
 10
230.0
 20
242.701306516599
 30
0.0
 11
230.0
 21
208.701306516599
 31
0.0
  0
LINE
  5
376
  8
0
 10
162.12435600000001
 20
244.701306516599
 30
0.0
 11
228.0
 21
244.701306516599
 31
0.0
  0
LINE
  5
377
  8
0
 10
150.0
 20
213.70130651659889
 30
0.0
 11
150.0
 21
237.70130651659889
 31
0.0
  0
LINE
  5
378
  8
0
 10
228.0
 20
206.701306516599
 30
0.0
 11
162.12435600000001
 21
206.701306516599
 31
0.0
  0
LINE
  5
37A
  8
0
 10
212.69059899999999
 20
221.701306516599
 30
0.0
 11
217.30940100000001
 21
221.701306516599
 31
0.0
  0
LINE
  5
37B
  8
0
 10
217.30940100000001
 20
221.701306516599
 30
0.0
 11
219.61880199999999
 21
225.701306516599
 31
0.0
  0
LINE
  5
37C
  8
0
 10
219.61880199999999
 20
225.701306516599
 30
0.0
 11
217.30940100000001
 21
229.701306516599
 31
0.0
  0
LINE
  5
37D
  8
0
 10
217.30940100000001
 20
229.701306516599
 30
0.0
 11
212.69059899999999
 21
229.701306516599
 31
0.0
  0
LINE
  5
37E
  8
0
 10
212.69059899999999
 20
229.701306516599
 30
0.0
 11
210.38119800000001
 21
225.701306516599
 31
0.0
  0
LINE
  5
37F
  8
0
 10
210.38119800000001
 20
225.701306516599
 30
0.0
 11
212.69059899999999
 21
221.701306516599
 31
0.0
  0
CIRCLE
  5
380
  8
0
 10
215.0
 20
225.701306516599
 30
0.0
 40
8.0
  0
CIRCLE
  5
381
  8
3
 10
215.0
 20
225.701306516599
 30
0.0
 40
6.8333330000000103
  0
LINE
  5
382
  8
1
 10
215.0
 20
246.701306516599
 30
0.0
 11
215.0
 21
204.701306516599
 31
0.0
  0
ARC
  5
384
  8
2
 10
215.0
 20
225.701306516599
 30
0.0
 40
16.0
 50
20.3641348063178
 51
339.63586519368221
  0
CIRCLE
  5
385
  8
2
 10
215.0
 20
225.701306516599
 30
0.0
 40
11.0
  0
ARC
  5
386
  8
0
 10
195.19999999999999
 20
150.77998099999999
 30
0.0
 40
5.3734809999999991
 50
69.252335999999502
 51
129.2523359999997
  0
LINE
  5
387
  8
0
 10
191.80000000000001
 20
154.94102599999999
 30
0.0
 11
191.80000000000001
 21
138.15346199999999
 31
0.0
  0
ARC
  5
388
  8
0
 10
185.0
 20
136.47819000000001
 30
0.0
 40
19.675272
 50
69.780873000000142
 51
90.000007999999823
  0
LINE
  5
38A
  8
0
 10
200.5
 20
138.15346199999999
 30
0.0
 11
169.5
 21
138.15346199999999
 31
0.0
  0
LINE
  5
38B
  8
0
 10
169.5
 20
138.15346199999999
 30
0.0
 11
169.0
 21
137.65346199999999
 31
0.0
  0
LINE
  5
38C
  8
0
 10
169.0
 20
137.65346199999999
 30
0.0
 11
169.0
 21
134.75346200000001
 31
0.0
  0
LINE
  5
38D
  8
0
 10
171.40000000000001
 20
154.94102599999999
 30
0.0
 11
171.40000000000001
 21
138.553462
 31
0.0
  0
ARC
  5
38E
  8
0
 10
171.0
 20
138.553462
 30
0.0
 40
0.4
 50
270.0
 51
0.0
  0
ARC
  5
38F
  8
0
 10
185.0
 20
136.47819000000001
 30
0.0
 40
19.675272
 50
89.999992000000177
 51
110.2191269999998
  0
LINE
  5
390
  8
0
 10
200.5
 20
138.15346199999999
 30
0.0
 11
201.0
 21
137.65346199999999
 31
0.0
  0
ARC
  5
391
  8
0
 10
199.0
 20
138.553462
 30
0.0
 40
0.4
 50
180.0
 51
270.0
  0
LINE
  5
393
  8
0
 10
201.0
 20
137.65346199999999
 30
0.0
 11
201.0
 21
134.75346200000001
 31
0.0
  0
LINE
  5
394
  8
0
 10
198.59999999999999
 20
154.94102599999999
 30
0.0
 11
198.59999999999999
 21
138.553462
 31
0.0
  0
LINE
  5
395
  8
0
 10
173.5
 20
156.15346199999999
 30
0.0
 11
196.5
 21
156.15346199999999
 31
0.0
  0
LINE
  5
396
  8
0
 10
178.19999999999999
 20
154.94102599999999
 30
0.0
 11
178.19999999999999
 21
138.15346199999999
 31
0.0
  0
LINE
  5
397
  8
0
 10
198.59999999999999
 20
154.94102599999999
 30
0.0
 11
196.5
 21
156.15346199999999
 31
0.0
  0
ARC
  5
398
  8
0
 10
174.80000000000001
 20
150.77998099999999
 30
0.0
 40
5.3734809999999991
 50
50.747664000000277
 51
110.7476639999999
  0
LINE
  5
399
  8
0
 10
171.40000000000001
 20
154.94102599999999
 30
0.0
 11
173.5
 21
156.15346199999999
 31
0.0
  0
LINE
  5
39A
  8
0
 10
201.0
 20
134.75346200000001
 30
0.0
 11
169.0
 21
134.75346200000001
 31
0.0
  0
ARC
  5
39B
  8
0
 10
185.0
 20
165.882227
 30
0.0
 40
35.0
 50
242.79710600000041
 51
245.63290704125441
  0
ARC
  5
39C
  8
0
 10
185.0
 20
165.882227
 30
0.0
 40
35.0
 50
294.36709295874567
 51
297.20289399999962
  0
LINE
  5
39E
  8
2
 10
175.5
 20
132.089156
 30
0.0
 11
194.5
 21
132.089156
 31
0.0
  0
LINE
  5
39F
  8
2
 10
175.5
 20
129.5
 30
0.0
 11
194.5
 21
129.5
 31
0.0
  0
LINE
  5
3A0
  8
2
 10
175.5
 20
129.5
 30
0.0
 11
175.0
 21
129.0
 31
0.0
  0
LINE
  5
3A1
  8
2
 10
175.5
 20
132.089156
 30
0.0
 11
175.5
 21
129.5
 31
0.0
  0
LINE
  5
3A2
  8
2
 10
170.25
 20
134.0
 30
0.0
 11
175.5
 21
132.089156
 31
0.0
  0
LINE
  5
3A3
  8
2
 10
194.5
 20
129.5
 30
0.0
 11
195.0
 21
129.0
 31
0.0
  0
LINE
  5
3A4
  8
2
 10
194.5
 20
132.089156
 30
0.0
 11
194.5
 21
129.5
 31
0.0
  0
LINE
  5
3A5
  8
2
 10
199.75
 20
134.0
 30
0.0
 11
194.5
 21
132.089156
 31
0.0
  0
LINE
  5
3A6
  8
0
 10
169.0
 20
129.5
 30
0.0
 11
169.5
 21
129.0
 31
0.0
  0
LINE
  5
3A7
  8
0
 10
169.5
 20
134.0
 30
0.0
 11
169.0
 21
133.5
 31
0.0
  0
LINE
  5
3A8
  8
0
 10
201.0
 20
133.5
 30
0.0
 11
200.5
 21
134.0
 31
0.0
  0
LINE
  5
3A9
  8
0
 10
201.0
 20
129.5
 30
0.0
 11
200.5
 21
129.0
 31
0.0
  0
LINE
  5
3AA
  8
0
 10
169.0
 20
129.5
 30
0.0
 11
169.0
 21
133.5
 31
0.0
  0
LINE
  5
3AB
  8
0
 10
201.0
 20
133.5
 30
0.0
 11
201.0
 21
129.5
 31
0.0
  0
LINE
  5
3AC
  8
0
 10
169.5
 20
134.0
 30
0.0
 11
200.5
 21
134.0
 31
0.0
  0
ARC
  5
3B0
  8
0
 10
77.599999999999994
 20
138.553462
 30
0.0
 40
0.4
 50
270.0
 51
0.0
  0
LINE
  5
3B1
  8
0
 10
90.0
 20
138.15346199999999
 30
0.0
 11
90.0
 21
154.79298999999989
 31
0.0
  0
LINE
  5
3B2
  8
0
 10
101.5
 20
156.15346199999999
 30
0.0
 11
78.5
 21
156.15346199999999
 31
0.0
  0
LINE
  5
3B3
  8
0
 10
78.0
 20
155.86478699999989
 30
0.0
 11
78.5
 21
156.15346199999999
 31
0.0
  0
LINE
  5
3B4
  8
0
 10
78.0
 20
138.553462
 30
0.0
 11
78.0
 21
155.86478699999989
 31
0.0
  0
ARC
  5
3B5
  8
0
 10
84.0
 20
138.53466
 30
0.0
 40
17.33012699999999
 50
69.743841999999916
 51
110.2561580000001
  0
ARC
  5
3B6
  8
0
 10
96.0
 20
138.53466
 30
0.0
 40
17.33012699999999
 50
69.743841999999916
 51
110.2561580000001
  0
LINE
  5
3B7
  8
0
 10
102.0
 20
155.86478699999989
 30
0.0
 11
101.5
 21
156.15346199999999
 31
0.0
  0
ARC
  5
3B8
  8
0
 10
102.40000000000001
 20
138.553462
 30
0.0
 40
0.4
 50
180.0
 51
270.0
  0
LINE
  5
3B9
  8
0
 10
102.0
 20
138.553462
 30
0.0
 11
102.0
 21
155.86478699999989
 31
0.0
  0
ARC
  5
3BA
  8
0
 10
90.0
 20
165.882227
 30
0.0
 40
35.0
 50
294.36709295874567
 51
297.2028940000003
  0
ARC
  5
3BB
  8
0
 10
90.0
 20
165.882227
 30
0.0
 40
35.0
 50
242.7971059999997
 51
245.63290704125441
  0
LINE
  5
3BC
  8
0
 10
106.0
 20
134.75346200000001
 30
0.0
 11
74.0
 21
134.75346200000001
 31
0.0
  0
LINE
  5
3BD
  8
0
 10
106.0
 20
137.65346199999999
 30
0.0
 11
106.0
 21
134.75346200000001
 31
0.0
  0
LINE
  5
3BE
  8
0
 10
105.5
 20
138.15346199999999
 30
0.0
 11
106.0
 21
137.65346199999999
 31
0.0
  0
LINE
  5
3BF
  8
0
 10
74.0
 20
137.65346199999999
 30
0.0
 11
74.0
 21
134.75346200000001
 31
0.0
  0
LINE
  5
3C0
  8
0
 10
74.5
 20
138.15346199999999
 30
0.0
 11
74.0
 21
137.65346199999999
 31
0.0
  0
LINE
  5
3C1
  8
0
 10
105.5
 20
138.15346199999999
 30
0.0
 11
74.5
 21
138.15346199999999
 31
0.0
  0
LINE
  5
3C3
  8
2
 10
80.5
 20
132.089156
 30
0.0
 11
99.500000000000014
 21
132.089156
 31
0.0
  0
LINE
  5
3C4
  8
2
 10
80.5
 20
129.5
 30
0.0
 11
99.500000000000014
 21
129.5
 31
0.0
  0
LINE
  5
3C5
  8
2
 10
80.5
 20
129.5
 30
0.0
 11
80.0
 21
129.0
 31
0.0
  0
LINE
  5
3C6
  8
2
 10
80.5
 20
132.089156
 30
0.0
 11
80.5
 21
129.5
 31
0.0
  0
LINE
  5
3C7
  8
2
 10
75.25
 20
134.0
 30
0.0
 11
80.5
 21
132.089156
 31
0.0
  0
LINE
  5
3C8
  8
2
 10
99.500000000000014
 20
129.5
 30
0.0
 11
100.0
 21
129.0
 31
0.0
  0
LINE
  5
3C9
  8
2
 10
99.500000000000014
 20
132.089156
 30
0.0
 11
99.500000000000014
 21
129.5
 31
0.0
  0
LINE
  5
3CA
  8
2
 10
104.75
 20
134.0
 30
0.0
 11
99.500000000000014
 21
132.089156
 31
0.0
  0
LINE
  5
3CB
  8
0
 10
74.0
 20
129.5
 30
0.0
 11
74.5
 21
129.0
 31
0.0
  0
LINE
  5
3CC
  8
0
 10
74.5
 20
134.0
 30
0.0
 11
74.0
 21
133.5
 31
0.0
  0
LINE
  5
3CD
  8
0
 10
106.0
 20
133.5
 30
0.0
 11
105.5
 21
134.0
 31
0.0
  0
LINE
  5
3CE
  8
0
 10
106.0
 20
129.5
 30
0.0
 11
105.5
 21
129.0
 31
0.0
  0
LINE
  5
3CF
  8
0
 10
74.0
 20
129.5
 30
0.0
 11
74.0
 21
133.5
 31
0.0
  0
LINE
  5
3D0
  8
0
 10
106.0
 20
133.5
 30
0.0
 11
106.0
 21
129.5
 31
0.0
  0
LINE
  5
3D1
  8
0
 10
74.5
 20
134.0
 30
0.0
 11
105.5
 21
134.0
 31
0.0
  0
ARC
  5
3D5
  8
0
 10
272.60000000000002
 20
138.553462
 30
0.0
 40
0.4
 50
270.0
 51
0.0
  0
LINE
  5
3D7
  8
0
 10
296.5
 20
156.15346199999999
 30
0.0
 11
273.5
 21
156.15346199999999
 31
0.0
  0
LINE
  5
3D8
  8
0
 10
273.0
 20
155.86478699999989
 30
0.0
 11
273.5
 21
156.15346199999999
 31
0.0
  0
LINE
  5
3D9
  8
0
 10
273.0
 20
138.553462
 30
0.0
 11
273.0
 21
155.86478699999989
 31
0.0
  0
ARC
  5
3DA
  8
0
 10
279.0
 20
138.53466
 30
0.0
 40
17.33012699999999
 50
76.700381437566335
 51
110.2561580000001
  0
ARC
  5
3DB
  8
0
 10
291.0
 20
138.53466
 30
0.0
 40
17.33012699999999
 50
69.743841999999916
 51
103.29961856243359
  0
LINE
  5
3DC
  8
0
 10
297.0
 20
155.86478699999989
 30
0.0
 11
296.5
 21
156.15346199999999
 31
0.0
  0
ARC
  5
3DD
  8
0
 10
297.39999999999998
 20
138.553462
 30
0.0
 40
0.4
 50
180.0
 51
270.0
  0
LINE
  5
3DE
  8
0
 10
297.0
 20
138.553462
 30
0.0
 11
297.0
 21
155.86478699999989
 31
0.0
  0
ARC
  5
3DF
  8
0
 10
285.0
 20
165.882227
 30
0.0
 40
35.0
 50
294.36709295874567
 51
297.20289399999962
  0
ARC
  5
3E0
  8
0
 10
285.0
 20
165.882227
 30
0.0
 40
35.0
 50
242.79710600000041
 51
245.6329070412543
  0
LINE
  5
3E1
  8
0
 10
301.0
 20
134.75346200000001
 30
0.0
 11
293.0
 21
134.75346200000001
 31
0.0
  0
LINE
  5
3E2
  8
0
 10
301.0
 20
137.65346199999999
 30
0.0
 11
301.0
 21
134.75346200000001
 31
0.0
  0
LINE
  5
3E3
  8
0
 10
300.5
 20
138.15346199999999
 30
0.0
 11
301.0
 21
137.65346199999999
 31
0.0
  0
LINE
  5
3E4
  8
0
 10
269.0
 20
137.65346199999999
 30
0.0
 11
269.0
 21
134.75346200000001
 31
0.0
  0
LINE
  5
3E5
  8
0
 10
269.5
 20
138.15346199999999
 30
0.0
 11
269.0
 21
137.65346199999999
 31
0.0
  0
LINE
  5
3E6
  8
0
 10
300.5
 20
138.15346199999999
 30
0.0
 11
293.0
 21
138.15346199999999
 31
0.0
  0
LINE
  5
3F0
  8
0
 10
269.0
 20
129.5
 30
0.0
 11
269.5
 21
129.0
 31
0.0
  0
LINE
  5
3F1
  8
0
 10
269.5
 20
134.0
 30
0.0
 11
269.0
 21
133.5
 31
0.0
  0
LINE
  5
3F2
  8
0
 10
301.0
 20
133.5
 30
0.0
 11
300.5
 21
134.0
 31
0.0
  0
LINE
  5
3F3
  8
0
 10
301.0
 20
129.5
 30
0.0
 11
300.5
 21
129.0
 31
0.0
  0
LINE
  5
3F4
  8
0
 10
269.0
 20
129.5
 30
0.0
 11
269.0
 21
133.5
 31
0.0
  0
LINE
  5
3F5
  8
0
 10
301.0
 20
133.5
 30
0.0
 11
301.0
 21
129.5
 31
0.0
  0
LINE
  5
3F6
  8
0
 10
269.5
 20
134.0
 30
0.0
 11
277.0
 21
134.0
 31
0.0
  0
ARC
  5
3F8
  8
0
 10
215.0
 20
225.98138251659901
 30
0.0
 40
15.71992399999999
 50
342.5928658970596
 51
17.407134102940379
  0
LINE
  5
3F9
  8
0
 10
98.029568000000026
 20
70.0
 30
0.0
 11
98.029567999999998
 21
48.0
 31
0.0
  0
LINE
  5
3FA
  8
3
 10
96.960627999999986
 20
70.0
 30
0.0
 11
96.960627999999986
 21
46.931061
 31
0.0
  0
LINE
  5
3FB
  8
3
 10
83.098506999999998
 20
70.0
 30
0.0
 11
83.098506999999998
 21
46.931061
 31
0.0
  0
LINE
  5
3FC
  8
0
 10
82.029567999999998
 20
80.0
 30
0.0
 11
82.029567999999998
 21
110.0
 31
0.0
  0
LINE
  5
3FD
  8
0
 10
193.02956800000001
 20
70.0
 30
0.0
 11
193.02956800000001
 21
48.0
 31
0.0
  0
LINE
  5
3FE
  8
3
 10
191.96062800000001
 20
70.0
 30
0.0
 11
191.96062800000001
 21
46.931061
 31
0.0
  0
LINE
  5
3FF
  8
3
 10
178.09850700000001
 20
70.0
 30
0.0
 11
178.09850700000001
 21
46.931061
 31
0.0
  0
LINE
  5
400
  8
0
 10
177.02956800000001
 20
80.0
 30
0.0
 11
177.02956800000001
 21
110.0
 31
0.0
  0
LINE
  5
401
  8
0
 10
223.0
 20
129.0
 30
0.0
 11
223.0
 21
152.73333299999999
 31
0.0
  0
LINE
  5
402
  8
3
 10
221.83333300000001
 20
110.0
 30
0.0
 11
221.83333300000001
 21
86.466871999999995
 31
0.0
  0
LINE
  5
403
  8
3
 10
208.16666699999999
 20
110.0
 30
0.0
 11
208.16666699999999
 21
86.466871999999995
 31
0.0
  0
LINE
  5
404
  8
0
 10
207.0
 20
110.0
 30
0.0
 11
207.0
 21
87.140448000000006
 31
0.0
  0
LINE
  5
405
  8
0
 10
98.029567999999998
 20
110.0
 30
0.0
 11
98.029568000000026
 21
80.0
 31
0.0
  0
LINE
  5
406
  8
0
 10
82.029567999999998
 20
156.15346199999999
 30
0.0
 11
82.029567999999998
 21
169.0
 31
0.0
  0
LINE
  5
407
  8
0
 10
177.02956800000001
 20
156.15346199999999
 30
0.0
 11
177.02956800000001
 21
169.0
 31
0.0
  0
LINE
  5
408
  8
0
 10
193.02956800000001
 20
110.0
 30
0.0
 11
193.02956800000001
 21
80.0
 31
0.0
  0
LINE
  5
409
  8
0
 10
101.0
 20
80.0
 30
0.0
 11
101.0
 21
84.0
 31
0.0
  0
LINE
  5
40A
  8
0
 10
75.0
 20
70.0
 30
0.0
 11
105.0
 21
70.0
 31
0.0
  0
LINE
  5
40B
  8
0
 10
100.0
 20
85.0
 30
0.0
 11
98.029568000000026
 21
85.0
 31
0.0
  0
LINE
  5
40C
  8
0
 10
105.0
 20
77.0
 30
0.0
 11
102.0
 21
77.0
 31
0.0
  0
LINE
  5
40D
  8
0
 10
79.0
 20
80.0
 30
0.0
 11
79.0
 21
84.0
 31
0.0
  0
LINE
  5
40E
  8
0
 10
74.0
 20
71.0
 30
0.0
 11
74.0
 21
76.0
 31
0.0
  0
LINE
  5
40F
  8
0
 10
106.0
 20
71.0
 30
0.0
 11
106.0
 21
76.0
 31
0.0
  0
LINE
  5
410
  8
0
 10
106.0
 20
71.0
 30
0.0
 11
105.0
 21
70.0
 31
0.0
  0
LINE
  5
411
  8
0
 10
106.0
 20
76.0
 30
0.0
 11
105.0
 21
77.0
 31
0.0
  0
LINE
  5
412
  8
0
 10
75.0
 20
77.0
 30
0.0
 11
74.0
 21
76.0
 31
0.0
  0
LINE
  5
413
  8
0
 10
74.0
 20
71.0
 30
0.0
 11
75.0
 21
70.0
 31
0.0
  0
ARC
  5
414
  8
0
 10
76.0
 20
80.0
 30
0.0
 40
3.0
 50
270.0
 51
311.81031489577867
  0
ARC
  5
415
  8
0
 10
104.0
 20
80.0
 30
0.0
 40
3.0
 50
228.1896851042215
 51
270.0
  0
LINE
  5
416
  8
0
 10
101.0
 20
84.0
 30
0.0
 11
100.0
 21
85.0
 31
0.0
  0
LINE
  5
417
  8
0
 10
79.0
 20
84.0
 30
0.0
 11
80.0
 21
85.0
 31
0.0
  0
LINE
  5
418
  8
0
 10
82.029567999999998
 20
85.0
 30
0.0
 11
80.0
 21
85.0
 31
0.0
  0
LINE
  5
419
  8
0
 10
78.0
 20
77.0
 30
0.0
 11
75.0
 21
77.0
 31
0.0
  0
LINE
  5
467
  8
3
 10
278.16666700000002
 20
110.0
 30
0.0
 11
278.16666700000002
 21
86.466871999999995
 31
0.0
  0
LINE
  5
468
  8
0
 10
277.0
 20
156.15346199999999
 30
0.0
 11
277.0
 21
169.0
 31
0.0
  0
LINE
  5
46A
  8
0
 10
293.0
 20
110.0
 30
0.0
 11
293.0
 21
85.0
 31
0.0
  0
LINE
  5
46B
  8
0
 10
293.0
 20
129.0
 30
0.0
 11
293.0
 21
152.73333299999999
 31
0.0
  0
LINE
  5
46C
  8
3
 10
291.83333299999998
 20
110.0
 30
0.0
 11
291.83333299999998
 21
86.466871999999995
 31
0.0
  0
LINE
  5
46D
  8
0
 10
293.0
 20
70.0
 30
0.0
 11
293.0
 21
48.0
 31
0.0
  0
LINE
  5
46E
  8
3
 10
291.93106
 20
70.0
 30
0.0
 11
291.93106
 21
46.931061
 31
0.0
  0
LINE
  5
46F
  8
3
 10
278.068939
 20
70.0
 30
0.0
 11
278.068939
 21
46.931061
 31
0.0
  0
LINE
  5
470
  8
0
 10
277.0
 20
85.0
 30
0.0
 11
277.0
 21
110.0
 31
0.0
  0
LINE
  5
472
  8
0
 10
293.0
 20
86.0
 30
0.0
 11
291.02468626878942
 21
86.000000000000014
 31
0.0
  0
LINE
  5
473
  8
3
 10
291.931061
 20
86.0
 30
0.0
 11
291.931061
 21
85.0
 31
0.0
  0
LINE
  5
474
  8
3
 10
292.3842482911013
 20
86.784943558444965
 30
0.0
 11
291.931061
 21
86.0
 31
0.0
  0
LINE
  5
4BD
  8
0
 10
293.0
 20
134.0
 30
0.0
 11
300.5
 21
134.0
 31
0.0
  0
LINE
  5
4BE
  8
0
 10
277.0
 20
134.75346200000001
 30
0.0
 11
269.0
 21
134.75346200000001
 31
0.0
  0
LINE
  5
4BF
  8
0
 10
277.0
 20
138.15346199999999
 30
0.0
 11
269.5
 21
138.15346199999999
 31
0.0
  0
LINE
  5
4C8
  8
0
 10
273.5
 20
80.0
 30
0.0
 11
274.0
 21
80.0
 31
0.0
  0
LINE
  5
4C9
  8
0
 10
271.14359400000001
 20
78.639527999999984
 30
0.0
 11
271.14359400000001
 21
77.0
 31
0.0
  0
LINE
  5
4CA
  8
0
 10
271.14359400000001
 20
78.639527999999984
 30
0.0
 11
273.5
 21
80.0
 31
0.0
  0
ARC
  5
4CB
  8
0
 10
274.60769499999998
 20
73.577349999999996
 30
0.0
 40
6.1339750000000004
 50
95.846914318809397
 51
115.6157529999999
  0
LINE
  5
4CC
  8
0
 10
296.5
 20
80.0
 30
0.0
 11
296.0
 21
80.0
 31
0.0
  0
LINE
  5
4CD
  8
0
 10
298.85640599999999
 20
78.639527999999984
 30
0.0
 11
298.85640599999999
 21
77.0
 31
0.0
  0
LINE
  5
4CE
  8
0
 10
298.85640599999999
 20
78.639527999999984
 30
0.0
 11
296.5
 21
80.0
 31
0.0
  0
ARC
  5
4CF
  8
0
 10
295.39230500000002
 20
73.577349999999996
 30
0.0
 40
6.1339750000000004
 50
64.384247000000045
 51
84.153085681189381
  0
TEXT
  5
57A
  8
0
 62
     3
 10
0.0
 20
0.0
 30
0.0
 40
10.0
  1
BJ153-16080B1
  7
STANDARD1
  0
ENDSEC
  0
EOF
