  0
SECTION
  2
HEADER
  9
$ACADVER
  1
AC1009
  9
$INSBASE
 10
82.638099999999994
 20
103.82319099999999
 30
0.0
  9
$EXTMIN
 10
0.0
 20
-2.960436562073669
 30
0.0
  9
$EXTMAX
 10
304.0
 20
279.35183535807852
 30
0.0
  9
$LIMMIN
 10
0.0
 20
0.0
  9
$LIMMAX
 10
375.0
 20
270.0
  9
$ORTHOMODE
 70
     1
  9
$REGENMODE
 70
     1
  9
$FILLMODE
 70
     1
  9
$QTEXTMODE
 70
     0
  9
$MIRRTEXT
 70
     0
  9
$DRAGMODE
 70
     2
  9
$LTSCALE
 40
10.0
  9
$OSMODE
 70
  3071
  9
$ATTMODE
 70
     1
  9
$TEXTSIZE
 40
0.06
  9
$TRACEWID
 40
0.05
  9
$TEXTSTYLE
  7
STANDARD
  9
$CLAYER
  8
0
  9
$CELTYPE
  6
BYLAYER
  9
$CECOLOR
 62
   256
  9
$DIMSCALE
 40
1.0
  9
$DIMASZ
 40
3.0
  9
$DIMEXO
 40
2.0
  9
$DIMDLI
 40
10.0
  9
$DIMRND
 40
0.0
  9
$DIMDLE
 40
0.0
  9
$DIMEXE
 40
2.0
  9
$DIMTP
 40
0.0
  9
$DIMTM
 40
0.0
  9
$DIMTXT
 40
3.0
  9
$DIMCEN
 40
0.0
  9
$DIMTSZ
 40
0.0
  9
$DIMTOL
 70
     0
  9
$DIMLIM
 70
     0
  9
$DIMTIH
 70
     0
  9
$DIMTOH
 70
     0
  9
$DIMSE1
 70
     0
  9
$DIMSE2
 70
     0
  9
$DIMTAD
 70
     1
  9
$DIMZIN
 70
     0
  9
$DIMBLK
  1

  9
$DIMASO
 70
     0
  9
$DIMSHO
 70
     0
  9
$DIMPOST
  1

  9
$DIMAPOST
  1

  9
$DIMALT
 70
     0
  9
$DIMALTD
 70
     2
  9
$DIMALTF
 40
25.399999999999999
  9
$DIMLFAC
 40
1.0
  9
$DIMTOFL
 70
     1
  9
$DIMTVP
 40
1.6000000000000001
  9
$DIMTIX
 70
     1
  9
$DIMSOXD
 70
     0
  9
$DIMSAH
 70
     0
  9
$DIMBLK1
  1

  9
$DIMBLK2
  1

  9
$DIMSTYLE
  2
STANDARD
  9
$DIMCLRD
 70
     0
  9
$DIMCLRE
 70
     0
  9
$DIMCLRT
 70
     0
  9
$DIMTFAC
 40
1.0
  9
$DIMGAP
 40
0.09
  9
$LUNITS
 70
     2
  9
$LUPREC
 70
     4
  9
$SKETCHINC
 40
0.1
  9
$FILLETRAD
 40
0.0
  9
$AUNITS
 70
     0
  9
$AUPREC
 70
     4
  9
$MENU
  1
E:\r13\win\SUPPORT\ACAD
  9
$ELEVATION
 40
0.0
  9
$PELEVATION
 40
0.0
  9
$THICKNESS
 40
0.0
  9
$LIMCHECK
 70
     0
  9
$BLIPMODE
 70
     0
  9
$CHAMFERA
 40
0.0
  9
$CHAMFERB
 40
0.0
  9
$SKPOLY
 70
     0
  9
$TDCREATE
 40
2449840.3474652781
  9
$TDUPDATE
 40
2456597.6386786108
  9
$TDINDWG
 40
0.0088972685
  9
$TDUSRTIMER
 40
0.0088972685
  9
$USRTIMER
 70
     1
  9
$ANGBASE
 50
0.0
  9
$ANGDIR
 70
     0
  9
$PDMODE
 70
     1
  9
$PDSIZE
 40
0.0
  9
$PLINEWID
 40
0.0
  9
$COORDS
 70
     1
  9
$SPLFRAME
 70
     0
  9
$SPLINETYPE
 70
     6
  9
$SPLINESEGS
 70
     8
  9
$ATTDIA
 70
     0
  9
$ATTREQ
 70
     1
  9
$HANDLING
 70
     1
  9
$HANDSEED
  5
664
  9
$SURFTAB1
 70
     6
  9
$SURFTAB2
 70
     6
  9
$SURFTYPE
 70
     6
  9
$SURFU
 70
     6
  9
$SURFV
 70
     6
  9
$UCSNAME
  2

  9
$UCSORG
 10
0.0
 20
0.0
 30
0.0
  9
$UCSXDIR
 10
1.0
 20
0.0
 30
0.0
  9
$UCSYDIR
 10
0.0
 20
1.0
 30
0.0
  9
$PUCSNAME
  2

  9
$PUCSORG
 10
0.0
 20
0.0
 30
0.0
  9
$PUCSXDIR
 10
1.0
 20
0.0
 30
0.0
  9
$PUCSYDIR
 10
0.0
 20
1.0
 30
0.0
  9
$USERI1
 70
     3
  9
$USERI2
 70
     1
  9
$USERI3
 70
     0
  9
$USERI4
 70
     0
  9
$USERI5
 70
     0
  9
$USERR1
 40
1.0
  9
$USERR2
 40
3.0
  9
$USERR3
 40
3.0
  9
$USERR4
 40
3.0
  9
$USERR5
 40
10.0
  9
$WORLDVIEW
 70
     1
  9
$SHADEDGE
 70
     3
  9
$SHADEDIF
 70
    70
  9
$TILEMODE
 70
     1
  9
$MAXACTVP
 70
    16
  9
$PLIMCHECK
 70
     0
  9
$PEXTMIN
 10
1.0000000000000000E+020
 20
1.0000000000000000E+020
 30
1.0000000000000000E+020
  9
$PEXTMAX
 10
-1.0000000000000000E+020
 20
-1.0000000000000000E+020
 30
-1.0000000000000000E+020
  9
$PLIMMIN
 10
0.0
 20
0.0
  9
$PLIMMAX
 10
12.0
 20
9.0
  9
$UNITMODE
 70
     0
  9
$VISRETAIN
 70
     0
  9
$PLINEGEN
 70
     0
  9
$PSLTSCALE
 70
     0
  0
ENDSEC
  0
SECTION
  2
TABLES
  0
TABLE
  2
VPORT
 70
     1
  0
VPORT
  2
*ACTIVE
 70
     0
 10
0.0
 20
0.0
 11
1.0
 21
1.0
 12
195.31737583728631
 22
138.1946749990735
 13
0.0
 23
0.0
 14
5.0
 24
5.0
 15
10.0
 25
10.0
 16
0.0
 26
0.0
 36
1.0
 17
0.0
 27
0.0
 37
0.0
 40
284.86349223274073
 41
1.831871345029239
 42
50.0
 43
0.0
 44
0.0
 50
0.0
 51
0.0
 71
     0
 72
   100
 73
     1
 74
     0
 75
     0
 76
     0
 77
     0
 78
     0
  0
ENDTAB
  0
TABLE
  2
LTYPE
 70
     4
  0
LTYPE
  2
CONTINUOUS
 70
     0
  3
Solid Line
 72
    65
 73
     0
 40
0.0
  0
LTYPE
  2
CENTER
 70
     0
  3
____ _ ____ _ ____ _ ____ _ ____ _ ____ _ ____
 72
    65
 73
     4
 40
2.0
 49
1.25
 49
-0.25
 49
0.25
 49
-0.25
  0
LTYPE
  2
HIDDEN
 70
     0
  3
__ __ __ __ __ __ __ __ __ __ __ __ __ __ __ __
 72
    65
 73
     2
 40
0.375
 49
0.25
 49
-0.125
  0
LTYPE
  2
PHANTOM2
 70
     0
  3
___ _ _ ___ _ _ ___ _ _ ___ _ _
 72
    65
 73
     6
 40
1.25
 49
0.625
 49
-0.125
 49
0.125
 49
-0.125
 49
0.125
 49
-0.125
  0
ENDTAB
  0
TABLE
  2
LAYER
 70
     4
  0
LAYER
  2
0
 70
     0
 62
     7
  6
CONTINUOUS
  0
LAYER
  2
1
 70
     0
 62
     1
  6
CENTER
  0
LAYER
  2
2
 70
     0
 62
     2
  6
HIDDEN
  0
LAYER
  2
3
 70
     0
 62
     3
  6
CONTINUOUS
  0
ENDTAB
  0
TABLE
  2
STYLE
 70
     2
  0
STYLE
  2
STANDARD
 70
     0
 40
0.0
 41
1.0
 50
0.0
 71
     0
 42
0.06
  3
TXT
  4
BIGFONT
  0
STYLE
  2
STANDARD1
 70
     0
 40
0.0
 41
1.0
 50
0.0
 71
     0
 42
3.0
  3
txt
  4

  0
ENDTAB
  0
TABLE
  2
VIEW
 70
     0
  0
ENDTAB
  0
TABLE
  2
UCS
 70
     0
  0
ENDTAB
  0
TABLE
  2
APPID
 70
     4
  0
APPID
  2
ACAD
 70
     0
  0
APPID
  2
ACAD_EXEMPT_FROM_CAD_STANDARDS
 70
     0
  0
APPID
  2
ACAD_MLEADERVER
 70
     0
  0
APPID
  2
ACAD_NAV_VCDISPLAY
 70
     0
  0
ENDTAB
  0
TABLE
  2
DIMSTYLE
 70
     1
  0
DIMSTYLE
  2
STANDARD
 70
     0
  3

  4

  5

  6

  7

 40
1.0
 41
0.18
 42
0.0625
 43
0.38
 44
0.18
 45
0.0
 46
0.0
 47
0.0
 48
0.0
140
0.18
141
0.09
142
0.0
143
25.399999999999999
144
1.0
145
0.0
146
1.0
147
0.09
 71
     0
 72
     0
 73
     1
 74
     1
 75
     0
 76
     0
 77
     0
 78
     0
170
     0
171
     2
172
     0
173
     0
174
     0
175
     0
176
     0
177
     0
178
     0
  0
ENDTAB
  0
ENDSEC
  0
SECTION
  2
BLOCKS
  0
BLOCK
  8
0
  2
$MODEL_SPACE
 70
     0
 10
0.0
 20
0.0
 30
0.0
  3
$MODEL_SPACE
  1

  0
ENDBLK
  5
20F
  8
0
  0
BLOCK
 67
     1
  8
0
  2
$PAPER_SPACE
 70
     0
 10
0.0
 20
0.0
 30
0.0
  3
$PAPER_SPACE
  1

  0
ENDBLK
  5
20D
 67
     1
  8
0
  0
ENDSEC
  0
SECTION
  2
ENTITIES
  0
LINE
  5
27D
  8
0
 10
131.0
 20
122.60700386979001
 30
0.0
 11
130.0
 21
123.60700386979001
 31
0.0
  0
LINE
  5
27E
  8
0
 10
230.0
 20
123.60700386979001
 30
0.0
 11
229.0
 21
122.60700386979001
 31
0.0
  0
LINE
  5
27F
  8
0
 10
229.0
 20
147.60700386978999
 30
0.0
 11
230.0
 21
146.60700386978999
 31
0.0
  0
LINE
  5
280
  8
2
 10
223.0
 20
127.60700386979001
 30
0.0
 11
223.0
 21
147.60700386978999
 31
0.0
  0
LINE
  5
281
  8
2
 10
221.91749999999999
 20
127.60700386979001
 30
0.0
 11
221.91749999999999
 21
147.60700386978999
 31
0.0
  0
LINE
  5
282
  8
2
 10
208.08250000000001
 20
127.60700386979001
 30
0.0
 11
208.08250000000001
 21
147.60700386978999
 31
0.0
  0
LINE
  5
283
  8
2
 10
207.0
 20
127.60700386979001
 30
0.0
 11
207.0
 21
147.60700386978999
 31
0.0
  0
LINE
  5
284
  8
2
 10
193.5
 20
127.60700386979001
 30
0.0
 11
193.5
 21
147.60700386978999
 31
0.0
  0
LINE
  5
285
  8
2
 10
146.5
 20
122.60700386979001
 30
0.0
 11
146.5
 21
147.60700386978999
 31
0.0
  0
LINE
  5
286
  8
1
 10
155.0
 20
117.60700386979001
 30
0.0
 11
155.0
 21
152.62578886979
 31
0.0
  0
LINE
  5
289
  8
0
 10
130.0
 20
142.60700386978999
 30
0.0
 11
138.66025400000001
 21
147.60700386978999
 31
0.0
  0
LINE
  5
28A
  8
2
 10
230.0
 20
127.60700386979001
 30
0.0
 11
185.0
 21
127.60700386979001
 31
0.0
  0
LINE
  5
28B
  8
0
 10
230.0
 20
146.60700386978999
 30
0.0
 11
230.0
 21
123.60700386979001
 31
0.0
  0
LINE
  5
28C
  8
0
 10
138.66025400000001
 20
147.60700386978999
 30
0.0
 11
229.0
 21
147.60700386978999
 31
0.0
  0
LINE
  5
28D
  8
0
 10
130.0
 20
123.60700386979001
 30
0.0
 11
130.0
 21
142.60700386978999
 31
0.0
  0
LINE
  5
28E
  8
0
 10
229.0
 20
122.60700386979001
 30
0.0
 11
131.0
 21
122.60700386979001
 31
0.0
  0
LINE
  5
28F
  8
0
 10
142.12435600000001
 20
147.60700386978999
 30
0.0
 11
142.12435600000001
 21
122.60700386979001
 31
0.0
  0
ARC
  5
290
  8
0
 10
83.423823067234935
 20
54.988201869789989
 30
0.0
 40
17.33012699999999
 50
69.743841999999887
 51
110.2561580000001
  0
LINE
  5
291
  8
0
 10
89.423823067234935
 20
72.318328869789994
 30
0.0
 11
88.923823067234935
 21
72.607003869789992
 31
0.0
  0
LINE
  5
292
  8
0
 10
89.423823067234935
 20
62.89567886978999
 30
0.0
 11
88.923823067234935
 21
62.607003869789992
 31
0.0
  0
ARC
  5
293
  8
0
 10
83.423823067234935
 20
80.225805869789994
 30
0.0
 40
17.33012699999999
 50
249.74384199999989
 51
290.25615800000008
  0
LINE
  5
294
  8
0
 10
89.423823067234935
 20
72.318328869789994
 30
0.0
 11
89.423823067234935
 21
62.89567886978999
 31
0.0
  0
LINE
  5
295
  8
0
 10
77.423823067234935
 20
63.96747586979
 30
0.0
 11
77.423823067234935
 21
71.24653186978999
 31
0.0
  0
LINE
  5
296
  8
0
 10
65.423823067234935
 20
72.318328869789994
 30
0.0
 11
65.423823067234935
 21
62.89567886978999
 31
0.0
  0
ARC
  5
297
  8
0
 10
71.423823067234935
 20
80.225805869789994
 30
0.0
 40
17.33012699999999
 50
249.74384199999989
 51
290.25615800000008
  0
LINE
  5
298
  8
0
 10
65.423823067234935
 20
62.89567886978999
 30
0.0
 11
65.923823067234935
 21
62.607003869789992
 31
0.0
  0
LINE
  5
299
  8
0
 10
65.423823067234935
 20
72.318328869789994
 30
0.0
 11
65.923823067234935
 21
72.607003869789992
 31
0.0
  0
ARC
  5
29A
  8
0
 10
71.423823067234935
 20
54.988201869789989
 30
0.0
 40
17.33012699999999
 50
69.743841999999887
 51
110.2561580000001
  0
LINE
  5
29B
  8
0
 10
65.923823067234935
 20
72.607003869789992
 30
0.0
 11
88.923823067234935
 21
72.607003869789992
 31
0.0
  0
LINE
  5
29D
  8
1
 10
77.423823067234935
 20
206.10700386978999
 30
0.0
 11
77.423823067234935
 21
31.107003869789992
 31
0.0
  0
LINE
  5
29E
  8
0
 10
69.423823067234935
 20
40.607003869789992
 30
0.0
 11
71.423823067234935
 21
38.607003869789992
 31
0.0
  0
LINE
  5
29F
  8
0
 10
83.423823067234935
 20
38.607003869789992
 30
0.0
 11
71.423823067234935
 21
38.607003869789992
 31
0.0
  0
LINE
  5
2A0
  8
3
 10
70.492762067234935
 20
88.607003869789992
 30
0.0
 11
70.492762067234935
 21
72.607003869789992
 31
0.0
  0
LINE
  5
2A1
  8
3
 10
84.354883067234937
 20
88.607003869789992
 30
0.0
 11
84.354883067234951
 21
72.607003869789992
 31
0.0
  0
LINE
  5
2A2
  8
0
 10
69.423823067234935
 20
196.60700386978999
 30
0.0
 11
85.423823067234935
 21
196.60700386978999
 31
0.0
  0
LINE
  5
2A3
  8
3
 10
70.492762067234935
 20
174.76046586979001
 30
0.0
 11
70.492762067234935
 21
197.67594286978999
 31
0.0
  0
LINE
  5
2A7
  8
3
 10
84.354883067234951
 20
174.76046586979001
 30
0.0
 11
84.354883067234937
 21
197.67594286978999
 31
0.0
  0
LINE
  5
2A8
  8
3
 10
85.453391067234946
 20
90.458460869790002
 30
0.0
 11
84.384451067234934
 21
88.607003869789992
 31
0.0
  0
LINE
  5
2A9
  8
0
 10
69.453391067234932
 20
88.607003869789992
 30
0.0
 11
85.453391067234946
 21
88.607003869789992
 31
0.0
  0
LINE
  5
2AA
  8
3
 10
69.453391067234932
 20
90.458460869790002
 30
0.0
 11
70.522330067234932
 21
88.607003869789992
 31
0.0
  0
LINE
  5
2AB
  8
0
 10
69.423823067234935
 20
40.607003869789992
 30
0.0
 11
85.423823067234935
 21
40.607003869789992
 31
0.0
  0
LINE
  5
2AC
  8
0
 10
69.423823067234935
 20
196.60700386978999
 30
0.0
 11
71.423823067234935
 21
198.60700386978999
 31
0.0
  0
LINE
  5
2AD
  8
0
 10
85.423823067234935
 20
196.60700386978999
 30
0.0
 11
83.423823067234935
 21
198.60700386978999
 31
0.0
  0
LINE
  5
2AE
  8
0
 10
85.423823067234935
 20
196.60700386978999
 30
0.0
 11
85.42382306723492
 21
174.7604658697899
 31
0.0
  0
LINE
  5
2AF
  8
0
 10
71.423823067234935
 20
198.60700386978999
 30
0.0
 11
83.423823067234935
 21
198.60700386978999
 31
0.0
  0
LINE
  5
2B0
  8
0
 10
69.423823067234935
 20
40.607003869789992
 30
0.0
 11
69.423823067234935
 21
62.607003869789992
 31
0.0
  0
LINE
  5
2B1
  8
0
 10
85.423823067234935
 20
40.607003869789992
 30
0.0
 11
83.423823067234935
 21
38.607003869789992
 31
0.0
  0
LINE
  5
2B2
  8
1
 10
285.0
 20
206.10700386978999
 30
0.0
 11
285.0
 21
31.107003869789992
 31
0.0
  0
LINE
  5
2B3
  8
0
 10
277.0
 20
40.607003869789992
 30
0.0
 11
279.0
 21
38.607003869789992
 31
0.0
  0
LINE
  5
2B4
  8
0
 10
291.0
 20
38.607003869789992
 30
0.0
 11
279.0
 21
38.607003869789992
 31
0.0
  0
LINE
  5
2B5
  8
3
 10
278.068939
 20
79.13029960409655
 30
0.0
 11
278.068939
 21
77.607003869789992
 31
0.0
  0
LINE
  5
2B6
  8
3
 10
291.93106
 20
79.130299026746258
 30
0.0
 11
291.93106
 21
77.607003869789992
 31
0.0
  0
LINE
  5
2B7
  8
0
 10
277.0
 20
196.60700386978999
 30
0.0
 11
293.0
 21
196.60700386978999
 31
0.0
  0
LINE
  5
2B8
  8
3
 10
278.068939
 20
174.76046586979001
 30
0.0
 11
278.068939
 21
197.67594286978999
 31
0.0
  0
LINE
  5
2BC
  8
3
 10
291.93105999999989
 20
174.76046586979001
 30
0.0
 11
291.93106
 21
197.67594286978999
 31
0.0
  0
LINE
  5
2C0
  8
0
 10
277.0
 20
40.607003869789992
 30
0.0
 11
293.0
 21
40.607003869789992
 31
0.0
  0
LINE
  5
2C1
  8
0
 10
277.0
 20
196.60700386978999
 30
0.0
 11
279.0
 21
198.60700386978999
 31
0.0
  0
LINE
  5
2C2
  8
0
 10
293.0
 20
196.60700386978999
 30
0.0
 11
291.0
 21
198.60700386978999
 31
0.0
  0
LINE
  5
2C3
  8
0
 10
293.0
 20
196.60700386978999
 30
0.0
 11
293.0
 21
174.76046586979001
 31
0.0
  0
LINE
  5
2C4
  8
0
 10
279.0
 20
198.60700386978999
 30
0.0
 11
291.0
 21
198.60700386978999
 31
0.0
  0
LINE
  5
2C5
  8
0
 10
277.0
 20
40.607003869789992
 30
0.0
 11
277.0
 21
62.607003869789992
 31
0.0
  0
LINE
  5
2C6
  8
0
 10
293.0
 20
40.607003869789992
 30
0.0
 11
291.0
 21
38.607003869789992
 31
0.0
  0
LINE
  5
2C8
  8
0
 10
290.33333299999998
 20
168.00700386979
 30
0.0
 11
279.66666700000002
 21
168.00700386979
 31
0.0
  0
LINE
  5
2C9
  8
0
 10
277.0
 20
165.34033686979001
 30
0.0
 11
277.0
 21
147.60700386978999
 31
0.0
  0
LINE
  5
2CA
  8
0
 10
277.0
 20
79.747451869789984
 30
0.0
 11
293.0
 21
79.747451869789984
 31
0.0
  0
LINE
  5
2CB
  8
0
 10
293.0
 20
79.747451869789984
 30
0.0
 11
292.99999999999989
 21
122.60700386979001
 31
0.0
  0
LINE
  5
2CC
  8
0
 10
293.0
 20
165.34033686979001
 30
0.0
 11
290.33333299999998
 21
168.00700386979
 31
0.0
  0
LINE
  5
2CD
  8
0
 10
279.66666700000002
 20
168.00700386979
 30
0.0
 11
277.0
 21
165.34033686979001
 31
0.0
  0
LINE
  5
2CE
  8
0
 10
293.0
 20
165.34033686979001
 30
0.0
 11
277.0
 21
165.34033686979001
 31
0.0
  0
LINE
  5
2CF
  8
0
 10
289.80000000000001
 20
77.899930869789983
 30
0.0
 11
289.80000000000001
 21
77.607003869789992
 31
0.0
  0
LINE
  5
2D0
  8
0
 10
293.0
 20
79.747451869789984
 30
0.0
 11
289.80000000000001
 21
77.899930869789983
 31
0.0
  0
LINE
  5
2D2
  8
0
 10
277.0
 20
79.747451869789984
 30
0.0
 11
280.19999999999999
 21
77.899930869789983
 31
0.0
  0
LINE
  5
2D3
  8
0
 10
280.19999999999999
 20
77.899930869789983
 30
0.0
 11
280.19999999999999
 21
77.607003869789992
 31
0.0
  0
LINE
  5
2D4
  8
0
 10
280.19999999999999
 20
77.899930869789983
 30
0.0
 11
289.80000000000001
 21
77.899930869789983
 31
0.0
  0
LINE
  5
2D5
  8
3
 10
291.83333299999998
 20
166.50700386979
 30
0.0
 11
291.83333299999998
 21
147.60700386978999
 31
0.0
  0
LINE
  5
2D6
  8
3
 10
278.16666700000002
 20
166.50700386979
 30
0.0
 11
278.16666700000002
 21
147.60700386978999
 31
0.0
  0
LINE
  5
2D7
  8
0
 10
296.0
 20
72.607003869789992
 30
0.0
 11
296.0
 21
76.607003869789992
 31
0.0
  0
LINE
  5
2DB
  8
0
 10
270.0
 20
69.607003869789992
 30
0.0
 11
300.0
 21
69.607003869789992
 31
0.0
  0
LINE
  5
2DC
  8
0
 10
274.0
 20
72.607003869789992
 30
0.0
 11
274.0
 21
76.607003869789992
 31
0.0
  0
LINE
  5
2DD
  8
0
 10
275.0
 20
77.607003869789992
 30
0.0
 11
295.0
 21
77.607003869789992
 31
0.0
  0
LINE
  5
2DE
  8
0
 10
269.0
 20
63.607003869789992
 30
0.0
 11
269.0
 21
68.607003869789992
 31
0.0
  0
LINE
  5
2DF
  8
0
 10
300.0
 20
62.607003869789992
 30
0.0
 11
270.0
 21
62.607003869789992
 31
0.0
  0
LINE
  5
2E1
  8
0
 10
301.0
 20
63.607003869789992
 30
0.0
 11
301.0
 21
68.607003869789992
 31
0.0
  0
LINE
  5
2E2
  8
0
 10
301.0
 20
63.607003869789992
 30
0.0
 11
300.0
 21
62.607003869789992
 31
0.0
  0
LINE
  5
2E3
  8
0
 10
301.0
 20
68.607003869789992
 30
0.0
 11
300.0
 21
69.607003869789992
 31
0.0
  0
LINE
  5
2E4
  8
0
 10
270.0
 20
69.607003869789992
 30
0.0
 11
269.0
 21
68.607003869789992
 31
0.0
  0
LINE
  5
2E5
  8
0
 10
269.0
 20
63.607003869789992
 30
0.0
 11
270.0
 21
62.607003869789992
 31
0.0
  0
ARC
  5
2E6
  8
0
 10
271.0
 20
72.607003869789992
 30
0.0
 40
3.0
 50
270.0
 51
0.0
  0
ARC
  5
2E7
  8
0
 10
299.0
 20
72.607003869789992
 30
0.0
 40
3.0
 50
180.0
 51
270.0
  0
LINE
  5
2E8
  8
0
 10
296.0
 20
76.607003869789992
 30
0.0
 11
295.0
 21
77.607003869789992
 31
0.0
  0
LINE
  5
2E9
  8
0
 10
274.0
 20
76.607003869789992
 30
0.0
 11
275.0
 21
77.607003869789992
 31
0.0
  0
LINE
  5
2EA
  8
0
 10
196.5
 20
62.607003869789992
 30
0.0
 11
173.5
 21
62.607003869789992
 31
0.0
  0
LINE
  5
2EB
  8
0
 10
173.5
 20
72.607003869789992
 30
0.0
 11
196.5
 21
72.607003869789992
 31
0.0
  0
ARC
  5
2EC
  8
0
 10
195.39230499999999
 20
66.184353869789973
 30
0.0
 40
6.1339750000000004
 50
64.384247000000116
 51
124.3842470000001
  0
LINE
  5
2ED
  8
0
 10
198.85640599999999
 20
71.24653186978999
 30
0.0
 11
196.5
 21
72.607003869789992
 31
0.0
  0
LINE
  5
2EE
  8
0
 10
198.85640599999999
 20
63.96747586979
 30
0.0
 11
196.5
 21
62.607003869789992
 31
0.0
  0
ARC
  5
2EF
  8
0
 10
195.39230499999999
 20
69.029653869789996
 30
0.0
 40
6.1339750000000004
 50
235.6157529999999
 51
295.61575299999993
  0
LINE
  5
2F0
  8
0
 10
198.85640599999999
 20
71.24653186978999
 30
0.0
 11
198.85640599999999
 21
63.96747586979
 31
0.0
  0
LINE
  5
2F1
  8
0
 10
191.928203
 20
71.24653186978999
 30
0.0
 11
191.928203
 21
63.96747586979
 31
0.0
  0
LINE
  5
2F2
  8
0
 10
178.071797
 20
71.24653186978999
 30
0.0
 11
178.071797
 21
63.96747586979
 31
0.0
  0
LINE
  5
2F3
  8
0
 10
171.14359400000001
 20
71.24653186978999
 30
0.0
 11
171.14359400000001
 21
63.96747586979
 31
0.0
  0
ARC
  5
2F4
  8
0
 10
185.0
 20
85.823881869790014
 30
0.0
 40
22.928203
 50
252.41204599999941
 51
287.58795400000059
  0
ARC
  5
2F5
  8
0
 10
174.60769500000001
 20
69.029653869789996
 30
0.0
 40
6.1339750000000004
 50
244.3842470000001
 51
304.38424700000007
  0
LINE
  5
2F6
  8
0
 10
171.14359400000001
 20
63.96747586979
 30
0.0
 11
173.5
 21
62.607003869789992
 31
0.0
  0
LINE
  5
2F7
  8
0
 10
171.14359400000001
 20
71.24653186978999
 30
0.0
 11
173.5
 21
72.607003869789992
 31
0.0
  0
ARC
  5
2F8
  8
0
 10
174.60769500000001
 20
66.184353869789973
 30
0.0
 40
6.1339750000000004
 50
55.615752999999877
 51
115.6157529999998
  0
ARC
  5
2F9
  8
0
 10
185.0
 20
49.390125869789991
 30
0.0
 40
22.928203
 50
72.412045999999378
 51
107.58795400000059
  0
LINE
  5
2FA
  8
1
 10
185.0
 20
206.10700386978999
 30
0.0
 11
185.0
 21
31.107003869789992
 31
0.0
  0
LINE
  5
2FB
  8
0
 10
177.0
 20
40.607003869789992
 30
0.0
 11
179.0
 21
38.607003869789992
 31
0.0
  0
LINE
  5
2FC
  8
0
 10
191.0
 20
38.607003869789992
 30
0.0
 11
179.0
 21
38.607003869789992
 31
0.0
  0
LINE
  5
2FD
  8
3
 10
178.068939
 20
88.607003869789992
 30
0.0
 11
178.068939
 21
72.607003869789992
 31
0.0
  0
LINE
  5
2FE
  8
3
 10
191.93106
 20
88.607003869789992
 30
0.0
 11
191.93106
 21
72.607003869789992
 31
0.0
  0
LINE
  5
2FF
  8
0
 10
177.0
 20
196.60700386978999
 30
0.0
 11
193.0
 21
196.60700386978999
 31
0.0
  0
LINE
  5
300
  8
3
 10
178.068939
 20
174.76046586979001
 30
0.0
 11
178.068939
 21
197.67594286978999
 31
0.0
  0
LINE
  5
304
  8
3
 10
191.93106
 20
174.76046586979001
 30
0.0
 11
191.93106
 21
197.67594286978999
 31
0.0
  0
LINE
  5
305
  8
3
 10
193.0
 20
90.458460869790002
 30
0.0
 11
191.93106
 21
88.607003869789992
 31
0.0
  0
LINE
  5
306
  8
0
 10
177.0
 20
88.607003869789992
 30
0.0
 11
193.0
 21
88.607003869789992
 31
0.0
  0
LINE
  5
307
  8
3
 10
177.0
 20
90.458460869790002
 30
0.0
 11
178.068939
 21
88.607003869789992
 31
0.0
  0
LINE
  5
308
  8
0
 10
177.0
 20
40.607003869789992
 30
0.0
 11
193.0
 21
40.607003869789992
 31
0.0
  0
LINE
  5
309
  8
0
 10
177.0
 20
196.60700386978999
 30
0.0
 11
179.0
 21
198.60700386978999
 31
0.0
  0
LINE
  5
30A
  8
0
 10
193.0
 20
196.60700386978999
 30
0.0
 11
191.0
 21
198.60700386978999
 31
0.0
  0
LINE
  5
30B
  8
0
 10
193.0
 20
196.60700386978999
 30
0.0
 11
193.0
 21
174.7604658697899
 31
0.0
  0
LINE
  5
30C
  8
0
 10
179.0
 20
198.60700386978999
 30
0.0
 11
191.0
 21
198.60700386978999
 31
0.0
  0
LINE
  5
30D
  8
0
 10
177.0
 20
40.607003869789992
 30
0.0
 11
177.0
 21
62.607003869789992
 31
0.0
  0
LINE
  5
30E
  8
0
 10
193.0
 20
40.607003869789992
 30
0.0
 11
191.0
 21
38.607003869789992
 31
0.0
  0
LINE
  5
310
  8
0
 10
220.33333300000001
 20
168.00700386979
 30
0.0
 11
209.66666699999999
 21
168.00700386979
 31
0.0
  0
LINE
  5
311
  8
0
 10
207.0
 20
165.34033686979001
 30
0.0
 11
207.0
 21
147.60700386978999
 31
0.0
  0
LINE
  5
312
  8
0
 10
207.0
 20
79.747451869789984
 30
0.0
 11
223.0
 21
79.747451869789984
 31
0.0
  0
LINE
  5
313
  8
0
 10
223.0
 20
79.747451869789984
 30
0.0
 11
223.0
 21
122.60700386979001
 31
0.0
  0
LINE
  5
314
  8
0
 10
223.0
 20
165.34033686979001
 30
0.0
 11
220.33333300000001
 21
168.00700386979
 31
0.0
  0
LINE
  5
315
  8
0
 10
209.66666699999999
 20
168.00700386979
 30
0.0
 11
207.0
 21
165.34033686979001
 31
0.0
  0
LINE
  5
316
  8
0
 10
223.0
 20
165.34033686979001
 30
0.0
 11
207.0
 21
165.34033686979001
 31
0.0
  0
LINE
  5
317
  8
0
 10
219.80000000000001
 20
77.899930869789983
 30
0.0
 11
219.80000000000001
 21
77.607003869789992
 31
0.0
  0
LINE
  5
318
  8
0
 10
223.0
 20
79.747451869789984
 30
0.0
 11
219.80000000000001
 21
77.899930869789983
 31
0.0
  0
LINE
  5
31A
  8
0
 10
207.0
 20
79.747451869789984
 30
0.0
 11
210.19999999999999
 21
77.899930869789983
 31
0.0
  0
LINE
  5
31B
  8
0
 10
210.19999999999999
 20
77.899930869789983
 30
0.0
 11
210.19999999999999
 21
77.607003869789992
 31
0.0
  0
LINE
  5
31C
  8
0
 10
210.19999999999999
 20
77.899930869789983
 30
0.0
 11
219.80000000000001
 21
77.899930869789983
 31
0.0
  0
LINE
  5
31D
  8
3
 10
221.83333300000001
 20
166.50700386979
 30
0.0
 11
221.83333300000001
 21
147.60700386978999
 31
0.0
  0
LINE
  5
31E
  8
3
 10
208.16666699999999
 20
166.50700386979
 30
0.0
 11
208.16666699999999
 21
147.60700386978999
 31
0.0
  0
LINE
  5
31F
  8
0
 10
226.0
 20
72.607003869789992
 30
0.0
 11
226.0
 21
76.607003869789992
 31
0.0
  0
LINE
  5
323
  8
0
 10
200.0
 20
69.607003869789992
 30
0.0
 11
230.0
 21
69.607003869789992
 31
0.0
  0
LINE
  5
324
  8
0
 10
204.0
 20
72.607003869789992
 30
0.0
 11
204.0
 21
76.607003869789992
 31
0.0
  0
LINE
  5
325
  8
0
 10
205.0
 20
77.607003869789992
 30
0.0
 11
225.0
 21
77.607003869789992
 31
0.0
  0
LINE
  5
326
  8
0
 10
199.0
 20
63.607003869789992
 30
0.0
 11
199.0
 21
68.607003869789992
 31
0.0
  0
LINE
  5
327
  8
0
 10
230.0
 20
62.607003869789992
 30
0.0
 11
200.0
 21
62.607003869789992
 31
0.0
  0
LINE
  5
328
  8
1
 10
215.0
 20
54.37001786978999
 30
0.0
 11
215.0
 21
174.41666186979
 31
0.0
  0
LINE
  5
329
  8
0
 10
231.0
 20
63.607003869789992
 30
0.0
 11
231.0
 21
68.607003869789992
 31
0.0
  0
LINE
  5
32A
  8
0
 10
231.0
 20
63.607003869789992
 30
0.0
 11
230.0
 21
62.607003869789992
 31
0.0
  0
LINE
  5
32B
  8
0
 10
231.0
 20
68.607003869789992
 30
0.0
 11
230.0
 21
69.607003869789992
 31
0.0
  0
LINE
  5
32C
  8
0
 10
200.0
 20
69.607003869789992
 30
0.0
 11
199.0
 21
68.607003869789992
 31
0.0
  0
LINE
  5
32D
  8
0
 10
199.0
 20
63.607003869789992
 30
0.0
 11
200.0
 21
62.607003869789992
 31
0.0
  0
ARC
  5
32E
  8
0
 10
201.0
 20
72.607003869789992
 30
0.0
 40
3.0
 50
270.0
 51
0.0
  0
ARC
  5
32F
  8
0
 10
229.0
 20
72.607003869789992
 30
0.0
 40
3.0
 50
180.0
 51
270.0
  0
LINE
  5
330
  8
0
 10
226.0
 20
76.607003869789992
 30
0.0
 11
225.0
 21
77.607003869789992
 31
0.0
  0
LINE
  5
331
  8
0
 10
204.0
 20
76.607003869789992
 30
0.0
 11
205.0
 21
77.607003869789992
 31
0.0
  0
CIRCLE
  5
334
  8
3
 10
185.0
 20
255.35183535807849
 30
0.0
 40
7.0
  0
CIRCLE
  5
335
  8
0
 10
185.0
 20
255.35183535807849
 30
0.0
 40
8.0
  0
LINE
  5
336
  8
0
 10
198.59230500000001
 20
254.8943983580784
 30
0.0
 11
192.192305
 21
243.80927235807849
 31
0.0
  0
ARC
  5
337
  8
0
 10
185.0
 20
255.35183535807849
 30
0.0
 40
13.6
 50
358.07248700000048
 51
1.9275129999994161
  0
ARC
  5
338
  8
0
 10
185.0
 20
255.35183535807849
 30
0.0
 40
13.6
 50
58.072487000000599
 51
61.927513000000502
  0
LINE
  5
339
  8
0
 10
192.192305
 20
266.89439835807838
 30
0.0
 11
198.59230500000001
 21
255.80927235807849
 31
0.0
  0
ARC
  5
33A
  8
0
 10
185.0
 20
255.35183535807849
 30
0.0
 40
13.6
 50
118.0724869999994
 51
121.92751299999939
  0
LINE
  5
33B
  8
0
 10
178.59999999999999
 20
267.35183535807852
 30
0.0
 11
191.40000000000001
 21
267.35183535807852
 31
0.0
  0
ARC
  5
33C
  8
0
 10
185.0
 20
255.35183535807849
 30
0.0
 40
13.6
 50
178.07248700000059
 51
181.92751299999941
  0
LINE
  5
33D
  8
0
 10
171.40769499999999
 20
255.80927235807849
 30
0.0
 11
177.807695
 21
266.89439835807838
 31
0.0
  0
ARC
  5
33E
  8
0
 10
185.0
 20
255.35183535807849
 30
0.0
 40
13.6
 50
238.07248700000051
 51
241.92751300000049
  0
LINE
  5
33F
  8
0
 10
177.807695
 20
243.80927235807849
 30
0.0
 11
171.40769499999999
 21
254.8943983580784
 31
0.0
  0
ARC
  5
340
  8
0
 10
185.0
 20
255.35183535807849
 30
0.0
 40
13.6
 50
298.0724869999994
 51
301.92751299999952
  0
LINE
  5
341
  8
0
 10
191.40000000000001
 20
243.3518353580784
 30
0.0
 11
178.59999999999999
 21
243.3518353580784
 31
0.0
  0
CIRCLE
  5
342
  8
0
 10
185.0
 20
255.35183535807849
 30
0.0
 40
16.0
  0
CIRCLE
  5
343
  8
0
 10
185.0
 20
255.35183535807849
 30
0.0
 40
11.5
  0
LINE
  5
345
  8
1
 10
185.0
 20
231.35183535807849
 30
0.0
 11
185.0
 21
279.35183535807852
 31
0.0
  0
LINE
  5
348
  8
0
 10
65.423823067234935
 20
142.60700386978999
 30
0.0
 11
60.423823067234927
 21
147.60700386978999
 31
0.0
  0
LINE
  5
349
  8
0
 10
89.423823067234935
 20
142.60700386978999
 30
0.0
 11
94.423823067234935
 21
147.60700386978999
 31
0.0
  0
LINE
  5
34A
  8
0
 10
89.423823067234935
 20
142.60700386978999
 30
0.0
 11
89.423823067234935
 21
122.60700386979001
 31
0.0
  0
LINE
  5
34B
  8
0
 10
65.423823067234935
 20
142.60700386978999
 30
0.0
 11
65.423823067234935
 21
122.60700386979001
 31
0.0
  0
LINE
  5
34C
  8
0
 10
59.423823067234927
 20
147.60700386978999
 30
0.0
 11
58.423823067234927
 21
146.60700386978999
 31
0.0
  0
LINE
  5
34D
  8
0
 10
96.423823067234935
 20
146.60700386978999
 30
0.0
 11
95.423823067234935
 21
147.60700386978999
 31
0.0
  0
LINE
  5
34E
  8
0
 10
95.423823067234935
 20
122.60700386979001
 30
0.0
 11
96.423823067234935
 21
123.60700386979001
 31
0.0
  0
LINE
  5
34F
  8
0
 10
59.423823067234927
 20
122.60700386979001
 30
0.0
 11
58.423823067234927
 21
123.60700386979001
 31
0.0
  0
LINE
  5
350
  8
0
 10
89.423823067234935
 20
142.60700386978999
 30
0.0
 11
65.423823067234935
 21
142.60700386978999
 31
0.0
  0
LINE
  5
352
  8
0
 10
59.423823067234927
 20
147.60700386978999
 30
0.0
 11
95.423823067234935
 21
147.60700386978999
 31
0.0
  0
LINE
  5
353
  8
0
 10
58.423823067234927
 20
123.60700386979001
 30
0.0
 11
58.423823067234927
 21
146.60700386978999
 31
0.0
  0
LINE
  5
354
  8
0
 10
95.423823067234935
 20
122.60700386979001
 30
0.0
 11
59.423823067234927
 21
122.60700386979001
 31
0.0
  0
LINE
  5
355
  8
0
 10
96.423823067234935
 20
146.60700386978999
 30
0.0
 11
96.423823067234935
 21
123.60700386979001
 31
0.0
  0
LINE
  5
358
  8
0
 10
303.0
 20
122.60700386979001
 30
0.0
 11
304.0
 21
123.60700386979001
 31
0.0
  0
LINE
  5
359
  8
0
 10
266.0
 20
123.60700386979001
 30
0.0
 11
267.0
 21
122.60700386979001
 31
0.0
  0
LINE
  5
35A
  8
0
 10
267.0
 20
147.60700386978999
 30
0.0
 11
266.0
 21
146.60700386978999
 31
0.0
  0
LINE
  5
35B
  8
0
 10
303.0
 20
147.60700386978999
 30
0.0
 11
304.0
 21
146.60700386978999
 31
0.0
  0
LINE
  5
35D
  8
0
 10
293.5
 20
127.60700386979001
 30
0.0
 11
293.5
 21
122.60700386979001
 31
0.0
  0
LINE
  5
35E
  8
0
 10
276.5
 20
127.60700386979001
 30
0.0
 11
276.5
 21
122.60700386979001
 31
0.0
  0
LINE
  5
35F
  8
0
 10
293.5
 20
127.60700386979001
 30
0.0
 11
276.5
 21
127.60700386979001
 31
0.0
  0
LINE
  5
361
  8
0
 10
303.0
 20
122.60700386979001
 30
0.0
 11
267.0
 21
122.60700386979001
 31
0.0
  0
LINE
  5
362
  8
0
 10
304.0
 20
146.60700386978999
 30
0.0
 11
304.0
 21
123.60700386979001
 31
0.0
  0
LINE
  5
363
  8
0
 10
267.0
 20
147.60700386978999
 30
0.0
 11
303.0
 21
147.60700386978999
 31
0.0
  0
LINE
  5
364
  8
0
 10
266.0
 20
123.60700386979001
 30
0.0
 11
266.0
 21
146.60700386978999
 31
0.0
  0
LINE
  5
365
  8
0
 10
212.69059899999999
 20
251.35183535807849
 30
0.0
 11
217.30940100000001
 21
251.35183535807849
 31
0.0
  0
LINE
  5
366
  8
0
 10
217.30940100000001
 20
251.35183535807849
 30
0.0
 11
219.61880199999999
 21
255.35183535807849
 31
0.0
  0
LINE
  5
367
  8
0
 10
219.61880199999999
 20
255.35183535807849
 30
0.0
 11
217.30940100000001
 21
259.35183535807852
 31
0.0
  0
LINE
  5
368
  8
0
 10
217.30940100000001
 20
259.35183535807852
 30
0.0
 11
212.69059899999999
 21
259.35183535807852
 31
0.0
  0
LINE
  5
369
  8
0
 10
212.69059899999999
 20
259.35183535807852
 30
0.0
 11
210.38119800000001
 21
255.35183535807849
 31
0.0
  0
LINE
  5
36A
  8
0
 10
210.38119800000001
 20
255.35183535807849
 30
0.0
 11
212.69059899999999
 21
251.35183535807849
 31
0.0
  0
CIRCLE
  5
36B
  8
0
 10
215.0
 20
255.35183535807849
 30
0.0
 40
8.0
  0
CIRCLE
  5
36C
  8
3
 10
215.0
 20
255.35183535807849
 30
0.0
 40
6.8333330000000103
  0
LINE
  5
36D
  8
1
 10
215.0
 20
276.35183535807852
 30
0.0
 11
215.0
 21
234.35183535807849
 31
0.0
  0
ARC
  5
36F
  8
2
 10
215.0
 20
255.35183535807849
 30
0.0
 40
16.0
 50
20.3641348063178
 51
339.63586519368221
  0
CIRCLE
  5
370
  8
2
 10
215.0
 20
255.35183535807849
 30
0.0
 40
11.0
  0
LINE
  5
372
  8
0
 10
138.043239
 20
271.99560135807849
 30
0.0
 11
138.043239
 21
238.7080693580784
 31
0.0
  0
LINE
  5
373
  8
0
 10
230.0
 20
272.3518353580784
 30
0.0
 11
228.0
 21
274.3518353580784
 31
0.0
  0
LINE
  5
374
  8
0
 10
230.0
 20
238.35183535807849
 30
0.0
 11
228.0
 21
236.35183535807849
 31
0.0
  0
LINE
  5
375
  8
2
 10
185.0
 20
263.85183535807852
 30
0.0
 11
230.0
 21
263.85183535807852
 31
0.0
  0
LINE
  5
376
  8
2
 10
185.0
 20
246.85183535807849
 30
0.0
 11
230.0
 21
246.85183535807849
 31
0.0
  0
LINE
  5
377
  8
0
 10
130.0
 20
267.35183535807852
 30
0.0
 11
142.12435600000001
 21
274.3518353580784
 31
0.0
  0
LINE
  5
378
  8
0
 10
185.0
 20
263.85183535807852
 30
0.0
 11
155.0
 21
263.85183535807852
 31
0.0
  0
LINE
  5
379
  8
0
 10
185.0
 20
246.85183535807849
 30
0.0
 11
155.0
 21
246.85183535807849
 31
0.0
  0
ARC
  5
37B
  8
0
 10
155.0
 20
255.35183535807849
 30
0.0
 40
8.5
 50
90.0
 51
270.0
  0
ARC
  5
37C
  8
2
 10
185.0
 20
255.35183535807849
 30
0.0
 40
8.5
 50
270.0
 51
90.0
  0
LINE
  5
37D
  8
1
 10
240.0
 20
255.35183535807849
 30
0.0
 11
120.0
 21
255.35183535807849
 31
0.0
  0
LINE
  5
37E
  8
1
 10
155.0
 20
241.62661535807851
 30
0.0
 11
155.0
 21
269.63720735807851
 31
0.0
  0
LINE
  5
381
  8
0
 10
130.0
 20
243.3518353580784
 30
0.0
 11
142.12435600000001
 21
236.35183535807849
 31
0.0
  0
LINE
  5
382
  8
0
 10
230.0
 20
272.3518353580784
 30
0.0
 11
230.0
 21
238.35183535807849
 31
0.0
  0
LINE
  5
383
  8
0
 10
142.12435600000001
 20
274.3518353580784
 30
0.0
 11
228.0
 21
274.3518353580784
 31
0.0
  0
LINE
  5
384
  8
0
 10
130.0
 20
243.3518353580784
 30
0.0
 11
130.0
 21
267.35183535807852
 31
0.0
  0
LINE
  5
385
  8
0
 10
228.0
 20
236.35183535807849
 30
0.0
 11
142.12435600000001
 21
236.35183535807849
 31
0.0
  0
ARC
  5
386
  8
0
 10
195.19999999999999
 20
169.3869848697899
 30
0.0
 40
5.3734809999999991
 50
69.252335999999474
 51
129.2523359999997
  0
LINE
  5
387
  8
0
 10
191.80000000000001
 20
173.54802986979001
 30
0.0
 11
191.80000000000001
 21
156.7604658697899
 31
0.0
  0
ARC
  5
388
  8
0
 10
185.0
 20
155.08519386979
 30
0.0
 40
19.675272
 50
69.780873000000142
 51
90.000007999999823
  0
LINE
  5
38A
  8
0
 10
200.5
 20
156.7604658697899
 30
0.0
 11
169.5
 21
156.7604658697899
 31
0.0
  0
LINE
  5
38B
  8
0
 10
169.5
 20
156.7604658697899
 30
0.0
 11
169.0
 21
156.26046586979001
 31
0.0
  0
LINE
  5
38C
  8
0
 10
169.0
 20
156.26046586979001
 30
0.0
 11
169.0
 21
153.36046586979
 31
0.0
  0
LINE
  5
38D
  8
0
 10
171.40000000000001
 20
173.54802986979001
 30
0.0
 11
171.40000000000001
 21
157.16046586978999
 31
0.0
  0
ARC
  5
38E
  8
0
 10
171.0
 20
157.16046586978999
 30
0.0
 40
0.4
 50
270.0
 51
0.0
  0
ARC
  5
38F
  8
0
 10
185.0
 20
155.08519386979
 30
0.0
 40
19.675272
 50
89.999992000000177
 51
110.2191269999998
  0
LINE
  5
390
  8
0
 10
200.5
 20
156.7604658697899
 30
0.0
 11
201.0
 21
156.26046586979001
 31
0.0
  0
ARC
  5
391
  8
0
 10
199.0
 20
157.16046586978999
 30
0.0
 40
0.4
 50
180.0
 51
270.0
  0
LINE
  5
393
  8
0
 10
201.0
 20
156.26046586979001
 30
0.0
 11
201.0
 21
153.36046586979
 31
0.0
  0
LINE
  5
394
  8
0
 10
198.59999999999999
 20
173.54802986979001
 30
0.0
 11
198.59999999999999
 21
157.16046586978999
 31
0.0
  0
LINE
  5
395
  8
0
 10
173.5
 20
174.76046586979001
 30
0.0
 11
196.5
 21
174.76046586979001
 31
0.0
  0
LINE
  5
396
  8
0
 10
178.19999999999999
 20
173.54802986979001
 30
0.0
 11
178.19999999999999
 21
156.7604658697899
 31
0.0
  0
LINE
  5
397
  8
0
 10
198.59999999999999
 20
173.54802986979001
 30
0.0
 11
196.5
 21
174.76046586979001
 31
0.0
  0
ARC
  5
398
  8
0
 10
174.80000000000001
 20
169.3869848697899
 30
0.0
 40
5.3734809999999991
 50
50.747664000000292
 51
110.7476639999999
  0
LINE
  5
399
  8
0
 10
171.40000000000001
 20
173.54802986979001
 30
0.0
 11
173.5
 21
174.76046586979001
 31
0.0
  0
LINE
  5
39A
  8
0
 10
201.0
 20
153.36046586979
 30
0.0
 11
169.0
 21
153.36046586979
 31
0.0
  0
ARC
  5
39B
  8
0
 10
185.0
 20
184.48923086978999
 30
0.0
 40
35.0
 50
242.79710600000041
 51
245.63290704125441
  0
ARC
  5
39C
  8
0
 10
185.0
 20
184.48923086978999
 30
0.0
 40
35.0
 50
294.36709295874567
 51
297.20289399999962
  0
LINE
  5
39E
  8
2
 10
175.5
 20
150.69615986978999
 30
0.0
 11
194.5
 21
150.69615986978999
 31
0.0
  0
LINE
  5
39F
  8
2
 10
175.5
 20
148.10700386978999
 30
0.0
 11
194.5
 21
148.10700386978999
 31
0.0
  0
LINE
  5
3A0
  8
2
 10
175.5
 20
148.10700386978999
 30
0.0
 11
175.0
 21
147.60700386978999
 31
0.0
  0
LINE
  5
3A1
  8
2
 10
175.5
 20
150.69615986978999
 30
0.0
 11
175.5
 21
148.10700386978999
 31
0.0
  0
LINE
  5
3A2
  8
2
 10
170.25
 20
152.60700386978999
 30
0.0
 11
175.5
 21
150.69615986978999
 31
0.0
  0
LINE
  5
3A3
  8
2
 10
194.5
 20
148.10700386978999
 30
0.0
 11
195.0
 21
147.60700386978999
 31
0.0
  0
LINE
  5
3A4
  8
2
 10
194.5
 20
150.69615986978999
 30
0.0
 11
194.5
 21
148.10700386978999
 31
0.0
  0
LINE
  5
3A5
  8
2
 10
199.75
 20
152.60700386978999
 30
0.0
 11
194.5
 21
150.69615986978999
 31
0.0
  0
LINE
  5
3A6
  8
0
 10
169.0
 20
148.10700386978999
 30
0.0
 11
169.5
 21
147.60700386978999
 31
0.0
  0
LINE
  5
3A7
  8
0
 10
169.5
 20
152.60700386978999
 30
0.0
 11
169.0
 21
152.10700386978999
 31
0.0
  0
LINE
  5
3A8
  8
0
 10
201.0
 20
152.10700386978999
 30
0.0
 11
200.5
 21
152.60700386978999
 31
0.0
  0
LINE
  5
3A9
  8
0
 10
201.0
 20
148.10700386978999
 30
0.0
 11
200.5
 21
147.60700386978999
 31
0.0
  0
LINE
  5
3AA
  8
0
 10
169.0
 20
148.10700386978999
 30
0.0
 11
169.0
 21
152.10700386978999
 31
0.0
  0
LINE
  5
3AB
  8
0
 10
201.0
 20
152.10700386978999
 30
0.0
 11
201.0
 21
148.10700386978999
 31
0.0
  0
LINE
  5
3AC
  8
0
 10
169.5
 20
152.60700386978999
 30
0.0
 11
200.5
 21
152.60700386978999
 31
0.0
  0
ARC
  5
3B0
  8
0
 10
65.023823067234929
 20
157.16046586978999
 30
0.0
 40
0.4
 50
270.0
 51
0.0
  0
LINE
  5
3B1
  8
0
 10
77.423823067234935
 20
156.7604658697899
 30
0.0
 11
77.423823067234935
 21
173.39999386978991
 31
0.0
  0
LINE
  5
3B2
  8
0
 10
88.923823067234935
 20
174.76046586979001
 30
0.0
 11
65.923823067234935
 21
174.76046586979001
 31
0.0
  0
LINE
  5
3B3
  8
0
 10
65.423823067234935
 20
174.47179086978991
 30
0.0
 11
65.923823067234935
 21
174.76046586979001
 31
0.0
  0
LINE
  5
3B4
  8
0
 10
65.423823067234935
 20
157.16046586978999
 30
0.0
 11
65.423823067234935
 21
174.47179086978991
 31
0.0
  0
ARC
  5
3B5
  8
0
 10
71.423823067234935
 20
157.14166386978999
 30
0.0
 40
17.33012699999999
 50
69.743841999999887
 51
110.2561580000001
  0
ARC
  5
3B6
  8
0
 10
83.423823067234935
 20
157.14166386978999
 30
0.0
 40
17.33012699999999
 50
69.743841999999887
 51
110.2561580000001
  0
LINE
  5
3B7
  8
0
 10
89.423823067234935
 20
174.47179086978991
 30
0.0
 11
88.923823067234935
 21
174.76046586979001
 31
0.0
  0
ARC
  5
3B8
  8
0
 10
89.82382306723494
 20
157.16046586978999
 30
0.0
 40
0.4
 50
180.0
 51
270.0
  0
LINE
  5
3B9
  8
0
 10
89.423823067234935
 20
157.16046586978999
 30
0.0
 11
89.423823067234935
 21
174.47179086978991
 31
0.0
  0
ARC
  5
3BA
  8
0
 10
77.423823067234935
 20
184.48923086978999
 30
0.0
 40
35.0
 50
294.36709295874567
 51
297.2028940000003
  0
ARC
  5
3BB
  8
0
 10
77.423823067234935
 20
184.48923086978999
 30
0.0
 40
35.0
 50
242.7971059999997
 51
245.63290704125441
  0
LINE
  5
3BC
  8
0
 10
93.423823067234935
 20
153.36046586979
 30
0.0
 11
61.423823067234942
 21
153.36046586979
 31
0.0
  0
LINE
  5
3BD
  8
0
 10
93.423823067234935
 20
156.26046586979001
 30
0.0
 11
93.423823067234935
 21
153.36046586979
 31
0.0
  0
LINE
  5
3BE
  8
0
 10
92.923823067234935
 20
156.7604658697899
 30
0.0
 11
93.423823067234935
 21
156.26046586979001
 31
0.0
  0
LINE
  5
3BF
  8
0
 10
61.423823067234942
 20
156.26046586979001
 30
0.0
 11
61.423823067234942
 21
153.36046586979
 31
0.0
  0
LINE
  5
3C0
  8
0
 10
61.923823067234927
 20
156.7604658697899
 30
0.0
 11
61.423823067234942
 21
156.26046586979001
 31
0.0
  0
LINE
  5
3C1
  8
0
 10
92.923823067234935
 20
156.7604658697899
 30
0.0
 11
61.923823067234927
 21
156.7604658697899
 31
0.0
  0
LINE
  5
3C2
  8
0
 10
92.923823067234935
 20
147.60700386978999
 30
0.0
 11
61.923823067234927
 21
147.60700386978999
 31
0.0
  0
LINE
  5
3C3
  8
2
 10
67.923823067234935
 20
150.69615986978999
 30
0.0
 11
86.923823067234935
 21
150.69615986978999
 31
0.0
  0
LINE
  5
3C4
  8
2
 10
67.923823067234935
 20
148.10700386978999
 30
0.0
 11
86.923823067234935
 21
148.10700386978999
 31
0.0
  0
LINE
  5
3C5
  8
2
 10
67.923823067234935
 20
148.10700386978999
 30
0.0
 11
67.423823067234935
 21
147.60700386978999
 31
0.0
  0
LINE
  5
3C6
  8
2
 10
67.923823067234935
 20
150.69615986978999
 30
0.0
 11
67.923823067234935
 21
148.10700386978999
 31
0.0
  0
LINE
  5
3C7
  8
2
 10
62.673823067234942
 20
152.60700386978999
 30
0.0
 11
67.923823067234935
 21
150.69615986978999
 31
0.0
  0
LINE
  5
3C8
  8
2
 10
86.923823067234935
 20
148.10700386978999
 30
0.0
 11
87.423823067234935
 21
147.60700386978999
 31
0.0
  0
LINE
  5
3C9
  8
2
 10
86.923823067234935
 20
150.69615986978999
 30
0.0
 11
86.923823067234935
 21
148.10700386978999
 31
0.0
  0
LINE
  5
3CA
  8
2
 10
92.173823067234935
 20
152.60700386978999
 30
0.0
 11
86.923823067234935
 21
150.69615986978999
 31
0.0
  0
LINE
  5
3CB
  8
0
 10
61.423823067234942
 20
148.10700386978999
 30
0.0
 11
61.923823067234927
 21
147.60700386978999
 31
0.0
  0
LINE
  5
3CC
  8
0
 10
61.923823067234927
 20
152.60700386978999
 30
0.0
 11
61.423823067234942
 21
152.10700386978999
 31
0.0
  0
LINE
  5
3CD
  8
0
 10
93.423823067234935
 20
152.10700386978999
 30
0.0
 11
92.923823067234935
 21
152.60700386978999
 31
0.0
  0
LINE
  5
3CE
  8
0
 10
93.423823067234935
 20
148.10700386978999
 30
0.0
 11
92.923823067234935
 21
147.60700386978999
 31
0.0
  0
LINE
  5
3CF
  8
0
 10
61.423823067234942
 20
148.10700386978999
 30
0.0
 11
61.423823067234942
 21
152.10700386978999
 31
0.0
  0
LINE
  5
3D0
  8
0
 10
93.423823067234935
 20
152.10700386978999
 30
0.0
 11
93.423823067234935
 21
148.10700386978999
 31
0.0
  0
LINE
  5
3D1
  8
0
 10
61.923823067234927
 20
152.60700386978999
 30
0.0
 11
92.923823067234935
 21
152.60700386978999
 31
0.0
  0
ARC
  5
3D5
  8
0
 10
272.60000000000002
 20
157.16046586978999
 30
0.0
 40
0.4
 50
270.0
 51
0.0
  0
LINE
  5
3D6
  8
0
 10
285.0
 20
168.00700386979
 30
0.0
 11
285.0
 21
173.39999386978991
 31
0.0
  0
LINE
  5
3D7
  8
0
 10
296.5
 20
174.76046586979001
 30
0.0
 11
273.5
 21
174.76046586979001
 31
0.0
  0
LINE
  5
3D8
  8
0
 10
273.0
 20
174.47179086978991
 30
0.0
 11
273.5
 21
174.76046586979001
 31
0.0
  0
LINE
  5
3D9
  8
0
 10
273.0
 20
157.16046586978999
 30
0.0
 11
273.0
 21
174.47179086978991
 31
0.0
  0
ARC
  5
3DA
  8
0
 10
279.0
 20
157.14166386978999
 30
0.0
 40
17.33012699999999
 50
69.743841999999916
 51
110.2561580000001
  0
ARC
  5
3DB
  8
0
 10
291.0
 20
157.14166386978999
 30
0.0
 40
17.33012699999999
 50
69.743841999999916
 51
110.2561580000001
  0
LINE
  5
3DC
  8
0
 10
297.0
 20
174.47179086978991
 30
0.0
 11
296.5
 21
174.76046586979001
 31
0.0
  0
ARC
  5
3DD
  8
0
 10
297.39999999999998
 20
157.16046586978999
 30
0.0
 40
0.4
 50
180.0
 51
270.0
  0
LINE
  5
3DE
  8
0
 10
297.0
 20
157.16046586978999
 30
0.0
 11
297.0
 21
174.47179086978991
 31
0.0
  0
ARC
  5
3DF
  8
0
 10
285.0
 20
184.48923086978999
 30
0.0
 40
35.0
 50
294.36709295874567
 51
297.20289399999962
  0
ARC
  5
3E0
  8
0
 10
285.0
 20
184.48923086978999
 30
0.0
 40
35.0
 50
242.79710600000041
 51
245.6329070412543
  0
LINE
  5
3E1
  8
0
 10
301.0
 20
153.36046586979
 30
0.0
 11
293.0
 21
153.36046586979
 31
0.0
  0
LINE
  5
3E2
  8
0
 10
301.0
 20
156.26046586979001
 30
0.0
 11
301.0
 21
153.36046586979
 31
0.0
  0
LINE
  5
3E3
  8
0
 10
300.5
 20
156.7604658697899
 30
0.0
 11
301.0
 21
156.26046586979001
 31
0.0
  0
LINE
  5
3E4
  8
0
 10
269.0
 20
156.26046586979001
 30
0.0
 11
269.0
 21
153.36046586979
 31
0.0
  0
LINE
  5
3E5
  8
0
 10
269.5
 20
156.7604658697899
 30
0.0
 11
269.0
 21
156.26046586979001
 31
0.0
  0
LINE
  5
3E6
  8
0
 10
300.5
 20
156.7604658697899
 30
0.0
 11
293.0
 21
156.7604658697899
 31
0.0
  0
LINE
  5
3F0
  8
0
 10
269.0
 20
148.10700386978999
 30
0.0
 11
269.5
 21
147.60700386978999
 31
0.0
  0
LINE
  5
3F1
  8
0
 10
269.5
 20
152.60700386978999
 30
0.0
 11
269.0
 21
152.10700386978999
 31
0.0
  0
LINE
  5
3F2
  8
0
 10
301.0
 20
152.10700386978999
 30
0.0
 11
300.5
 21
152.60700386978999
 31
0.0
  0
LINE
  5
3F3
  8
0
 10
301.0
 20
148.10700386978999
 30
0.0
 11
300.5
 21
147.60700386978999
 31
0.0
  0
LINE
  5
3F4
  8
0
 10
269.0
 20
148.10700386978999
 30
0.0
 11
269.0
 21
152.10700386978999
 31
0.0
  0
LINE
  5
3F5
  8
0
 10
301.0
 20
152.10700386978999
 30
0.0
 11
301.0
 21
148.10700386978999
 31
0.0
  0
LINE
  5
3F6
  8
0
 10
269.5
 20
152.60700386978999
 30
0.0
 11
277.0
 21
152.60700386978999
 31
0.0
  0
ARC
  5
3F8
  8
0
 10
215.0
 20
255.35183535807849
 30
0.0
 40
16.0
 50
339.63586519368221
 51
20.3641348063178
  0
LINE
  5
446
  8
0
 10
85.42382306723492
 20
62.607003869789992
 30
0.0
 11
85.423823067234935
 21
40.607003869789992
 31
0.0
  0
LINE
  5
447
  8
3
 10
84.354883067234951
 20
62.607003869789992
 30
0.0
 11
84.354883067234937
 21
39.538064869789991
 31
0.0
  0
LINE
  5
448
  8
3
 10
70.492762067234935
 20
62.607003869789992
 30
0.0
 11
70.492762067234935
 21
39.538064869789991
 31
0.0
  0
LINE
  5
449
  8
0
 10
69.423823067234935
 20
72.607003869789992
 30
0.0
 11
69.423823067234935
 21
122.60700386979001
 31
0.0
  0
LINE
  5
44A
  8
0
 10
85.42382306723492
 20
122.60700386979001
 30
0.0
 11
85.42382306723492
 21
72.607003869789992
 31
0.0
  0
LINE
  5
44B
  8
0
 10
69.423823067234935
 20
174.7604658697899
 30
0.0
 11
69.423823067234935
 21
196.60700386978999
 31
0.0
  0
LINE
  5
44C
  8
0
 10
193.0
 20
62.607003869789992
 30
0.0
 11
193.0
 21
40.607003869789992
 31
0.0
  0
LINE
  5
44D
  8
3
 10
191.93106
 20
62.607003869789992
 30
0.0
 11
191.93106
 21
39.538064869789991
 31
0.0
  0
LINE
  5
44E
  8
3
 10
178.068939
 20
62.607003869789992
 30
0.0
 11
178.068939
 21
39.538064869789991
 31
0.0
  0
LINE
  5
44F
  8
0
 10
177.0
 20
72.607003869789992
 30
0.0
 11
177.0
 21
122.60700386979001
 31
0.0
  0
LINE
  5
450
  8
0
 10
88.423823067234935
 20
72.607003869789992
 30
0.0
 11
88.423823067234935
 21
76.607003869789992
 31
0.0
  0
LINE
  5
451
  8
0
 10
62.423823067234927
 20
69.607003869789992
 30
0.0
 11
65.423823067234935
 21
69.607003869789992
 31
0.0
  0
LINE
  5
452
  8
0
 10
66.423823067234935
 20
72.607003869789992
 30
0.0
 11
66.423823067234935
 21
76.607003869789992
 31
0.0
  0
LINE
  5
453
  8
0
 10
67.423823067234935
 20
77.607003869789992
 30
0.0
 11
69.423823067234935
 21
77.607003869789992
 31
0.0
  0
LINE
  5
454
  8
0
 10
61.423823067234942
 20
63.607003869789992
 30
0.0
 11
61.423823067234942
 21
68.607003869789992
 31
0.0
  0
LINE
  5
455
  8
0
 10
92.423823067234935
 20
62.607003869789992
 30
0.0
 11
62.423823067234927
 21
62.607003869789992
 31
0.0
  0
LINE
  5
456
  8
0
 10
93.423823067234935
 20
63.607003869789992
 30
0.0
 11
93.423823067234935
 21
68.607003869789992
 31
0.0
  0
LINE
  5
457
  8
0
 10
93.423823067234935
 20
63.607003869789992
 30
0.0
 11
92.423823067234935
 21
62.607003869789992
 31
0.0
  0
LINE
  5
458
  8
0
 10
93.423823067234935
 20
68.607003869789992
 30
0.0
 11
92.423823067234935
 21
69.607003869789992
 31
0.0
  0
LINE
  5
459
  8
0
 10
62.423823067234927
 20
69.607003869789992
 30
0.0
 11
61.423823067234942
 21
68.607003869789992
 31
0.0
  0
LINE
  5
45A
  8
0
 10
61.423823067234942
 20
63.607003869789992
 30
0.0
 11
62.423823067234927
 21
62.607003869789992
 31
0.0
  0
ARC
  5
45B
  8
0
 10
63.423823067234927
 20
72.607003869789992
 30
0.0
 40
3.0
 50
270.0
 51
311.81031489577839
  0
ARC
  5
45C
  8
0
 10
91.423823067234935
 20
72.607003869789992
 30
0.0
 40
3.0
 50
228.18968510422141
 51
270.0
  0
LINE
  5
45D
  8
0
 10
88.423823067234935
 20
76.607003869789992
 30
0.0
 11
87.423823067234935
 21
77.607003869789992
 31
0.0
  0
LINE
  5
45E
  8
0
 10
66.423823067234935
 20
76.607003869789992
 30
0.0
 11
67.423823067234935
 21
77.607003869789992
 31
0.0
  0
LINE
  5
45F
  8
0
 10
85.42382306723492
 20
77.607003869789992
 30
0.0
 11
87.423823067234935
 21
77.607003869789992
 31
0.0
  0
LINE
  5
460
  8
0
 10
89.423823067234935
 20
69.607003869789992
 30
0.0
 11
92.423823067234935
 21
69.607003869789992
 31
0.0
  0
LINE
  5
461
  8
0
 10
223.0
 20
147.60700386978999
 30
0.0
 11
223.0
 21
165.34033686979001
 31
0.0
  0
LINE
  5
462
  8
3
 10
221.83333300000001
 20
122.60700386979001
 30
0.0
 11
221.83333300000001
 21
79.073875869789987
 31
0.0
  0
LINE
  5
464
  8
0
 10
207.0
 20
122.60700386979001
 30
0.0
 11
207.0
 21
79.747451869789984
 31
0.0
  0
LINE
  5
465
  8
3
 10
208.16666699999999
 20
122.60700386979001
 30
0.0
 11
208.16666699999999
 21
79.073875869789987
 31
0.0
  0
LINE
  5
46D
  8
0
 10
293.0
 20
62.607003869789992
 30
0.0
 11
293.0
 21
40.607003869789992
 31
0.0
  0
LINE
  5
46E
  8
3
 10
291.93105999999989
 20
62.607003869789992
 30
0.0
 11
291.93106
 21
39.538064869789991
 31
0.0
  0
LINE
  5
46F
  8
3
 10
278.068939
 20
62.607003869789992
 30
0.0
 11
278.068939
 21
39.538064869789991
 31
0.0
  0
LINE
  5
470
  8
0
 10
277.0
 20
77.607003869789992
 30
0.0
 11
277.0
 21
122.60700386979001
 31
0.0
  0
LINE
  5
4B6
  8
0
 10
177.0
 20
174.7604658697899
 30
0.0
 11
177.0
 21
196.60700386978999
 31
0.0
  0
LINE
  5
4B7
  8
0
 10
193.0
 20
122.60700386979001
 30
0.0
 11
193.0
 21
72.607003869789992
 31
0.0
  0
LINE
  5
4FD
  8
0
 10
293.0
 20
122.60700386979001
 30
0.0
 11
293.0
 21
77.607003869789992
 31
0.0
  0
LINE
  5
4FE
  8
0
 10
277.0
 20
174.76046586979001
 30
0.0
 11
277.0
 21
196.60700386978999
 31
0.0
  0
LINE
  5
4FF
  8
3
 10
278.16666700000002
 20
122.60700386979001
 30
0.0
 11
278.16666700000002
 21
79.073875869789987
 31
0.0
  0
LINE
  5
500
  8
0
 10
277.0
 20
122.60700386979001
 30
0.0
 11
277.0
 21
79.747451869789984
 31
0.0
  0
LINE
  5
501
  8
0
 10
293.0
 20
147.60700386978999
 30
0.0
 11
293.0
 21
165.34033686979001
 31
0.0
  0
LINE
  5
502
  8
3
 10
291.83333299999998
 20
122.60700386979001
 30
0.0
 11
291.83333299999998
 21
79.073875869789987
 31
0.0
  0
LINE
  5
549
  8
0
 10
293.0
 20
152.60700386978999
 30
0.0
 11
300.5
 21
152.60700386978999
 31
0.0
  0
LINE
  5
54A
  8
0
 10
277.0
 20
153.36046586979
 30
0.0
 11
269.0
 21
153.36046586979
 31
0.0
  0
LINE
  5
54B
  8
0
 10
277.0
 20
156.7604658697899
 30
0.0
 11
269.5
 21
156.7604658697899
 31
0.0
  0
LINE
  5
54E
  8
0
 10
273.5
 20
72.607003869789992
 30
0.0
 11
274.0
 21
72.607003869789992
 31
0.0
  0
LINE
  5
54F
  8
0
 10
271.14359400000001
 20
71.24653186978999
 30
0.0
 11
271.14359400000001
 21
69.607003869789992
 31
0.0
  0
LINE
  5
550
  8
0
 10
271.14359400000001
 20
71.24653186978999
 30
0.0
 11
273.5
 21
72.607003869789992
 31
0.0
  0
ARC
  5
551
  8
0
 10
274.60769499999998
 20
66.184353869789973
 30
0.0
 40
6.1339750000000004
 50
95.846914318809397
 51
115.6157529999999
  0
LINE
  5
552
  8
0
 10
296.5
 20
72.607003869789992
 30
0.0
 11
296.0
 21
72.607003869789992
 31
0.0
  0
LINE
  5
553
  8
0
 10
298.85640599999999
 20
71.24653186978999
 30
0.0
 11
298.85640599999999
 21
69.607003869789992
 31
0.0
  0
LINE
  5
554
  8
0
 10
298.85640599999999
 20
71.24653186978999
 30
0.0
 11
296.5
 21
72.607003869789992
 31
0.0
  0
ARC
  5
555
  8
0
 10
295.39230500000002
 20
66.184353869789973
 30
0.0
 40
6.1339750000000004
 50
64.384247000000045
 51
84.153085681189381
  0
TEXT
  5
5FF
  8
0
 62
     3
 10
0.0
 20
0.0
 30
0.0
 40
10.0
  1
BJ153-16100B2
  7
STANDARD1
  0
ENDSEC
  0
EOF
