  0
SECTION
  2
HEADER
  9
$ACADVER
  1
AC1009
  9
$INSBASE
 10
82.638099999999994
 20
103.82319099999999
 30
0.0
  9
$EXTMIN
 10
0.0
 20
-2.960436562073669
 30
0.0
  9
$EXTMAX
 10
371.74665818748952
 20
357.1768999051319
 30
0.0
  9
$LIMMIN
 10
0.0
 20
0.0
  9
$LIMMAX
 10
750.0
 20
540.0
  9
$ORTHOMODE
 70
     1
  9
$REGENMODE
 70
     1
  9
$FILLMODE
 70
     1
  9
$QTEXTMODE
 70
     0
  9
$MIRRTEXT
 70
     0
  9
$DRAGMODE
 70
     2
  9
$LTSCALE
 40
20.0
  9
$OSMODE
 70
  3071
  9
$ATTMODE
 70
     1
  9
$TEXTSIZE
 40
0.06
  9
$TRACEWID
 40
0.05
  9
$TEXTSTYLE
  7
STANDARD
  9
$CLAYER
  8
0
  9
$CELTYPE
  6
BYLAYER
  9
$CECOLOR
 62
   256
  9
$DIMSCALE
 40
2.0
  9
$DIMASZ
 40
3.0
  9
$DIMEXO
 40
2.0
  9
$DIMDLI
 40
10.0
  9
$DIMRND
 40
0.0
  9
$DIMDLE
 40
0.0
  9
$DIMEXE
 40
2.0
  9
$DIMTP
 40
0.0
  9
$DIMTM
 40
0.0
  9
$DIMTXT
 40
3.0
  9
$DIMCEN
 40
0.0
  9
$DIMTSZ
 40
0.0
  9
$DIMTOL
 70
     0
  9
$DIMLIM
 70
     0
  9
$DIMTIH
 70
     0
  9
$DIMTOH
 70
     0
  9
$DIMSE1
 70
     0
  9
$DIMSE2
 70
     0
  9
$DIMTAD
 70
     1
  9
$DIMZIN
 70
     0
  9
$DIMBLK
  1

  9
$DIMASO
 70
     0
  9
$DIMSHO
 70
     0
  9
$DIMPOST
  1

  9
$DIMAPOST
  1

  9
$DIMALT
 70
     0
  9
$DIMALTD
 70
     2
  9
$DIMALTF
 40
25.399999999999999
  9
$DIMLFAC
 40
1.0
  9
$DIMTOFL
 70
     1
  9
$DIMTVP
 40
1.6000000000000001
  9
$DIMTIX
 70
     1
  9
$DIMSOXD
 70
     0
  9
$DIMSAH
 70
     0
  9
$DIMBLK1
  1

  9
$DIMBLK2
  1

  9
$DIMSTYLE
  2
STANDARD
  9
$DIMCLRD
 70
     0
  9
$DIMCLRE
 70
     0
  9
$DIMCLRT
 70
     0
  9
$DIMTFAC
 40
1.0
  9
$DIMGAP
 40
0.09
  9
$LUNITS
 70
     2
  9
$LUPREC
 70
     4
  9
$SKETCHINC
 40
0.1
  9
$FILLETRAD
 40
0.0
  9
$AUNITS
 70
     0
  9
$AUPREC
 70
     4
  9
$MENU
  1
E:\r13\win\SUPPORT\ACAD
  9
$ELEVATION
 40
0.0
  9
$PELEVATION
 40
0.0
  9
$THICKNESS
 40
0.0
  9
$LIMCHECK
 70
     0
  9
$BLIPMODE
 70
     0
  9
$CHAMFERA
 40
0.0
  9
$CHAMFERB
 40
0.0
  9
$SKPOLY
 70
     0
  9
$TDCREATE
 40
2449840.3474884261
  9
$TDUPDATE
 40
2456597.6387522798
  9
$TDINDWG
 40
0.0497021296
  9
$TDUSRTIMER
 40
0.0497021296
  9
$USRTIMER
 70
     1
  9
$ANGBASE
 50
0.0
  9
$ANGDIR
 70
     0
  9
$PDMODE
 70
     1
  9
$PDSIZE
 40
0.0
  9
$PLINEWID
 40
0.0
  9
$COORDS
 70
     1
  9
$SPLFRAME
 70
     0
  9
$SPLINETYPE
 70
     6
  9
$SPLINESEGS
 70
     8
  9
$ATTDIA
 70
     0
  9
$ATTREQ
 70
     1
  9
$HANDLING
 70
     1
  9
$HANDSEED
  5
75F
  9
$SURFTAB1
 70
     6
  9
$SURFTAB2
 70
     6
  9
$SURFTYPE
 70
     6
  9
$SURFU
 70
     6
  9
$SURFV
 70
     6
  9
$UCSNAME
  2

  9
$UCSORG
 10
0.0
 20
0.0
 30
0.0
  9
$UCSXDIR
 10
1.0
 20
0.0
 30
0.0
  9
$UCSYDIR
 10
0.0
 20
1.0
 30
0.0
  9
$PUCSNAME
  2

  9
$PUCSORG
 10
0.0
 20
0.0
 30
0.0
  9
$PUCSXDIR
 10
1.0
 20
0.0
 30
0.0
  9
$PUCSYDIR
 10
0.0
 20
1.0
 30
0.0
  9
$USERI1
 70
     3
  9
$USERI2
 70
     1
  9
$USERI3
 70
     0
  9
$USERI4
 70
     0
  9
$USERI5
 70
     0
  9
$USERR1
 40
2.0
  9
$USERR2
 40
3.0
  9
$USERR3
 40
3.0
  9
$USERR4
 40
3.0
  9
$USERR5
 40
10.0
  9
$WORLDVIEW
 70
     1
  9
$SHADEDGE
 70
     3
  9
$SHADEDIF
 70
    70
  9
$TILEMODE
 70
     1
  9
$MAXACTVP
 70
    16
  9
$PLIMCHECK
 70
     0
  9
$PEXTMIN
 10
1.0000000000000000E+020
 20
1.0000000000000000E+020
 30
1.0000000000000000E+020
  9
$PEXTMAX
 10
-1.0000000000000000E+020
 20
-1.0000000000000000E+020
 30
-1.0000000000000000E+020
  9
$PLIMMIN
 10
0.0
 20
0.0
  9
$PLIMMAX
 10
12.0
 20
9.0
  9
$UNITMODE
 70
     0
  9
$VISRETAIN
 70
     0
  9
$PLINEGEN
 70
     0
  9
$PSLTSCALE
 70
     0
  0
ENDSEC
  0
SECTION
  2
TABLES
  0
TABLE
  2
VPORT
 70
     1
  0
VPORT
  2
*ACTIVE
 70
     0
 10
0.0
 20
0.0
 11
1.0
 21
1.0
 12
390.03402345615979
 22
268.50860658393782
 13
0.0
 23
0.0
 14
10.0
 24
10.0
 15
10.0
 25
10.0
 16
0.0
 26
0.0
 36
1.0
 17
0.0
 27
0.0
 37
0.0
 40
547.85258761088789
 41
1.831871345029239
 42
50.0
 43
0.0
 44
0.0
 50
0.0
 51
0.0
 71
     0
 72
   100
 73
     1
 74
     0
 75
     0
 76
     0
 77
     0
 78
     1
  0
ENDTAB
  0
TABLE
  2
LTYPE
 70
     4
  0
LTYPE
  2
CONTINUOUS
 70
     0
  3
Solid Line
 72
    65
 73
     0
 40
0.0
  0
LTYPE
  2
CENTER
 70
     0
  3
____ _ ____ _ ____ _ ____ _ ____ _ ____ _ ____
 72
    65
 73
     4
 40
2.0
 49
1.25
 49
-0.25
 49
0.25
 49
-0.25
  0
LTYPE
  2
HIDDEN
 70
     0
  3
__ __ __ __ __ __ __ __ __ __ __ __ __ __ __ __
 72
    65
 73
     2
 40
0.375
 49
0.25
 49
-0.125
  0
LTYPE
  2
PHANTOM2
 70
     0
  3
___ _ _ ___ _ _ ___ _ _ ___ _ _
 72
    65
 73
     6
 40
1.25
 49
0.625
 49
-0.125
 49
0.125
 49
-0.125
 49
0.125
 49
-0.125
  0
ENDTAB
  0
TABLE
  2
LAYER
 70
     4
  0
LAYER
  2
0
 70
     0
 62
     7
  6
CONTINUOUS
  0
LAYER
  2
1
 70
     0
 62
     1
  6
CENTER
  0
LAYER
  2
2
 70
     0
 62
     2
  6
HIDDEN
  0
LAYER
  2
3
 70
     0
 62
     3
  6
CONTINUOUS
  0
ENDTAB
  0
TABLE
  2
STYLE
 70
     2
  0
STYLE
  2
STANDARD
 70
     0
 40
0.0
 41
1.0
 50
0.0
 71
     0
 42
0.06
  3
TXT
  4
BIGFONT
  0
STYLE
  2
STANDARD1
 70
     0
 40
0.0
 41
1.0
 50
0.0
 71
     0
 42
3.0
  3
txt
  4

  0
ENDTAB
  0
TABLE
  2
VIEW
 70
     0
  0
ENDTAB
  0
TABLE
  2
UCS
 70
     0
  0
ENDTAB
  0
TABLE
  2
APPID
 70
     4
  0
APPID
  2
ACAD
 70
     0
  0
APPID
  2
ACAD_EXEMPT_FROM_CAD_STANDARDS
 70
     0
  0
APPID
  2
ACAD_MLEADERVER
 70
     0
  0
APPID
  2
ACAD_NAV_VCDISPLAY
 70
     0
  0
ENDTAB
  0
TABLE
  2
DIMSTYLE
 70
     1
  0
DIMSTYLE
  2
STANDARD
 70
     0
  3

  4

  5

  6

  7

 40
1.0
 41
0.18
 42
0.0625
 43
0.38
 44
0.18
 45
0.0
 46
0.0
 47
0.0
 48
0.0
140
0.18
141
0.09
142
0.0
143
25.399999999999999
144
1.0
145
0.0
146
1.0
147
0.09
 71
     0
 72
     0
 73
     1
 74
     1
 75
     0
 76
     0
 77
     0
 78
     0
170
     0
171
     2
172
     0
173
     0
174
     0
175
     0
176
     0
177
     0
178
     0
  0
ENDTAB
  0
ENDSEC
  0
SECTION
  2
BLOCKS
  0
BLOCK
  8
0
  2
$MODEL_SPACE
 70
     0
 10
0.0
 20
0.0
 30
0.0
  3
$MODEL_SPACE
  1

  0
ENDBLK
  5
20E
  8
0
  0
BLOCK
 67
     1
  8
0
  2
$PAPER_SPACE
 70
     0
 10
0.0
 20
0.0
 30
0.0
  3
$PAPER_SPACE
  1

  0
ENDBLK
  5
20C
 67
     1
  8
0
  0
ENDSEC
  0
SECTION
  2
ENTITIES
  0
LINE
  5
3B3
  8
0
 10
166.75818754894459
 20
178.1768999051319
 30
0.0
 11
165.75818754894459
 21
179.1768999051319
 31
0.0
  0
LINE
  5
3B4
  8
0
 10
265.7581875489447
 20
179.1768999051319
 30
0.0
 11
264.75818754894459
 21
178.1768999051319
 31
0.0
  0
LINE
  5
3B5
  8
0
 10
264.75818754894459
 20
203.1768999051319
 30
0.0
 11
265.7581875489447
 21
202.1768999051319
 31
0.0
  0
LINE
  5
3B6
  8
2
 10
258.75818754894459
 20
183.1768999051319
 30
0.0
 11
258.75818754894459
 21
203.1768999051319
 31
0.0
  0
LINE
  5
3B7
  8
2
 10
257.67568754894472
 20
183.1768999051319
 30
0.0
 11
257.67568754894472
 21
203.1768999051319
 31
0.0
  0
LINE
  5
3B8
  8
2
 10
243.8406875489446
 20
183.1768999051319
 30
0.0
 11
243.8406875489446
 21
203.1768999051319
 31
0.0
  0
LINE
  5
3B9
  8
2
 10
242.7581875489447
 20
183.1768999051319
 30
0.0
 11
242.7581875489447
 21
203.1768999051319
 31
0.0
  0
LINE
  5
3BA
  8
2
 10
229.25818754894459
 20
183.1768999051319
 30
0.0
 11
229.25818754894459
 21
203.1768999051319
 31
0.0
  0
LINE
  5
3BB
  8
2
 10
182.25818754894459
 20
178.1768999051319
 30
0.0
 11
182.25818754894459
 21
203.1768999051319
 31
0.0
  0
LINE
  5
3BC
  8
1
 10
190.75818754894459
 20
173.1768999051319
 30
0.0
 11
190.75818754894459
 21
208.19568490513191
 31
0.0
  0
LINE
  5
3BF
  8
0
 10
165.75818754894459
 20
198.1768999051319
 30
0.0
 11
174.4184415489446
 21
203.1768999051319
 31
0.0
  0
LINE
  5
3C0
  8
2
 10
265.7581875489447
 20
183.1768999051319
 30
0.0
 11
220.75818754894459
 21
183.1768999051319
 31
0.0
  0
LINE
  5
3C1
  8
0
 10
265.7581875489447
 20
202.1768999051319
 30
0.0
 11
265.7581875489447
 21
179.1768999051319
 31
0.0
  0
LINE
  5
3C2
  8
0
 10
174.4184415489446
 20
203.1768999051319
 30
0.0
 11
264.75818754894459
 21
203.1768999051319
 31
0.0
  0
LINE
  5
3C3
  8
0
 10
165.75818754894459
 20
179.1768999051319
 30
0.0
 11
165.75818754894459
 21
198.1768999051319
 31
0.0
  0
LINE
  5
3C4
  8
0
 10
264.75818754894459
 20
178.1768999051319
 30
0.0
 11
166.75818754894459
 21
178.1768999051319
 31
0.0
  0
LINE
  5
3C5
  8
0
 10
177.8825435489446
 20
203.1768999051319
 30
0.0
 11
177.8825435489446
 21
178.1768999051319
 31
0.0
  0
ARC
  5
3C6
  8
0
 10
96.758187548944633
 20
80.558097905131916
 30
0.0
 40
17.33012699999999
 50
69.743841999999773
 51
110.2561580000002
  0
LINE
  5
3C7
  8
0
 10
102.7581875489446
 20
97.888224905131906
 30
0.0
 11
102.2581875489446
 21
98.176899905131904
 31
0.0
  0
LINE
  5
3C8
  8
0
 10
102.7581875489446
 20
88.465574905131916
 30
0.0
 11
102.2581875489446
 21
88.176899905131904
 31
0.0
  0
ARC
  5
3C9
  8
0
 10
96.758187548944633
 20
105.79570190513191
 30
0.0
 40
17.33012699999999
 50
249.7438419999998
 51
290.25615800000031
  0
LINE
  5
3CA
  8
0
 10
102.7581875489446
 20
97.888224905131906
 30
0.0
 11
102.7581875489446
 21
88.465574905131916
 31
0.0
  0
LINE
  5
3CB
  8
0
 10
90.758187548944647
 20
89.537371905131891
 30
0.0
 11
90.758187548944647
 21
96.816427905131917
 31
0.0
  0
LINE
  5
3CC
  8
0
 10
78.758187548944633
 20
97.888224905131906
 30
0.0
 11
78.758187548944633
 21
88.465574905131916
 31
0.0
  0
ARC
  5
3CD
  8
0
 10
84.758187548944647
 20
105.79570190513191
 30
0.0
 40
17.33012699999999
 50
249.7438419999998
 51
290.25615800000031
  0
LINE
  5
3CE
  8
0
 10
78.758187548944633
 20
88.465574905131916
 30
0.0
 11
79.258187548944633
 21
88.176899905131904
 31
0.0
  0
LINE
  5
3CF
  8
0
 10
78.758187548944633
 20
97.888224905131906
 30
0.0
 11
79.258187548944633
 21
98.176899905131904
 31
0.0
  0
ARC
  5
3D0
  8
0
 10
84.758187548944647
 20
80.558097905131916
 30
0.0
 40
17.33012699999999
 50
69.743841999999773
 51
110.2561580000002
  0
LINE
  5
3D1
  8
0
 10
79.258187548944633
 20
98.176899905131904
 30
0.0
 11
102.2581875489446
 21
98.176899905131904
 31
0.0
  0
LINE
  5
3D2
  8
0
 10
102.2581875489446
 20
88.176899905131904
 30
0.0
 11
79.258187548944633
 21
88.176899905131904
 31
0.0
  0
LINE
  5
3D3
  8
1
 10
90.758187548944647
 20
263.6768999051319
 30
0.0
 11
90.758187548944647
 21
48.676899905131897
 31
0.0
  0
LINE
  5
3D4
  8
0
 10
96.787755548944659
 20
56.176899905131897
 30
0.0
 11
84.787755548944659
 21
56.176899905131897
 31
0.0
  0
LINE
  5
3D5
  8
0
 10
98.787755548944673
 20
58.176899905131911
 30
0.0
 11
96.787755548944659
 21
56.176899905131897
 31
0.0
  0
LINE
  5
3D6
  8
0
 10
82.787755548944645
 20
58.176899905131911
 30
0.0
 11
84.787755548944659
 21
56.176899905131897
 31
0.0
  0
LINE
  5
3D7
  8
0
 10
82.787755548944645
 20
254.1768999051319
 30
0.0
 11
98.787755548944673
 21
254.1768999051319
 31
0.0
  0
LINE
  5
3D8
  8
3
 10
83.856694548944674
 20
230.33036190513189
 30
0.0
 11
83.856694548944674
 21
255.2458389051319
 31
0.0
  0
LINE
  5
3DC
  8
3
 10
97.718815548944633
 20
230.33036190513189
 30
0.0
 11
97.718815548944633
 21
255.2458389051319
 31
0.0
  0
LINE
  5
3DD
  8
3
 10
97.718815548944633
 20
106.1768999051319
 30
0.0
 11
97.718815548944633
 21
98.176899905131904
 31
0.0
  0
LINE
  5
3DE
  8
3
 10
98.817323548944657
 20
108.0283569051319
 30
0.0
 11
97.748383548944645
 21
106.1768999051319
 31
0.0
  0
LINE
  5
3DF
  8
0
 10
82.817323548944628
 20
106.1768999051319
 30
0.0
 11
98.817323548944657
 21
106.1768999051319
 31
0.0
  0
LINE
  5
3E0
  8
3
 10
83.856694548944674
 20
106.1768999051319
 30
0.0
 11
83.856694548944674
 21
98.176899905131904
 31
0.0
  0
LINE
  5
3E1
  8
3
 10
82.817323548944628
 20
108.0283569051319
 30
0.0
 11
83.886262548944643
 21
106.1768999051319
 31
0.0
  0
LINE
  5
3E2
  8
0
 10
82.787755548944645
 20
58.176899905131911
 30
0.0
 11
98.787755548944673
 21
58.176899905131911
 31
0.0
  0
LINE
  5
3E3
  8
0
 10
82.787755548944645
 20
254.1768999051319
 30
0.0
 11
84.787755548944659
 21
256.1768999051319
 31
0.0
  0
LINE
  5
3E4
  8
0
 10
98.787755548944673
 20
254.1768999051319
 30
0.0
 11
96.787755548944659
 21
256.1768999051319
 31
0.0
  0
LINE
  5
3E5
  8
0
 10
98.787755548944673
 20
254.1768999051319
 30
0.0
 11
98.787755548944673
 21
230.33036190513189
 31
0.0
  0
LINE
  5
3E6
  8
0
 10
84.787755548944659
 20
256.1768999051319
 30
0.0
 11
96.787755548944659
 21
256.1768999051319
 31
0.0
  0
LINE
  5
3E7
  8
0
 10
82.787755548944645
 20
58.176899905131911
 30
0.0
 11
82.787755548944645
 21
88.176899905131904
 31
0.0
  0
LINE
  5
3E8
  8
1
 10
352.74665818748952
 20
263.6768999051319
 30
0.0
 11
352.74665818748952
 21
48.676899905131897
 31
0.0
  0
LINE
  5
3E9
  8
0
 10
358.74665818748952
 20
56.176899905131897
 30
0.0
 11
346.74665818748952
 21
56.176899905131897
 31
0.0
  0
LINE
  5
3EA
  8
0
 10
360.74665818748952
 20
58.176899905131911
 30
0.0
 11
358.74665818748952
 21
56.176899905131897
 31
0.0
  0
LINE
  5
3EB
  8
0
 10
344.74665818748952
 20
58.176899905131911
 30
0.0
 11
346.74665818748952
 21
56.176899905131897
 31
0.0
  0
LINE
  5
3EC
  8
0
 10
344.74665818748952
 20
254.1768999051319
 30
0.0
 11
360.74665818748952
 21
254.1768999051319
 31
0.0
  0
LINE
  5
3ED
  8
3
 10
345.81559718748952
 20
242.61034290513189
 30
0.0
 11
345.81559718748952
 21
255.2458389051319
 31
0.0
  0
LINE
  5
3F1
  8
3
 10
359.67771818748957
 20
242.6103439051318
 30
0.0
 11
359.67771818748952
 21
255.2458389051319
 31
0.0
  0
LINE
  5
3F2
  8
3
 10
359.67771818748952
 20
104.9242509313754
 30
0.0
 11
359.67771818748957
 21
103.1768999051319
 31
0.0
  0
LINE
  5
3F5
  8
3
 10
345.81559718748952
 20
104.9242515087259
 30
0.0
 11
345.81559718748952
 21
103.1768999051319
 31
0.0
  0
LINE
  5
3F7
  8
0
 10
344.74665818748952
 20
58.176899905131911
 30
0.0
 11
360.74665818748952
 21
58.176899905131911
 31
0.0
  0
LINE
  5
3F8
  8
0
 10
344.74665818748952
 20
254.1768999051319
 30
0.0
 11
346.74665818748952
 21
256.1768999051319
 31
0.0
  0
LINE
  5
3F9
  8
0
 10
360.74665818748952
 20
254.1768999051319
 30
0.0
 11
358.74665818748952
 21
256.1768999051319
 31
0.0
  0
LINE
  5
3FA
  8
0
 10
360.74665818748952
 20
254.1768999051319
 30
0.0
 11
360.74665818748957
 21
203.1768999051319
 31
0.0
  0
LINE
  5
3FB
  8
0
 10
346.74665818748952
 20
256.1768999051319
 30
0.0
 11
358.74665818748952
 21
256.1768999051319
 31
0.0
  0
LINE
  5
3FC
  8
0
 10
344.74665818748952
 20
58.176899905131911
 30
0.0
 11
344.74665818748952
 21
88.176899905131904
 31
0.0
  0
LINE
  5
3FE
  8
0
 10
337.74665818748952
 20
88.176899905131904
 30
0.0
 11
367.74665818748952
 21
88.176899905131904
 31
0.0
  0
LINE
  5
3FF
  8
0
 10
368.74665818748952
 20
89.176899905131904
 30
0.0
 11
368.74665818748952
 21
94.176899905131904
 31
0.0
  0
LINE
  5
401
  8
0
 10
363.74665818748952
 20
98.176899905131904
 30
0.0
 11
363.74665818748952
 21
102.1768999051319
 31
0.0
  0
LINE
  5
402
  8
0
 10
362.74665818748952
 20
103.1768999051319
 30
0.0
 11
342.74665818748952
 21
103.1768999051319
 31
0.0
  0
LINE
  5
403
  8
0
 10
341.74665818748952
 20
102.1768999051319
 30
0.0
 11
341.74665818748952
 21
98.176899905131904
 31
0.0
  0
LINE
  5
405
  8
0
 10
336.74665818748952
 20
94.176899905131904
 30
0.0
 11
336.74665818748952
 21
89.176899905131904
 31
0.0
  0
LINE
  5
406
  8
0
 10
337.74665818748952
 20
88.176899905131904
 30
0.0
 11
336.74665818748952
 21
89.176899905131904
 31
0.0
  0
LINE
  5
407
  8
0
 10
367.74665818748952
 20
88.176899905131904
 30
0.0
 11
368.74665818748952
 21
89.176899905131904
 31
0.0
  0
LINE
  5
408
  8
0
 10
368.74665818748952
 20
94.176899905131904
 30
0.0
 11
367.74665818748952
 21
95.176899905131904
 31
0.0
  0
LINE
  5
409
  8
0
 10
363.74665818748952
 20
102.1768999051319
 30
0.0
 11
362.74665818748952
 21
103.1768999051319
 31
0.0
  0
LINE
  5
40A
  8
0
 10
341.74665818748952
 20
102.1768999051319
 30
0.0
 11
342.74665818748952
 21
103.1768999051319
 31
0.0
  0
LINE
  5
40B
  8
0
 10
336.74665818748952
 20
94.176899905131904
 30
0.0
 11
337.74665818748952
 21
95.176899905131904
 31
0.0
  0
ARC
  5
40C
  8
0
 10
366.74665818748952
 20
98.176899905131904
 30
0.0
 40
3.0
 50
180.0
 51
270.0
  0
ARC
  5
40D
  8
0
 10
338.74665818748952
 20
98.176899905131904
 30
0.0
 40
3.0
 50
270.0
 51
0.0
  0
LINE
  5
40E
  8
0
 10
358.74665818748952
 20
243.54140390513189
 30
0.0
 11
346.74665818748952
 21
243.54140390513189
 31
0.0
  0
LINE
  5
410
  8
0
 10
344.74665818748952
 20
105.5414039051319
 30
0.0
 11
360.74665818748952
 21
105.5414039051319
 31
0.0
  0
LINE
  5
411
  8
0
 10
360.74665818748952
 20
105.5414039051319
 30
0.0
 11
360.7466581874894
 21
178.1768999051319
 31
0.0
  0
LINE
  5
412
  8
0
 10
358.74665818748952
 20
243.54140390513189
 30
0.0
 11
360.74665818748952
 21
241.54140390513189
 31
0.0
  0
LINE
  5
413
  8
0
 10
346.74665818748952
 20
243.54140390513189
 30
0.0
 11
344.74665818748952
 21
241.54140390513189
 31
0.0
  0
LINE
  5
414
  8
0
 10
360.74665818748952
 20
241.54140390513189
 30
0.0
 11
344.74665818748952
 21
241.54140390513189
 31
0.0
  0
LINE
  5
415
  8
0
 10
344.74665818748952
 20
105.5414039051319
 30
0.0
 11
347.04665818748953
 21
104.2134979051319
 31
0.0
  0
LINE
  5
416
  8
3
 10
345.8296581874896
 20
242.624403905132
 30
0.0
 11
345.82965818748949
 21
203.1768999051319
 31
0.0
  0
LINE
  5
417
  8
0
 10
360.74665818748952
 20
105.5414039051319
 30
0.0
 11
358.44665818748962
 21
104.2134979051319
 31
0.0
  0
LINE
  5
418
  8
0
 10
358.24665818748952
 20
103.8670879051319
 30
0.0
 11
358.24665818748952
 21
103.1768999051319
 31
0.0
  0
LINE
  5
419
  8
0
 10
347.24665818748952
 20
103.8670879051319
 30
0.0
 11
347.24665818748952
 21
103.1768999051319
 31
0.0
  0
LINE
  5
41A
  8
0
 10
358.19665818748962
 20
104.0980279051319
 30
0.0
 11
347.29665818748953
 21
104.0980279051319
 31
0.0
  0
ARC
  5
41B
  8
0
 10
346.8466581874896
 20
103.8670879051319
 30
0.0
 40
0.4
 50
0.0
 51
60.000000000000071
  0
ARC
  5
41C
  8
0
 10
358.64665818748949
 20
103.8670879051319
 30
0.0
 40
0.4
 50
119.9999999999999
 51
180.0
  0
LINE
  5
41D
  8
3
 10
359.66365818748949
 20
242.62440390513191
 30
0.0
 11
359.66365818748949
 21
203.1768999051319
 31
0.0
  0
LINE
  5
41E
  8
0
 10
337.74665818748952
 20
95.176899905131904
 30
0.0
 11
367.74665818748952
 21
95.176899905131904
 31
0.0
  0
LINE
  5
41F
  8
0
 10
232.2581875489447
 20
88.176899905131904
 30
0.0
 11
209.25818754894459
 21
88.176899905131904
 31
0.0
  0
LINE
  5
420
  8
0
 10
209.25818754894459
 20
98.176899905131904
 30
0.0
 11
232.2581875489447
 21
98.176899905131904
 31
0.0
  0
ARC
  5
421
  8
0
 10
231.1504925489447
 20
91.754249905131914
 30
0.0
 40
6.1339750000000004
 50
64.384247000000116
 51
124.3842470000003
  0
LINE
  5
422
  8
0
 10
234.61459354894461
 20
96.816427905131889
 30
0.0
 11
232.2581875489447
 21
98.176899905131904
 31
0.0
  0
LINE
  5
423
  8
0
 10
234.61459354894461
 20
89.537371905131891
 30
0.0
 11
232.2581875489447
 21
88.176899905131904
 31
0.0
  0
ARC
  5
424
  8
0
 10
231.1504925489447
 20
94.599549905131909
 30
0.0
 40
6.1339750000000004
 50
235.61575299999981
 51
295.61575299999998
  0
LINE
  5
425
  8
0
 10
234.61459354894461
 20
96.816427905131889
 30
0.0
 11
234.61459354894461
 21
89.537371905131891
 31
0.0
  0
LINE
  5
426
  8
0
 10
227.6863905489447
 20
96.816427905131889
 30
0.0
 11
227.6863905489447
 21
89.537371905131891
 31
0.0
  0
LINE
  5
427
  8
0
 10
213.82998454894459
 20
96.816427905131917
 30
0.0
 11
213.82998454894459
 21
89.537371905131891
 31
0.0
  0
LINE
  5
428
  8
0
 10
206.90178154894471
 20
96.816427905131917
 30
0.0
 11
206.90178154894471
 21
89.537371905131934
 31
0.0
  0
ARC
  5
429
  8
0
 10
220.75818754894459
 20
111.3937779051319
 30
0.0
 40
22.928203
 50
252.412046000001
 51
287.58795399999912
  0
ARC
  5
42A
  8
0
 10
210.3658825489446
 20
94.599549905131909
 30
0.0
 40
6.1339750000000004
 50
244.38424699999999
 51
304.3842470000003
  0
LINE
  5
42B
  8
0
 10
206.90178154894471
 20
89.537371905131934
 30
0.0
 11
209.25818754894459
 21
88.176899905131904
 31
0.0
  0
LINE
  5
42C
  8
0
 10
206.90178154894471
 20
96.816427905131917
 30
0.0
 11
209.25818754894459
 21
98.176899905131904
 31
0.0
  0
ARC
  5
42D
  8
0
 10
210.3658825489446
 20
91.754249905131914
 30
0.0
 40
6.1339750000000004
 50
55.61575299999965
 51
115.6157529999999
  0
ARC
  5
42E
  8
0
 10
220.75818754894459
 20
74.960021905131896
 30
0.0
 40
22.928203
 50
72.412046000000942
 51
107.587953999999
  0
LINE
  5
42F
  8
1
 10
220.75818754894459
 20
263.6768999051319
 30
0.0
 11
220.75818754894459
 21
48.676899905131897
 31
0.0
  0
LINE
  5
430
  8
0
 10
226.7877555489446
 20
56.176899905131897
 30
0.0
 11
214.7877555489446
 21
56.176899905131897
 31
0.0
  0
LINE
  5
431
  8
0
 10
228.7877555489446
 20
58.176899905131911
 30
0.0
 11
226.7877555489446
 21
56.176899905131897
 31
0.0
  0
LINE
  5
432
  8
0
 10
212.7877555489446
 20
58.176899905131911
 30
0.0
 11
214.7877555489446
 21
56.176899905131897
 31
0.0
  0
LINE
  5
433
  8
0
 10
212.7877555489446
 20
254.1768999051319
 30
0.0
 11
228.7877555489446
 21
254.1768999051319
 31
0.0
  0
LINE
  5
434
  8
3
 10
213.8566945489446
 20
230.33036190513189
 30
0.0
 11
213.8566945489446
 21
255.2458389051319
 31
0.0
  0
LINE
  5
438
  8
3
 10
227.7188155489446
 20
230.33036190513189
 30
0.0
 11
227.7188155489446
 21
255.2458389051319
 31
0.0
  0
LINE
  5
439
  8
3
 10
227.7188155489446
 20
106.1768999051319
 30
0.0
 11
227.7188155489446
 21
98.176899905131904
 31
0.0
  0
LINE
  5
43A
  8
3
 10
228.8173235489447
 20
108.0283569051319
 30
0.0
 11
227.7483835489447
 21
106.1768999051319
 31
0.0
  0
LINE
  5
43B
  8
0
 10
212.8173235489447
 20
106.1768999051319
 30
0.0
 11
228.8173235489447
 21
106.1768999051319
 31
0.0
  0
LINE
  5
43C
  8
3
 10
213.8566945489446
 20
106.1768999051319
 30
0.0
 11
213.8566945489446
 21
98.176899905131904
 31
0.0
  0
LINE
  5
43D
  8
3
 10
212.8173235489447
 20
108.0283569051319
 30
0.0
 11
213.8862625489447
 21
106.1768999051319
 31
0.0
  0
LINE
  5
43E
  8
0
 10
212.7877555489446
 20
58.176899905131911
 30
0.0
 11
228.7877555489446
 21
58.176899905131911
 31
0.0
  0
LINE
  5
43F
  8
0
 10
212.7877555489446
 20
254.1768999051319
 30
0.0
 11
214.7877555489446
 21
256.1768999051319
 31
0.0
  0
LINE
  5
440
  8
0
 10
228.7877555489446
 20
254.1768999051319
 30
0.0
 11
226.7877555489446
 21
256.1768999051319
 31
0.0
  0
LINE
  5
441
  8
0
 10
228.7877555489446
 20
254.1768999051319
 30
0.0
 11
228.7877555489446
 21
230.33036190513189
 31
0.0
  0
LINE
  5
442
  8
0
 10
214.7877555489446
 20
256.1768999051319
 30
0.0
 11
226.7877555489446
 21
256.1768999051319
 31
0.0
  0
LINE
  5
443
  8
0
 10
212.7877555489446
 20
58.176899905131911
 30
0.0
 11
212.7877555489446
 21
88.176899905131904
 31
0.0
  0
LINE
  5
444
  8
1
 10
250.75818754894459
 20
251.1768999051319
 30
0.0
 11
250.75818754894459
 21
80.176899905131904
 31
0.0
  0
LINE
  5
445
  8
0
 10
235.75818754894459
 20
88.176899905131904
 30
0.0
 11
265.7581875489447
 21
88.176899905131904
 31
0.0
  0
LINE
  5
446
  8
0
 10
266.75818754894459
 20
89.176899905131904
 30
0.0
 11
266.75818754894459
 21
94.176899905131904
 31
0.0
  0
LINE
  5
448
  8
0
 10
261.7581875489447
 20
98.176899905131904
 30
0.0
 11
261.7581875489447
 21
102.1768999051319
 31
0.0
  0
LINE
  5
449
  8
0
 10
260.75818754894459
 20
103.1768999051319
 30
0.0
 11
240.7581875489447
 21
103.1768999051319
 31
0.0
  0
LINE
  5
44A
  8
0
 10
239.75818754894459
 20
102.1768999051319
 30
0.0
 11
239.75818754894459
 21
98.176899905131904
 31
0.0
  0
LINE
  5
44C
  8
0
 10
234.7581875489447
 20
94.176899905131904
 30
0.0
 11
234.7581875489447
 21
89.176899905131904
 31
0.0
  0
LINE
  5
44D
  8
0
 10
235.75818754894459
 20
88.176899905131904
 30
0.0
 11
234.7581875489447
 21
89.176899905131904
 31
0.0
  0
LINE
  5
44E
  8
0
 10
265.7581875489447
 20
88.176899905131904
 30
0.0
 11
266.75818754894459
 21
89.176899905131904
 31
0.0
  0
LINE
  5
44F
  8
0
 10
266.75818754894459
 20
94.176899905131904
 30
0.0
 11
265.7581875489447
 21
95.176899905131904
 31
0.0
  0
LINE
  5
450
  8
0
 10
261.7581875489447
 20
102.1768999051319
 30
0.0
 11
260.75818754894459
 21
103.1768999051319
 31
0.0
  0
LINE
  5
451
  8
0
 10
239.75818754894459
 20
102.1768999051319
 30
0.0
 11
240.7581875489447
 21
103.1768999051319
 31
0.0
  0
LINE
  5
452
  8
0
 10
234.7581875489447
 20
94.176899905131904
 30
0.0
 11
235.75818754894459
 21
95.176899905131904
 31
0.0
  0
ARC
  5
453
  8
0
 10
264.75818754894459
 20
98.176899905131904
 30
0.0
 40
3.0
 50
180.0
 51
270.0
  0
ARC
  5
454
  8
0
 10
236.7581875489447
 20
98.176899905131904
 30
0.0
 40
3.0
 50
270.0
 51
0.0
  0
LINE
  5
455
  8
0
 10
256.75818754894459
 20
243.54140390513189
 30
0.0
 11
244.7581875489447
 21
243.54140390513189
 31
0.0
  0
LINE
  5
456
  8
0
 10
242.7581875489447
 20
241.54140390513189
 30
0.0
 11
242.7581875489447
 21
203.1768999051319
 31
0.0
  0
LINE
  5
457
  8
0
 10
242.7581875489447
 20
105.5414039051319
 30
0.0
 11
258.75818754894459
 21
105.5414039051319
 31
0.0
  0
LINE
  5
458
  8
0
 10
258.75818754894459
 20
105.5414039051319
 30
0.0
 11
258.75818754894459
 21
178.1768999051319
 31
0.0
  0
LINE
  5
459
  8
0
 10
256.75818754894459
 20
243.54140390513189
 30
0.0
 11
258.75818754894459
 21
241.54140390513189
 31
0.0
  0
LINE
  5
45A
  8
0
 10
244.7581875489447
 20
243.54140390513189
 30
0.0
 11
242.7581875489447
 21
241.54140390513189
 31
0.0
  0
LINE
  5
45B
  8
0
 10
258.75818754894459
 20
241.54140390513189
 30
0.0
 11
242.7581875489447
 21
241.54140390513189
 31
0.0
  0
LINE
  5
45C
  8
0
 10
242.7581875489447
 20
105.5414039051319
 30
0.0
 11
245.05818754894469
 21
104.2134979051319
 31
0.0
  0
LINE
  5
45D
  8
3
 10
243.8411875489447
 20
242.624403905132
 30
0.0
 11
243.8411875489447
 21
203.1768999051319
 31
0.0
  0
LINE
  5
45E
  8
0
 10
258.75818754894459
 20
105.5414039051319
 30
0.0
 11
256.45818754894458
 21
104.2134979051319
 31
0.0
  0
LINE
  5
45F
  8
0
 10
256.25818754894459
 20
103.8670879051319
 30
0.0
 11
256.25818754894459
 21
103.1768999051319
 31
0.0
  0
LINE
  5
460
  8
0
 10
245.2581875489447
 20
103.8670879051319
 30
0.0
 11
245.2581875489447
 21
103.1768999051319
 31
0.0
  0
LINE
  5
461
  8
0
 10
256.20818754894458
 20
104.0980279051319
 30
0.0
 11
245.30818754894469
 21
104.0980279051319
 31
0.0
  0
ARC
  5
462
  8
0
 10
244.8581875489447
 20
103.8670879051319
 30
0.0
 40
0.4
 50
0.0
 51
60.000000000000071
  0
ARC
  5
463
  8
0
 10
256.65818754894462
 20
103.8670879051319
 30
0.0
 40
0.4
 50
119.9999999999999
 51
180.0
  0
LINE
  5
464
  8
3
 10
257.67518754894462
 20
242.62440390513191
 30
0.0
 11
257.67518754894468
 21
203.1768999051319
 31
0.0
  0
LINE
  5
465
  8
0
 10
235.75818754894459
 20
95.176899905131904
 30
0.0
 11
265.7581875489447
 21
95.176899905131904
 31
0.0
  0
CIRCLE
  5
468
  8
3
 10
220.75818754894459
 20
333.1768999051319
 30
0.0
 40
7.0
  0
CIRCLE
  5
469
  8
0
 10
220.75818754894459
 20
333.1768999051319
 30
0.0
 40
8.0
  0
LINE
  5
46A
  8
0
 10
234.35049254894469
 20
332.71946290513188
 30
0.0
 11
227.9504925489446
 21
321.63433690513187
 31
0.0
  0
ARC
  5
46B
  8
0
 10
220.75818754894459
 20
333.1768999051319
 30
0.0
 40
13.6
 50
358.07248700000048
 51
1.9275129999994181
  0
ARC
  5
46C
  8
0
 10
220.75818754894459
 20
333.1768999051319
 30
0.0
 40
13.6
 50
58.072486999998283
 51
61.927513000000722
  0
LINE
  5
46D
  8
0
 10
227.9504925489446
 20
344.71946290513188
 30
0.0
 11
234.35049254894469
 21
333.63433690513199
 31
0.0
  0
ARC
  5
46E
  8
0
 10
220.75818754894459
 20
333.1768999051319
 30
0.0
 40
13.6
 50
118.0724869999993
 51
121.9275130000017
  0
LINE
  5
46F
  8
0
 10
214.3581875489447
 20
345.1768999051319
 30
0.0
 11
227.1581875489446
 21
345.1768999051319
 31
0.0
  0
ARC
  5
470
  8
0
 10
220.75818754894459
 20
333.1768999051319
 30
0.0
 40
13.6
 50
178.07248700000059
 51
181.92751299999941
  0
LINE
  5
471
  8
0
 10
207.16588254894461
 20
333.63433690513199
 30
0.0
 11
213.5658825489447
 21
344.71946290513188
 31
0.0
  0
ARC
  5
472
  8
0
 10
220.75818754894459
 20
333.1768999051319
 30
0.0
 40
13.6
 50
238.0724869999984
 51
241.9275130000006
  0
LINE
  5
473
  8
0
 10
213.5658825489447
 20
321.63433690513187
 30
0.0
 11
207.16588254894461
 21
332.71946290513188
 31
0.0
  0
ARC
  5
474
  8
0
 10
220.75818754894459
 20
333.1768999051319
 30
0.0
 40
13.6
 50
298.07248699999928
 51
301.92751300000162
  0
LINE
  5
475
  8
0
 10
227.1581875489446
 20
321.1768999051319
 30
0.0
 11
214.3581875489447
 21
321.1768999051319
 31
0.0
  0
CIRCLE
  5
476
  8
0
 10
220.75818754894459
 20
333.1768999051319
 30
0.0
 40
16.0
  0
CIRCLE
  5
477
  8
0
 10
220.75818754894459
 20
333.1768999051319
 30
0.0
 40
11.5
  0
LINE
  5
479
  8
1
 10
220.75818754894459
 20
309.1768999051319
 30
0.0
 11
220.75818754894459
 21
357.1768999051319
 31
0.0
  0
LINE
  5
47C
  8
0
 10
78.758187548944633
 20
198.1768999051319
 30
0.0
 11
73.758187548944633
 21
203.1768999051319
 31
0.0
  0
LINE
  5
47D
  8
0
 10
102.7581875489446
 20
198.1768999051319
 30
0.0
 11
107.7581875489446
 21
203.1768999051319
 31
0.0
  0
LINE
  5
47E
  8
0
 10
102.7581875489446
 20
198.1768999051319
 30
0.0
 11
102.7581875489446
 21
178.1768999051319
 31
0.0
  0
LINE
  5
47F
  8
0
 10
78.758187548944633
 20
198.1768999051319
 30
0.0
 11
78.758187548944633
 21
178.1768999051319
 31
0.0
  0
LINE
  5
480
  8
0
 10
72.758187548944647
 20
203.1768999051319
 30
0.0
 11
71.758187548944633
 21
202.1768999051319
 31
0.0
  0
LINE
  5
481
  8
0
 10
109.7581875489446
 20
202.1768999051319
 30
0.0
 11
108.7581875489446
 21
203.1768999051319
 31
0.0
  0
LINE
  5
482
  8
0
 10
108.7581875489446
 20
178.1768999051319
 30
0.0
 11
109.7581875489446
 21
179.1768999051319
 31
0.0
  0
LINE
  5
483
  8
0
 10
72.758187548944647
 20
178.1768999051319
 30
0.0
 11
71.758187548944633
 21
179.1768999051319
 31
0.0
  0
LINE
  5
484
  8
0
 10
102.7581875489446
 20
198.1768999051319
 30
0.0
 11
78.758187548944633
 21
198.1768999051319
 31
0.0
  0
LINE
  5
486
  8
0
 10
72.758187548944647
 20
203.1768999051319
 30
0.0
 11
108.7581875489446
 21
203.1768999051319
 31
0.0
  0
LINE
  5
487
  8
0
 10
71.758187548944633
 20
179.1768999051319
 30
0.0
 11
71.758187548944633
 21
202.1768999051319
 31
0.0
  0
LINE
  5
488
  8
0
 10
108.7581875489446
 20
178.1768999051319
 30
0.0
 11
72.758187548944647
 21
178.1768999051319
 31
0.0
  0
LINE
  5
489
  8
0
 10
109.7581875489446
 20
202.1768999051319
 30
0.0
 11
109.7581875489446
 21
179.1768999051319
 31
0.0
  0
LINE
  5
48C
  8
0
 10
370.74665818748952
 20
178.1768999051319
 30
0.0
 11
371.74665818748952
 21
179.1768999051319
 31
0.0
  0
LINE
  5
48D
  8
0
 10
333.74665818748952
 20
179.1768999051319
 30
0.0
 11
334.74665818748952
 21
178.1768999051319
 31
0.0
  0
LINE
  5
48E
  8
0
 10
334.74665818748952
 20
203.1768999051319
 30
0.0
 11
333.74665818748952
 21
202.1768999051319
 31
0.0
  0
LINE
  5
48F
  8
0
 10
370.74665818748952
 20
203.1768999051319
 30
0.0
 11
371.74665818748952
 21
202.1768999051319
 31
0.0
  0
LINE
  5
491
  8
0
 10
361.24665818748952
 20
183.1768999051319
 30
0.0
 11
361.24665818748952
 21
178.1768999051319
 31
0.0
  0
LINE
  5
492
  8
0
 10
344.24665818748952
 20
183.1768999051319
 30
0.0
 11
344.24665818748952
 21
178.1768999051319
 31
0.0
  0
LINE
  5
493
  8
0
 10
361.24665818748952
 20
183.1768999051319
 30
0.0
 11
344.24665818748952
 21
183.1768999051319
 31
0.0
  0
LINE
  5
495
  8
0
 10
370.74665818748952
 20
178.1768999051319
 30
0.0
 11
334.74665818748952
 21
178.1768999051319
 31
0.0
  0
LINE
  5
496
  8
0
 10
371.74665818748952
 20
202.1768999051319
 30
0.0
 11
371.74665818748952
 21
179.1768999051319
 31
0.0
  0
LINE
  5
497
  8
0
 10
334.74665818748952
 20
203.1768999051319
 30
0.0
 11
370.74665818748952
 21
203.1768999051319
 31
0.0
  0
LINE
  5
498
  8
0
 10
333.74665818748952
 20
179.1768999051319
 30
0.0
 11
333.74665818748952
 21
202.1768999051319
 31
0.0
  0
LINE
  5
499
  8
0
 10
248.4487865489447
 20
329.1768999051319
 30
0.0
 11
253.0675885489446
 21
329.1768999051319
 31
0.0
  0
LINE
  5
49A
  8
0
 10
253.0675885489446
 20
329.1768999051319
 30
0.0
 11
255.37698954894461
 21
333.1768999051319
 31
0.0
  0
LINE
  5
49B
  8
0
 10
255.37698954894461
 20
333.1768999051319
 30
0.0
 11
253.0675885489446
 21
337.1768999051319
 31
0.0
  0
LINE
  5
49C
  8
0
 10
253.0675885489446
 20
337.1768999051319
 30
0.0
 11
248.4487865489447
 21
337.1768999051319
 31
0.0
  0
LINE
  5
49D
  8
0
 10
248.4487865489447
 20
337.1768999051319
 30
0.0
 11
246.13938554894469
 21
333.1768999051319
 31
0.0
  0
LINE
  5
49E
  8
0
 10
246.13938554894469
 20
333.1768999051319
 30
0.0
 11
248.4487865489447
 21
329.1768999051319
 31
0.0
  0
CIRCLE
  5
49F
  8
0
 10
250.75818754894459
 20
333.1768999051319
 30
0.0
 40
8.0
  0
CIRCLE
  5
4A0
  8
3
 10
250.75818754894459
 20
333.1768999051319
 30
0.0
 40
6.9169999999999732
  0
LINE
  5
4A1
  8
1
 10
250.75818754894459
 20
354.1768999051319
 30
0.0
 11
250.75818754894459
 21
312.1768999051319
 31
0.0
  0
ARC
  5
4A3
  8
2
 10
250.75818754894459
 20
333.1768999051319
 30
0.0
 40
16.0
 50
20.364134806317988
 51
339.63586519368198
  0
CIRCLE
  5
4A4
  8
2
 10
250.75818754894459
 20
333.1768999051319
 30
0.0
 40
11.0
  0
LINE
  5
4A6
  8
0
 10
173.80142654894459
 20
349.82066590513188
 30
0.0
 11
173.80142654894459
 21
316.53313390513188
 31
0.0
  0
LINE
  5
4A7
  8
0
 10
265.7581875489447
 20
350.1768999051319
 30
0.0
 11
263.7581875489447
 21
352.1768999051319
 31
0.0
  0
LINE
  5
4A8
  8
0
 10
265.7581875489447
 20
316.1768999051319
 30
0.0
 11
263.7581875489447
 21
314.1768999051319
 31
0.0
  0
LINE
  5
4A9
  8
2
 10
207.20274583721871
 20
341.6768999051319
 30
0.0
 11
265.7581875489447
 21
341.6768999051319
 31
0.0
  0
LINE
  5
4AA
  8
2
 10
207.20274583721871
 20
324.6768999051319
 30
0.0
 11
265.7581875489447
 21
324.6768999051319
 31
0.0
  0
LINE
  5
4AB
  8
0
 10
165.75818754894459
 20
345.1768999051319
 30
0.0
 11
177.8825435489446
 21
352.1768999051319
 31
0.0
  0
LINE
  5
4AC
  8
0
 10
207.20274583721871
 20
341.6768999051319
 30
0.0
 11
190.75818754894459
 21
341.6768999051319
 31
0.0
  0
LINE
  5
4AD
  8
0
 10
207.20274583721871
 20
324.6768999051319
 30
0.0
 11
190.75818754894459
 21
324.6768999051319
 31
0.0
  0
ARC
  5
4AF
  8
0
 10
190.75818754894459
 20
333.1768999051319
 30
0.0
 40
8.5
 50
90.0
 51
270.0
  0
ARC
  5
4B0
  8
2
 10
220.75818754894459
 20
333.1768999051319
 30
0.0
 40
8.5
 50
270.0
 51
90.0
  0
LINE
  5
4B1
  8
1
 10
275.75818754894459
 20
333.1768999051319
 30
0.0
 11
155.75818754894459
 21
333.1768999051319
 31
0.0
  0
LINE
  5
4B2
  8
1
 10
190.75818754894459
 20
319.45167990513193
 30
0.0
 11
190.75818754894459
 21
347.4622719051319
 31
0.0
  0
LINE
  5
4B5
  8
0
 10
165.75818754894459
 20
321.1768999051319
 30
0.0
 11
177.8825435489446
 21
314.1768999051319
 31
0.0
  0
LINE
  5
4B6
  8
0
 10
265.7581875489447
 20
350.1768999051319
 30
0.0
 11
265.7581875489447
 21
316.1768999051319
 31
0.0
  0
LINE
  5
4B7
  8
0
 10
177.8825435489446
 20
352.1768999051319
 30
0.0
 11
263.7581875489447
 21
352.1768999051319
 31
0.0
  0
LINE
  5
4B8
  8
0
 10
165.75818754894459
 20
321.1768999051319
 30
0.0
 11
165.75818754894459
 21
345.1768999051319
 31
0.0
  0
LINE
  5
4B9
  8
0
 10
263.7581875489447
 20
314.1768999051319
 30
0.0
 11
177.8825435489446
 21
314.1768999051319
 31
0.0
  0
ARC
  5
4BA
  8
0
 10
230.95818754894461
 20
224.9568809051319
 30
0.0
 40
5.3734809999999991
 50
69.252336000001449
 51
129.25233599999851
  0
LINE
  5
4BB
  8
0
 10
227.55818754894469
 20
229.1179259051319
 30
0.0
 11
227.55818754894469
 21
212.33036190513189
 31
0.0
  0
ARC
  5
4BC
  8
0
 10
220.75818754894459
 20
210.65508990513189
 30
0.0
 40
19.675272
 50
69.780872999998749
 51
90.000008000001458
  0
LINE
  5
4BE
  8
0
 10
236.25818754894459
 20
212.33036190513189
 30
0.0
 11
205.2581875489447
 21
212.33036190513189
 31
0.0
  0
LINE
  5
4BF
  8
0
 10
205.2581875489447
 20
212.33036190513189
 30
0.0
 11
204.75818754894459
 21
211.83036190513189
 31
0.0
  0
LINE
  5
4C0
  8
0
 10
204.75818754894459
 20
211.83036190513189
 30
0.0
 11
204.75818754894459
 21
208.93036190513189
 31
0.0
  0
LINE
  5
4C1
  8
0
 10
207.1581875489446
 20
229.1179259051319
 30
0.0
 11
207.1581875489446
 21
212.7303619051319
 31
0.0
  0
ARC
  5
4C2
  8
0
 10
206.75818754894459
 20
212.7303619051319
 30
0.0
 40
0.4
 50
270.0
 51
0.0
  0
ARC
  5
4C3
  8
0
 10
220.75818754894459
 20
210.65508990513189
 30
0.0
 40
19.675272
 50
89.999991999998528
 51
110.21912700000119
  0
LINE
  5
4C4
  8
0
 10
236.25818754894459
 20
212.33036190513189
 30
0.0
 11
236.7581875489447
 21
211.83036190513189
 31
0.0
  0
ARC
  5
4C5
  8
0
 10
234.7581875489447
 20
212.7303619051319
 30
0.0
 40
0.4
 50
180.0
 51
270.0
  0
LINE
  5
4C7
  8
0
 10
236.7581875489447
 20
211.83036190513189
 30
0.0
 11
236.7581875489447
 21
208.93036190513189
 31
0.0
  0
LINE
  5
4C8
  8
0
 10
234.3581875489447
 20
229.1179259051319
 30
0.0
 11
234.3581875489447
 21
212.7303619051319
 31
0.0
  0
LINE
  5
4C9
  8
0
 10
209.25818754894459
 20
230.33036190513189
 30
0.0
 11
232.2581875489447
 21
230.33036190513189
 31
0.0
  0
LINE
  5
4CA
  8
0
 10
213.95818754894461
 20
229.1179259051319
 30
0.0
 11
213.95818754894461
 21
212.33036190513189
 31
0.0
  0
LINE
  5
4CB
  8
0
 10
234.3581875489447
 20
229.1179259051319
 30
0.0
 11
232.2581875489447
 21
230.33036190513189
 31
0.0
  0
ARC
  5
4CC
  8
0
 10
210.55818754894469
 20
224.9568809051319
 30
0.0
 40
5.3734809999999991
 50
50.747664000001421
 51
110.74766399999849
  0
LINE
  5
4CD
  8
0
 10
207.1581875489446
 20
229.1179259051319
 30
0.0
 11
209.25818754894459
 21
230.33036190513189
 31
0.0
  0
LINE
  5
4CE
  8
0
 10
236.7581875489447
 20
208.93036190513189
 30
0.0
 11
204.75818754894459
 21
208.93036190513189
 31
0.0
  0
ARC
  5
4CF
  8
0
 10
220.75818754894459
 20
240.0591269051319
 30
0.0
 40
35.0
 50
242.79710600000081
 51
245.63290704125441
  0
ARC
  5
4D0
  8
0
 10
220.75818754894459
 20
240.0591269051319
 30
0.0
 40
35.0
 50
294.36709295874567
 51
297.20289399999922
  0
LINE
  5
4D2
  8
2
 10
211.25818754894459
 20
206.26605590513191
 30
0.0
 11
230.2581875489447
 21
206.26605590513191
 31
0.0
  0
LINE
  5
4D3
  8
2
 10
211.25818754894459
 20
203.6768999051319
 30
0.0
 11
230.2581875489447
 21
203.6768999051319
 31
0.0
  0
LINE
  5
4D4
  8
2
 10
211.25818754894459
 20
203.6768999051319
 30
0.0
 11
210.75818754894459
 21
203.1768999051319
 31
0.0
  0
LINE
  5
4D5
  8
2
 10
211.25818754894459
 20
206.26605590513191
 30
0.0
 11
211.25818754894459
 21
203.6768999051319
 31
0.0
  0
LINE
  5
4D6
  8
2
 10
206.00818754894459
 20
208.1768999051319
 30
0.0
 11
211.25818754894459
 21
206.26605590513191
 31
0.0
  0
LINE
  5
4D7
  8
2
 10
230.2581875489447
 20
203.6768999051319
 30
0.0
 11
230.7581875489447
 21
203.1768999051319
 31
0.0
  0
LINE
  5
4D8
  8
2
 10
230.2581875489447
 20
206.26605590513191
 30
0.0
 11
230.2581875489447
 21
203.6768999051319
 31
0.0
  0
LINE
  5
4D9
  8
2
 10
235.50818754894459
 20
208.1768999051319
 30
0.0
 11
230.2581875489447
 21
206.26605590513191
 31
0.0
  0
LINE
  5
4DA
  8
0
 10
204.75818754894459
 20
203.6768999051319
 30
0.0
 11
205.2581875489447
 21
203.1768999051319
 31
0.0
  0
LINE
  5
4DB
  8
0
 10
205.2581875489447
 20
208.1768999051319
 30
0.0
 11
204.75818754894459
 21
207.6768999051319
 31
0.0
  0
LINE
  5
4DC
  8
0
 10
236.7581875489447
 20
207.6768999051319
 30
0.0
 11
236.25818754894459
 21
208.1768999051319
 31
0.0
  0
LINE
  5
4DD
  8
0
 10
236.7581875489447
 20
203.6768999051319
 30
0.0
 11
236.25818754894459
 21
203.1768999051319
 31
0.0
  0
LINE
  5
4DE
  8
0
 10
204.75818754894459
 20
203.6768999051319
 30
0.0
 11
204.75818754894459
 21
207.6768999051319
 31
0.0
  0
LINE
  5
4DF
  8
0
 10
236.7581875489447
 20
207.6768999051319
 30
0.0
 11
236.7581875489447
 21
203.6768999051319
 31
0.0
  0
LINE
  5
4E0
  8
0
 10
205.2581875489447
 20
208.1768999051319
 30
0.0
 11
236.25818754894459
 21
208.1768999051319
 31
0.0
  0
ARC
  5
4E4
  8
0
 10
78.358187548944642
 20
212.7303619051319
 30
0.0
 40
0.4
 50
270.0
 51
0.0
  0
LINE
  5
4E5
  8
0
 10
90.758187548944647
 20
212.33036190513189
 30
0.0
 11
90.758187548944647
 21
228.96988990513191
 31
0.0
  0
LINE
  5
4E6
  8
0
 10
102.2581875489446
 20
230.33036190513189
 30
0.0
 11
79.258187548944633
 21
230.33036190513189
 31
0.0
  0
LINE
  5
4E7
  8
0
 10
78.758187548944633
 20
230.04168690513191
 30
0.0
 11
79.258187548944633
 21
230.33036190513189
 31
0.0
  0
LINE
  5
4E8
  8
0
 10
78.758187548944633
 20
212.7303619051319
 30
0.0
 11
78.758187548944633
 21
230.04168690513191
 31
0.0
  0
ARC
  5
4E9
  8
0
 10
84.758187548944647
 20
212.71155990513191
 30
0.0
 40
17.33012699999999
 50
69.743841999999773
 51
110.2561580000002
  0
ARC
  5
4EA
  8
0
 10
96.758187548944633
 20
212.71155990513191
 30
0.0
 40
17.33012699999999
 50
69.743841999999773
 51
110.2561580000002
  0
LINE
  5
4EB
  8
0
 10
102.7581875489446
 20
230.04168690513191
 30
0.0
 11
102.2581875489446
 21
230.33036190513189
 31
0.0
  0
ARC
  5
4EC
  8
0
 10
103.1581875489446
 20
212.7303619051319
 30
0.0
 40
0.4
 50
180.0
 51
270.0
  0
LINE
  5
4ED
  8
0
 10
102.7581875489446
 20
212.7303619051319
 30
0.0
 11
102.7581875489446
 21
230.04168690513191
 31
0.0
  0
ARC
  5
4EE
  8
0
 10
90.758187548944647
 20
240.0591269051319
 30
0.0
 40
35.0
 50
294.36709295874567
 51
297.20289399999922
  0
ARC
  5
4EF
  8
0
 10
90.758187548944647
 20
240.0591269051319
 30
0.0
 40
35.0
 50
242.79710600000081
 51
245.63290704125441
  0
LINE
  5
4F0
  8
0
 10
106.7581875489446
 20
208.93036190513189
 30
0.0
 11
74.758187548944647
 21
208.93036190513189
 31
0.0
  0
LINE
  5
4F1
  8
0
 10
106.7581875489446
 20
211.83036190513189
 30
0.0
 11
106.7581875489446
 21
208.93036190513189
 31
0.0
  0
LINE
  5
4F2
  8
0
 10
106.2581875489446
 20
212.33036190513189
 30
0.0
 11
106.7581875489446
 21
211.83036190513189
 31
0.0
  0
LINE
  5
4F3
  8
0
 10
74.758187548944647
 20
211.83036190513189
 30
0.0
 11
74.758187548944647
 21
208.93036190513189
 31
0.0
  0
LINE
  5
4F4
  8
0
 10
75.258187548944647
 20
212.33036190513189
 30
0.0
 11
74.758187548944647
 21
211.83036190513189
 31
0.0
  0
LINE
  5
4F5
  8
0
 10
106.2581875489446
 20
212.33036190513189
 30
0.0
 11
75.258187548944647
 21
212.33036190513189
 31
0.0
  0
LINE
  5
4F7
  8
2
 10
81.258187548944647
 20
206.26605590513191
 30
0.0
 11
100.2581875489446
 21
206.26605590513191
 31
0.0
  0
LINE
  5
4F8
  8
2
 10
81.258187548944647
 20
203.6768999051319
 30
0.0
 11
100.2581875489446
 21
203.6768999051319
 31
0.0
  0
LINE
  5
4F9
  8
2
 10
81.258187548944647
 20
203.6768999051319
 30
0.0
 11
80.758187548944647
 21
203.1768999051319
 31
0.0
  0
LINE
  5
4FA
  8
2
 10
81.258187548944647
 20
206.26605590513191
 30
0.0
 11
81.258187548944647
 21
203.6768999051319
 31
0.0
  0
LINE
  5
4FB
  8
2
 10
76.008187548944647
 20
208.1768999051319
 30
0.0
 11
81.258187548944647
 21
206.26605590513191
 31
0.0
  0
LINE
  5
4FC
  8
2
 10
100.2581875489446
 20
203.6768999051319
 30
0.0
 11
100.7581875489446
 21
203.1768999051319
 31
0.0
  0
LINE
  5
4FD
  8
2
 10
100.2581875489446
 20
206.26605590513191
 30
0.0
 11
100.2581875489446
 21
203.6768999051319
 31
0.0
  0
LINE
  5
4FE
  8
2
 10
105.5081875489446
 20
208.1768999051319
 30
0.0
 11
100.2581875489446
 21
206.26605590513191
 31
0.0
  0
LINE
  5
4FF
  8
0
 10
74.758187548944647
 20
203.6768999051319
 30
0.0
 11
75.258187548944647
 21
203.1768999051319
 31
0.0
  0
LINE
  5
500
  8
0
 10
75.258187548944647
 20
208.1768999051319
 30
0.0
 11
74.758187548944647
 21
207.6768999051319
 31
0.0
  0
LINE
  5
501
  8
0
 10
106.7581875489446
 20
207.6768999051319
 30
0.0
 11
106.2581875489446
 21
208.1768999051319
 31
0.0
  0
LINE
  5
502
  8
0
 10
106.7581875489446
 20
203.6768999051319
 30
0.0
 11
106.2581875489446
 21
203.1768999051319
 31
0.0
  0
LINE
  5
503
  8
0
 10
74.758187548944647
 20
203.6768999051319
 30
0.0
 11
74.758187548944647
 21
207.6768999051319
 31
0.0
  0
LINE
  5
504
  8
0
 10
106.7581875489446
 20
207.6768999051319
 30
0.0
 11
106.7581875489446
 21
203.6768999051319
 31
0.0
  0
LINE
  5
505
  8
0
 10
75.258187548944647
 20
208.1768999051319
 30
0.0
 11
106.2581875489446
 21
208.1768999051319
 31
0.0
  0
ARC
  5
509
  8
0
 10
340.34665818748948
 20
212.7303619051319
 30
0.0
 40
0.4
 50
270.0
 51
0.0
  0
LINE
  5
50B
  8
0
 10
364.24665818748952
 20
230.33036190513189
 30
0.0
 11
360.7466581874894
 21
230.33036190513189
 31
0.0
  0
LINE
  5
50C
  8
0
 10
340.74665818748952
 20
230.04168690513191
 30
0.0
 11
341.24665818748952
 21
230.33036190513189
 31
0.0
  0
LINE
  5
50D
  8
0
 10
340.74665818748952
 20
212.7303619051319
 30
0.0
 11
340.74665818748952
 21
230.04168690513191
 31
0.0
  0
ARC
  5
50E
  8
0
 10
346.74665818748952
 20
212.71155990513191
 30
0.0
 40
17.33012699999999
 50
96.627040934449539
 51
110.2561580000002
  0
ARC
  5
50F
  8
0
 10
358.74665818748952
 20
212.71155990513191
 30
0.0
 40
17.33012699999999
 50
69.743841999999773
 51
83.372959065550475
  0
LINE
  5
510
  8
0
 10
364.74665818748952
 20
230.04168690513191
 30
0.0
 11
364.24665818748952
 21
230.33036190513189
 31
0.0
  0
ARC
  5
511
  8
0
 10
365.14665818748949
 20
212.7303619051319
 30
0.0
 40
0.4
 50
180.0
 51
270.0
  0
LINE
  5
512
  8
0
 10
364.74665818748952
 20
212.7303619051319
 30
0.0
 11
364.74665818748952
 21
230.04168690513191
 31
0.0
  0
ARC
  5
513
  8
0
 10
352.74665818748952
 20
240.0591269051319
 30
0.0
 40
35.0
 50
294.36709295874567
 51
297.20289399999922
  0
ARC
  5
514
  8
0
 10
352.74665818748952
 20
240.0591269051319
 30
0.0
 40
35.0
 50
242.79710600000081
 51
245.63290704125441
  0
LINE
  5
515
  8
0
 10
368.74665818748952
 20
208.93036190513189
 30
0.0
 11
360.7466581874894
 21
208.93036190513189
 31
0.0
  0
LINE
  5
516
  8
0
 10
368.74665818748952
 20
211.83036190513189
 30
0.0
 11
368.74665818748952
 21
208.93036190513189
 31
0.0
  0
LINE
  5
517
  8
0
 10
368.24665818748952
 20
212.33036190513189
 30
0.0
 11
368.74665818748952
 21
211.83036190513189
 31
0.0
  0
LINE
  5
518
  8
0
 10
336.74665818748952
 20
211.83036190513189
 30
0.0
 11
336.74665818748952
 21
208.93036190513189
 31
0.0
  0
LINE
  5
519
  8
0
 10
337.24665818748952
 20
212.33036190513189
 30
0.0
 11
336.74665818748952
 21
211.83036190513189
 31
0.0
  0
LINE
  5
51A
  8
0
 10
368.24665818748952
 20
212.33036190513189
 30
0.0
 11
360.7466581874894
 21
212.33036190513189
 31
0.0
  0
LINE
  5
524
  8
0
 10
336.74665818748952
 20
203.6768999051319
 30
0.0
 11
337.24665818748952
 21
203.1768999051319
 31
0.0
  0
LINE
  5
525
  8
0
 10
337.24665818748952
 20
208.1768999051319
 30
0.0
 11
336.74665818748952
 21
207.6768999051319
 31
0.0
  0
LINE
  5
526
  8
0
 10
368.74665818748952
 20
207.6768999051319
 30
0.0
 11
368.24665818748952
 21
208.1768999051319
 31
0.0
  0
LINE
  5
527
  8
0
 10
368.74665818748952
 20
203.6768999051319
 30
0.0
 11
368.24665818748952
 21
203.1768999051319
 31
0.0
  0
LINE
  5
528
  8
0
 10
336.74665818748952
 20
203.6768999051319
 30
0.0
 11
336.74665818748952
 21
207.6768999051319
 31
0.0
  0
LINE
  5
529
  8
0
 10
368.74665818748952
 20
207.6768999051319
 30
0.0
 11
368.74665818748952
 21
203.6768999051319
 31
0.0
  0
LINE
  5
52A
  8
0
 10
337.24665818748952
 20
208.1768999051319
 30
0.0
 11
344.74665818748952
 21
208.1768999051319
 31
0.0
  0
ARC
  5
533
  8
0
 10
250.75818754894459
 20
333.1768999051319
 30
0.0
 40
16.0
 50
339.63586519368198
 51
20.364134806317988
  0
LINE
  5
534
  8
0
 10
98.787755548944673
 20
88.176899905131904
 30
0.0
 11
98.787755548944673
 21
58.176899905131911
 31
0.0
  0
LINE
  5
535
  8
3
 10
97.718815548944633
 20
88.176899905131904
 30
0.0
 11
97.718815548944633
 21
57.107960905131897
 31
0.0
  0
LINE
  5
536
  8
3
 10
83.856694548944674
 20
88.176899905131904
 30
0.0
 11
83.856694548944674
 21
57.107960905131897
 31
0.0
  0
LINE
  5
537
  8
0
 10
82.787755548944645
 20
98.176899905131904
 30
0.0
 11
82.787755548944645
 21
178.1768999051319
 31
0.0
  0
LINE
  5
53F
  8
0
 10
98.787755548944673
 20
178.1768999051319
 30
0.0
 11
98.787755548944673
 21
98.176899905131904
 31
0.0
  0
LINE
  5
540
  8
0
 10
82.787755548944645
 20
230.33036190513189
 30
0.0
 11
82.787755548944645
 21
254.1768999051319
 31
0.0
  0
LINE
  5
541
  8
0
 10
228.7877555489446
 20
88.176899905131904
 30
0.0
 11
228.7877555489446
 21
58.176899905131911
 31
0.0
  0
LINE
  5
542
  8
3
 10
227.7188155489446
 20
88.176899905131904
 30
0.0
 11
227.7188155489446
 21
57.107960905131897
 31
0.0
  0
LINE
  5
543
  8
3
 10
213.8566945489446
 20
88.176899905131904
 30
0.0
 11
213.8566945489446
 21
57.107960905131897
 31
0.0
  0
LINE
  5
544
  8
0
 10
212.7877555489446
 20
98.176899905131904
 30
0.0
 11
212.7877555489446
 21
178.1768999051319
 31
0.0
  0
LINE
  5
545
  8
0
 10
258.75818754894459
 20
203.1768999051319
 30
0.0
 11
258.75818754894459
 21
241.54140390513189
 31
0.0
  0
LINE
  5
546
  8
3
 10
257.67518754894462
 20
178.1768999051319
 30
0.0
 11
257.67518754894462
 21
104.9161339051319
 31
0.0
  0
LINE
  5
547
  8
3
 10
243.8411875489447
 20
178.1768999051319
 30
0.0
 11
243.8411875489447
 21
104.9161339051319
 31
0.0
  0
LINE
  5
548
  8
0
 10
242.7581875489447
 20
178.1768999051319
 30
0.0
 11
242.7581875489447
 21
105.5414039051319
 31
0.0
  0
LINE
  5
549
  8
0
 10
212.7877555489446
 20
230.33036190513189
 30
0.0
 11
212.7877555489446
 21
254.1768999051319
 31
0.0
  0
LINE
  5
54A
  8
0
 10
228.7877555489446
 20
178.1768999051319
 30
0.0
 11
228.7877555489446
 21
98.176899905131904
 31
0.0
  0
LINE
  5
59F
  8
0
 10
75.758187548944647
 20
88.176899905131904
 30
0.0
 11
105.7581875489446
 21
88.176899905131904
 31
0.0
  0
LINE
  5
5A0
  8
0
 10
106.7581875489446
 20
89.176899905131904
 30
0.0
 11
106.7581875489446
 21
94.176899905131904
 31
0.0
  0
LINE
  5
5A2
  8
0
 10
101.7581875489446
 20
98.176899905131904
 30
0.0
 11
101.7581875489446
 21
102.1768999051319
 31
0.0
  0
LINE
  5
5A3
  8
0
 10
100.7581875489446
 20
103.1768999051319
 30
0.0
 11
98.787755548944673
 21
103.1768999051319
 31
0.0
  0
LINE
  5
5A4
  8
0
 10
79.758187548944647
 20
102.1768999051319
 30
0.0
 11
79.758187548944647
 21
98.176899905131904
 31
0.0
  0
LINE
  5
5A6
  8
0
 10
74.758187548944647
 20
94.176899905131904
 30
0.0
 11
74.758187548944647
 21
89.176899905131904
 31
0.0
  0
LINE
  5
5A7
  8
0
 10
75.758187548944647
 20
88.176899905131904
 30
0.0
 11
74.758187548944647
 21
89.176899905131904
 31
0.0
  0
LINE
  5
5A8
  8
0
 10
105.7581875489446
 20
88.176899905131904
 30
0.0
 11
106.7581875489446
 21
89.176899905131904
 31
0.0
  0
LINE
  5
5A9
  8
0
 10
106.7581875489446
 20
94.176899905131904
 30
0.0
 11
105.7581875489446
 21
95.176899905131904
 31
0.0
  0
LINE
  5
5AA
  8
0
 10
101.7581875489446
 20
102.1768999051319
 30
0.0
 11
100.7581875489446
 21
103.1768999051319
 31
0.0
  0
LINE
  5
5AB
  8
0
 10
79.758187548944647
 20
102.1768999051319
 30
0.0
 11
80.758187548944647
 21
103.1768999051319
 31
0.0
  0
LINE
  5
5AC
  8
0
 10
74.758187548944647
 20
94.176899905131904
 30
0.0
 11
75.758187548944647
 21
95.176899905131904
 31
0.0
  0
ARC
  5
5AD
  8
0
 10
104.7581875489446
 20
98.176899905131904
 30
0.0
 40
3.0
 50
228.1896851042201
 51
270.0
  0
ARC
  5
5AE
  8
0
 10
76.758187548944633
 20
98.176899905131904
 30
0.0
 40
3.0
 50
270.0
 51
311.81031489577992
  0
LINE
  5
5AF
  8
0
 10
75.758187548944647
 20
95.176899905131904
 30
0.0
 11
78.758187548944633
 21
95.176899905131904
 31
0.0
  0
LINE
  5
5B0
  8
0
 10
82.787755548944602
 20
103.1768999051319
 30
0.0
 11
80.758187548944647
 21
103.1768999051319
 31
0.0
  0
LINE
  5
5B1
  8
0
 10
102.7581875489446
 20
95.176899905131904
 30
0.0
 11
105.7581875489446
 21
95.176899905131904
 31
0.0
  0
LINE
  5
5F7
  8
0
 10
360.74665818748957
 20
178.1768999051319
 30
0.0
 11
360.74665818748957
 21
103.1768999051319
 31
0.0
  0
LINE
  5
5F9
  8
3
 10
359.66365818748949
 20
178.1768999051319
 30
0.0
 11
359.66365818748949
 21
104.9161339051319
 31
0.0
  0
LINE
  5
5FA
  8
3
 10
345.8296581874896
 20
178.1768999051319
 30
0.0
 11
345.8296581874896
 21
104.9161339051319
 31
0.0
  0
LINE
  5
5FB
  8
0
 10
344.74665818748952
 20
178.1768999051319
 30
0.0
 11
344.74665818748952
 21
105.5414039051319
 31
0.0
  0
LINE
  5
5FC
  8
0
 10
344.74665818748952
 20
203.1768999051319
 30
0.0
 11
344.74665818748952
 21
254.1768999051319
 31
0.0
  0
LINE
  5
5FD
  8
0
 10
344.74665818748952
 20
230.33036190513189
 30
0.0
 11
341.24665818748952
 21
230.33036190513189
 31
0.0
  0
LINE
  5
600
  8
0
 10
360.7466581874894
 20
208.1768999051319
 30
0.0
 11
368.24665818748952
 21
208.1768999051319
 31
0.0
  0
LINE
  5
601
  8
0
 10
344.74665818748952
 20
208.93036190513189
 30
0.0
 11
336.74665818748952
 21
208.93036190513189
 31
0.0
  0
LINE
  5
602
  8
0
 10
344.74665818748952
 20
212.33036190513189
 30
0.0
 11
337.24665818748952
 21
212.33036190513189
 31
0.0
  0
LINE
  5
603
  8
3
 10
345.81559718748952
 20
88.176899905131918
 30
0.0
 11
345.81559718748952
 21
57.107960905131897
 31
0.0
  0
LINE
  5
604
  8
0
 10
344.74665818748952
 20
103.1768999051319
 30
0.0
 11
344.74665818748952
 21
178.1768999051319
 31
0.0
  0
LINE
  5
605
  8
3
 10
359.67771818748952
 20
88.176899905131918
 30
0.0
 11
359.67771818748952
 21
57.107960905131897
 31
0.0
  0
LINE
  5
606
  8
0
 10
360.74665818748952
 20
88.176899905131904
 30
0.0
 11
360.74665818748952
 21
58.176899905131911
 31
0.0
  0
LINE
  5
650
  8
0
 10
341.24665818748952
 20
98.176899905131904
 30
0.0
 11
341.74665818748952
 21
98.176899905131904
 31
0.0
  0
LINE
  5
651
  8
0
 10
338.89025218748952
 20
96.816427905131917
 30
0.0
 11
338.89025218748952
 21
95.176899905131904
 31
0.0
  0
LINE
  5
652
  8
0
 10
338.89025218748952
 20
96.816427905131917
 30
0.0
 11
341.24665818748952
 21
98.176899905131904
 31
0.0
  0
ARC
  5
653
  8
0
 10
342.35435318748949
 20
91.754249905131914
 30
0.0
 40
6.1339750000000004
 50
95.846914318808814
 51
115.6157529999999
  0
LINE
  5
654
  8
0
 10
364.24665818748952
 20
98.176899905131904
 30
0.0
 11
363.74665818748952
 21
98.176899905131904
 31
0.0
  0
LINE
  5
655
  8
0
 10
366.60306418748951
 20
96.816427905131917
 30
0.0
 11
366.60306418748951
 21
95.176899905131904
 31
0.0
  0
LINE
  5
656
  8
0
 10
366.60306418748951
 20
96.816427905131917
 30
0.0
 11
364.24665818748952
 21
98.176899905131904
 31
0.0
  0
ARC
  5
657
  8
0
 10
363.13896318748948
 20
91.754249905131914
 30
0.0
 40
6.1339750000000004
 50
64.384247000000045
 51
84.153085681189381
  0
TEXT
  5
6FA
  8
0
 62
     3
 10
0.0
 20
0.0
 30
0.0
 40
10.0
  1
BJ153-16100B3
  7
STANDARD1
  0
ENDSEC
  0
EOF
