  0
SECTION
  2
HEADER
  9
$ACADVER
  1
AC1009
  9
$INSBASE
 10
82.638099999999994
 20
103.82319099999999
 30
0.0
  9
$EXTMIN
 10
0.0
 20
-2.960436562073669
 30
0.0
  9
$EXTMAX
 10
324.0
 20
240.0
 30
0.0
  9
$LIMMIN
 10
0.0
 20
0.0
  9
$LIMMAX
 10
375.0
 20
270.0
  9
$ORTHOMODE
 70
     1
  9
$REGENMODE
 70
     1
  9
$FILLMODE
 70
     1
  9
$QTEXTMODE
 70
     0
  9
$MIRRTEXT
 70
     0
  9
$DRAGMODE
 70
     2
  9
$LTSCALE
 40
10.0
  9
$OSMODE
 70
  3071
  9
$ATTMODE
 70
     1
  9
$TEXTSIZE
 40
0.06
  9
$TRACEWID
 40
0.05
  9
$TEXTSTYLE
  7
STANDARD
  9
$CLAYER
  8
0
  9
$CELTYPE
  6
BYLAYER
  9
$CECOLOR
 62
   256
  9
$DIMSCALE
 40
1.0
  9
$DIMASZ
 40
3.0
  9
$DIMEXO
 40
2.0
  9
$DIMDLI
 40
10.0
  9
$DIMRND
 40
0.0
  9
$DIMDLE
 40
0.0
  9
$DIMEXE
 40
2.0
  9
$DIMTP
 40
0.0
  9
$DIMTM
 40
0.0
  9
$DIMTXT
 40
3.0
  9
$DIMCEN
 40
0.0
  9
$DIMTSZ
 40
0.0
  9
$DIMTOL
 70
     0
  9
$DIMLIM
 70
     0
  9
$DIMTIH
 70
     0
  9
$DIMTOH
 70
     0
  9
$DIMSE1
 70
     0
  9
$DIMSE2
 70
     0
  9
$DIMTAD
 70
     1
  9
$DIMZIN
 70
     0
  9
$DIMBLK
  1

  9
$DIMASO
 70
     0
  9
$DIMSHO
 70
     0
  9
$DIMPOST
  1

  9
$DIMAPOST
  1

  9
$DIMALT
 70
     0
  9
$DIMALTD
 70
     2
  9
$DIMALTF
 40
25.399999999999999
  9
$DIMLFAC
 40
1.0
  9
$DIMTOFL
 70
     1
  9
$DIMTVP
 40
1.6000000000000001
  9
$DIMTIX
 70
     1
  9
$DIMSOXD
 70
     0
  9
$DIMSAH
 70
     0
  9
$DIMBLK1
  1

  9
$DIMBLK2
  1

  9
$DIMSTYLE
  2
STANDARD
  9
$DIMCLRD
 70
     0
  9
$DIMCLRE
 70
     0
  9
$DIMCLRT
 70
     0
  9
$DIMTFAC
 40
1.0
  9
$DIMGAP
 40
0.09
  9
$LUNITS
 70
     2
  9
$LUPREC
 70
     4
  9
$SKETCHINC
 40
0.1
  9
$FILLETRAD
 40
0.0
  9
$AUNITS
 70
     0
  9
$AUPREC
 70
     4
  9
$MENU
  1
E:\r13\win\SUPPORT\ACAD
  9
$ELEVATION
 40
0.0
  9
$PELEVATION
 40
0.0
  9
$THICKNESS
 40
0.0
  9
$LIMCHECK
 70
     0
  9
$BLIPMODE
 70
     0
  9
$CHAMFERA
 40
0.0
  9
$CHAMFERB
 40
0.0
  9
$SKPOLY
 70
     0
  9
$TDCREATE
 40
2449840.346400463
  9
$TDUPDATE
 40
2456597.6389996759
  9
$TDINDWG
 40
0.0115441319
  9
$TDUSRTIMER
 40
0.0115441319
  9
$USRTIMER
 70
     1
  9
$ANGBASE
 50
0.0
  9
$ANGDIR
 70
     0
  9
$PDMODE
 70
     1
  9
$PDSIZE
 40
0.0
  9
$PLINEWID
 40
0.0
  9
$COORDS
 70
     1
  9
$SPLFRAME
 70
     0
  9
$SPLINETYPE
 70
     6
  9
$SPLINESEGS
 70
     8
  9
$ATTDIA
 70
     0
  9
$ATTREQ
 70
     1
  9
$HANDLING
 70
     1
  9
$HANDSEED
  5
65E
  9
$SURFTAB1
 70
     6
  9
$SURFTAB2
 70
     6
  9
$SURFTYPE
 70
     6
  9
$SURFU
 70
     6
  9
$SURFV
 70
     6
  9
$UCSNAME
  2

  9
$UCSORG
 10
0.0
 20
0.0
 30
0.0
  9
$UCSXDIR
 10
1.0
 20
0.0
 30
0.0
  9
$UCSYDIR
 10
0.0
 20
1.0
 30
0.0
  9
$PUCSNAME
  2

  9
$PUCSORG
 10
0.0
 20
0.0
 30
0.0
  9
$PUCSXDIR
 10
1.0
 20
0.0
 30
0.0
  9
$PUCSYDIR
 10
0.0
 20
1.0
 30
0.0
  9
$USERI1
 70
     3
  9
$USERI2
 70
     1
  9
$USERI3
 70
     0
  9
$USERI4
 70
     0
  9
$USERI5
 70
     0
  9
$USERR1
 40
1.0
  9
$USERR2
 40
3.0
  9
$USERR3
 40
3.0
  9
$USERR4
 40
3.0
  9
$USERR5
 40
10.0
  9
$WORLDVIEW
 70
     1
  9
$SHADEDGE
 70
     3
  9
$SHADEDIF
 70
    70
  9
$TILEMODE
 70
     1
  9
$MAXACTVP
 70
    16
  9
$PLIMCHECK
 70
     0
  9
$PEXTMIN
 10
1.0000000000000000E+020
 20
1.0000000000000000E+020
 30
1.0000000000000000E+020
  9
$PEXTMAX
 10
-1.0000000000000000E+020
 20
-1.0000000000000000E+020
 30
-1.0000000000000000E+020
  9
$PLIMMIN
 10
0.0
 20
0.0
  9
$PLIMMAX
 10
12.0
 20
9.0
  9
$UNITMODE
 70
     0
  9
$VISRETAIN
 70
     0
  9
$PLINEGEN
 70
     0
  9
$PSLTSCALE
 70
     0
  0
ENDSEC
  0
SECTION
  2
TABLES
  0
TABLE
  2
VPORT
 70
     1
  0
VPORT
  2
*ACTIVE
 70
     0
 10
0.0
 20
0.0
 11
1.0
 21
1.0
 12
195.0581083320873
 22
133.5127261426681
 13
0.0
 23
0.0
 14
5.0
 24
5.0
 15
10.0
 25
10.0
 16
0.0
 26
0.0
 36
1.0
 17
0.0
 27
0.0
 37
0.0
 40
275.42274993631997
 41
1.831871345029239
 42
50.0
 43
0.0
 44
0.0
 50
0.0
 51
0.0
 71
     0
 72
   100
 73
     1
 74
     0
 75
     0
 76
     0
 77
     0
 78
     0
  0
ENDTAB
  0
TABLE
  2
LTYPE
 70
     4
  0
LTYPE
  2
CONTINUOUS
 70
     0
  3
Solid Line
 72
    65
 73
     0
 40
0.0
  0
LTYPE
  2
CENTER
 70
     0
  3
____ _ ____ _ ____ _ ____ _ ____ _ ____ _ ____
 72
    65
 73
     4
 40
2.0
 49
1.25
 49
-0.25
 49
0.25
 49
-0.25
  0
LTYPE
  2
HIDDEN
 70
     0
  3
__ __ __ __ __ __ __ __ __ __ __ __ __ __ __ __
 72
    65
 73
     2
 40
0.375
 49
0.25
 49
-0.125
  0
LTYPE
  2
PHANTOM2
 70
     0
  3
___ _ _ ___ _ _ ___ _ _ ___ _ _
 72
    65
 73
     6
 40
1.25
 49
0.625
 49
-0.125
 49
0.125
 49
-0.125
 49
0.125
 49
-0.125
  0
ENDTAB
  0
TABLE
  2
LAYER
 70
     4
  0
LAYER
  2
0
 70
     0
 62
     7
  6
CONTINUOUS
  0
LAYER
  2
1
 70
     0
 62
     1
  6
CENTER
  0
LAYER
  2
2
 70
     0
 62
     2
  6
HIDDEN
  0
LAYER
  2
3
 70
     0
 62
     3
  6
CONTINUOUS
  0
ENDTAB
  0
TABLE
  2
STYLE
 70
     2
  0
STYLE
  2
STANDARD
 70
     0
 40
0.0
 41
1.0
 50
0.0
 71
     0
 42
0.06
  3
TXT
  4
BIGFONT
  0
STYLE
  2
STANDARD1
 70
     0
 40
0.0
 41
1.0
 50
0.0
 71
     0
 42
3.0
  3
txt
  4

  0
ENDTAB
  0
TABLE
  2
VIEW
 70
     0
  0
ENDTAB
  0
TABLE
  2
UCS
 70
     0
  0
ENDTAB
  0
TABLE
  2
APPID
 70
     4
  0
APPID
  2
ACAD
 70
     0
  0
APPID
  2
ACAD_EXEMPT_FROM_CAD_STANDARDS
 70
     0
  0
APPID
  2
ACAD_MLEADERVER
 70
     0
  0
APPID
  2
ACAD_NAV_VCDISPLAY
 70
     0
  0
ENDTAB
  0
TABLE
  2
DIMSTYLE
 70
     1
  0
DIMSTYLE
  2
STANDARD
 70
     0
  3

  4

  5

  6

  7

 40
1.0
 41
0.18
 42
0.0625
 43
0.38
 44
0.18
 45
0.0
 46
0.0
 47
0.0
 48
0.0
140
0.18
141
0.09
142
0.0
143
25.399999999999999
144
1.0
145
0.0
146
1.0
147
0.09
 71
     0
 72
     0
 73
     1
 74
     1
 75
     0
 76
     0
 77
     0
 78
     0
170
     0
171
     2
172
     0
173
     0
174
     0
175
     0
176
     0
177
     0
178
     0
  0
ENDTAB
  0
ENDSEC
  0
SECTION
  2
BLOCKS
  0
BLOCK
  8
0
  2
$MODEL_SPACE
 70
     0
 10
0.0
 20
0.0
 30
0.0
  3
$MODEL_SPACE
  1

  0
ENDBLK
  5
21E
  8
0
  0
BLOCK
 67
     1
  8
0
  2
$PAPER_SPACE
 70
     0
 10
0.0
 20
0.0
 30
0.0
  3
$PAPER_SPACE
  1

  0
ENDBLK
  5
21C
 67
     1
  8
0
  0
ENDSEC
  0
SECTION
  2
ENTITIES
  0
LINE
  5
28B
  8
0
 10
131.35436799999999
 20
130.0
 30
0.0
 11
131.35436799999999
 21
105.0
 31
0.0
  0
LINE
  5
28C
  8
0
 10
121.0
 20
105.0
 30
0.0
 11
120.0
 21
106.0
 31
0.0
  0
LINE
  5
28D
  8
0
 10
245.0
 20
106.0
 30
0.0
 11
244.0
 21
105.0
 31
0.0
  0
LINE
  5
28E
  8
0
 10
244.0
 20
130.0
 30
0.0
 11
245.0
 21
129.0
 31
0.0
  0
LINE
  5
28F
  8
2
 10
238.0
 20
110.0
 30
0.0
 11
238.0
 21
130.0
 31
0.0
  0
LINE
  5
290
  8
2
 10
236.91749999999999
 20
110.0
 30
0.0
 11
236.91749999999999
 21
130.0
 31
0.0
  0
LINE
  5
291
  8
2
 10
223.08250000000001
 20
110.0
 30
0.0
 11
223.08250000000001
 21
130.0
 31
0.0
  0
LINE
  5
292
  8
2
 10
222.0
 20
110.0
 30
0.0
 11
222.0
 21
130.0
 31
0.0
  0
LINE
  5
293
  8
2
 10
198.5
 20
110.0
 30
0.0
 11
198.5
 21
130.0
 31
0.0
  0
LINE
  5
294
  8
2
 10
136.5
 20
105.0
 30
0.0
 11
136.5
 21
130.0
 31
0.0
  0
LINE
  5
295
  8
1
 10
145.0
 20
100.0
 30
0.0
 11
145.0
 21
135.01878500000001
 31
0.0
  0
LINE
  5
297
  8
1
 10
230.0
 20
100.0
 30
0.0
 11
230.0
 21
134.88289399999999
 31
0.0
  0
LINE
  5
298
  8
0
 10
120.0
 20
125.0
 30
0.0
 11
128.66025400000001
 21
130.0
 31
0.0
  0
LINE
  5
299
  8
2
 10
245.0
 20
110.0
 30
0.0
 11
190.0
 21
110.0
 31
0.0
  0
LINE
  5
29A
  8
0
 10
245.0
 20
129.0
 30
0.0
 11
245.0
 21
106.0
 31
0.0
  0
LINE
  5
29B
  8
0
 10
128.66025400000001
 20
130.0
 30
0.0
 11
244.0
 21
130.0
 31
0.0
  0
LINE
  5
29C
  8
0
 10
120.0
 20
106.0
 30
0.0
 11
120.0
 21
125.0
 31
0.0
  0
LINE
  5
29D
  8
0
 10
244.0
 20
105.0
 30
0.0
 11
121.0
 21
105.0
 31
0.0
  0
CIRCLE
  5
29E
  8
0
 10
230.0
 20
215.0
 30
0.0
 40
6.9175000000000004
  0
LINE
  5
29F
  8
0
 10
243.0
 20
196.0
 30
0.0
 11
132.12435600000001
 21
196.0
 31
0.0
  0
LINE
  5
2A0
  8
0
 10
120.0
 20
203.0
 30
0.0
 11
120.0
 21
227.0
 31
0.0
  0
LINE
  5
2A1
  8
0
 10
132.12435600000001
 20
234.0
 30
0.0
 11
243.0
 21
234.0
 31
0.0
  0
LINE
  5
2A2
  8
0
 10
245.0
 20
232.0
 30
0.0
 11
245.0
 21
198.0
 31
0.0
  0
LINE
  5
2A3
  8
0
 10
120.0
 20
203.0
 30
0.0
 11
132.12435600000001
 21
196.0
 31
0.0
  0
LINE
  5
2A4
  8
1
 10
230.0
 20
201.27477999999999
 30
0.0
 11
230.0
 21
229.285372
 31
0.0
  0
LINE
  5
2A6
  8
1
 10
145.0
 20
201.27477999999999
 30
0.0
 11
145.0
 21
229.285372
 31
0.0
  0
ARC
  5
2A8
  8
2
 10
190.0
 20
215.0
 30
0.0
 40
8.5
 50
270.0
 51
90.0
  0
ARC
  5
2A9
  8
0
 10
145.0
 20
215.0
 30
0.0
 40
8.5
 50
90.0
 51
270.0
  0
CIRCLE
  5
2AA
  8
3
 10
230.0
 20
215.0
 30
0.0
 40
8.0
  0
LINE
  5
2AB
  8
0
 10
176.44455828827401
 20
206.5
 30
0.0
 11
145.0
 21
206.5
 31
0.0
  0
LINE
  5
2AC
  8
0
 10
176.44455828827401
 20
223.5
 30
0.0
 11
145.0
 21
223.5
 31
0.0
  0
LINE
  5
2AD
  8
0
 10
120.0
 20
227.0
 30
0.0
 11
132.12435600000001
 21
234.0
 31
0.0
  0
LINE
  5
2AE
  8
2
 10
176.44455828827401
 20
206.5
 30
0.0
 11
245.0
 21
206.5
 31
0.0
  0
LINE
  5
2AF
  8
2
 10
176.44455828827401
 20
223.5
 30
0.0
 11
245.0
 21
223.5
 31
0.0
  0
LINE
  5
2B0
  8
0
 10
245.0
 20
198.0
 30
0.0
 11
243.0
 21
196.0
 31
0.0
  0
LINE
  5
2B1
  8
0
 10
245.0
 20
232.0
 30
0.0
 11
243.0
 21
234.0
 31
0.0
  0
LINE
  5
2B2
  8
0
 10
128.043239
 20
231.64376606889471
 30
0.0
 11
128.043239
 21
198.35623393110529
 31
0.0
  0
ARC
  5
2B3
  8
0
 10
81.0
 20
72.381197999999983
 30
0.0
 40
17.33012699999999
 50
69.743841999999916
 51
110.2561580000001
  0
LINE
  5
2B4
  8
0
 10
87.0
 20
89.711325000000016
 30
0.0
 11
86.5
 21
90.0
 31
0.0
  0
LINE
  5
2B5
  8
0
 10
87.0
 20
80.288674999999998
 30
0.0
 11
86.5
 21
80.0
 31
0.0
  0
ARC
  5
2B6
  8
0
 10
81.0
 20
97.618802000000002
 30
0.0
 40
17.33012699999999
 50
249.74384199999989
 51
290.25615800000008
  0
LINE
  5
2B7
  8
0
 10
87.0
 20
89.711325000000016
 30
0.0
 11
87.0
 21
80.288674999999998
 31
0.0
  0
LINE
  5
2B8
  8
0
 10
75.0
 20
81.360472000000001
 30
0.0
 11
75.0
 21
88.639527999999984
 31
0.0
  0
LINE
  5
2B9
  8
0
 10
63.0
 20
89.711325000000016
 30
0.0
 11
63.0
 21
80.288674999999998
 31
0.0
  0
ARC
  5
2BA
  8
0
 10
69.0
 20
97.618802000000002
 30
0.0
 40
17.33012699999999
 50
249.74384199999989
 51
290.25615800000008
  0
LINE
  5
2BB
  8
0
 10
63.0
 20
80.288674999999998
 30
0.0
 11
63.5
 21
80.0
 31
0.0
  0
LINE
  5
2BC
  8
0
 10
63.0
 20
89.711325000000016
 30
0.0
 11
63.5
 21
90.0
 31
0.0
  0
ARC
  5
2BD
  8
0
 10
69.0
 20
72.381197999999983
 30
0.0
 40
17.33012699999999
 50
69.743841999999916
 51
110.2561580000001
  0
LINE
  5
2BE
  8
0
 10
63.5
 20
90.0
 30
0.0
 11
86.5
 21
90.0
 31
0.0
  0
LINE
  5
2BF
  8
0
 10
86.5
 20
80.0
 30
0.0
 11
63.5
 21
80.0
 31
0.0
  0
LINE
  5
2C0
  8
1
 10
75.0
 20
167.5
 30
0.0
 11
75.0
 21
44.499941715784871
 31
0.0
  0
LINE
  5
2C1
  8
0
 10
81.0
 20
60.0
 30
0.0
 11
83.0
 21
62.0
 31
0.0
  0
LINE
  5
2C2
  8
0
 10
67.0
 20
158.0
 30
0.0
 11
83.0
 21
158.0
 31
0.0
  0
LINE
  5
2C3
  8
3
 10
68.068939
 20
157.15346199999999
 30
0.0
 11
68.068939
 21
159.068939
 31
0.0
  0
LINE
  5
2C7
  8
3
 10
81.931060000000002
 20
157.15346199999999
 30
0.0
 11
81.931060000000002
 21
159.068939
 31
0.0
  0
LINE
  5
2C8
  8
3
 10
81.931060000000002
 20
100.0
 30
0.0
 11
81.931060000000002
 21
90.0
 31
0.0
  0
LINE
  5
2C9
  8
3
 10
83.0
 20
101.851457
 30
0.0
 11
81.931060999999985
 21
100.0
 31
0.0
  0
LINE
  5
2CA
  8
0
 10
67.0
 20
100.0
 30
0.0
 11
83.0
 21
100.0
 31
0.0
  0
LINE
  5
2CB
  8
3
 10
68.068939
 20
100.0
 30
0.0
 11
68.068939
 21
90.0
 31
0.0
  0
LINE
  5
2CC
  8
3
 10
67.0
 20
101.851457
 30
0.0
 11
68.068939
 21
100.0
 31
0.0
  0
LINE
  5
2CD
  8
0
 10
67.0
 20
62.0
 30
0.0
 11
83.0
 21
62.0
 31
0.0
  0
LINE
  5
2CE
  8
0
 10
67.0
 20
62.0
 30
0.0
 11
69.0
 21
60.0
 31
0.0
  0
LINE
  5
2CF
  8
0
 10
67.0
 20
158.0
 30
0.0
 11
69.0
 21
160.0
 31
0.0
  0
LINE
  5
2D0
  8
0
 10
83.0
 20
158.0
 30
0.0
 11
81.0
 21
160.0
 31
0.0
  0
LINE
  5
2D1
  8
0
 10
83.0
 20
158.0
 30
0.0
 11
83.0
 21
157.15346199999999
 31
0.0
  0
LINE
  5
2D2
  8
0
 10
69.0
 20
160.0
 30
0.0
 11
81.0
 21
160.0
 31
0.0
  0
LINE
  5
2D3
  8
0
 10
67.0
 20
62.0
 30
0.0
 11
67.0
 21
80.0
 31
0.0
  0
LINE
  5
2D4
  8
0
 10
81.0
 20
60.0
 30
0.0
 11
69.0
 21
60.0
 31
0.0
  0
ARC
  5
2D5
  8
0
 10
311.0
 20
72.381197999999983
 30
0.0
 40
17.33012699999999
 50
69.743841999999916
 51
110.2561580000001
  0
LINE
  5
2D6
  8
0
 10
317.0
 20
89.711325000000016
 30
0.0
 11
316.5
 21
90.0
 31
0.0
  0
LINE
  5
2D7
  8
0
 10
317.0
 20
80.288674999999998
 30
0.0
 11
316.5
 21
80.0
 31
0.0
  0
ARC
  5
2D8
  8
0
 10
311.0
 20
97.618802000000002
 30
0.0
 40
17.33012699999999
 50
249.74384199999989
 51
290.25615800000008
  0
LINE
  5
2D9
  8
0
 10
317.0
 20
89.711325000000016
 30
0.0
 11
317.0
 21
80.288674999999998
 31
0.0
  0
LINE
  5
2DA
  8
0
 10
305.0
 20
81.360472000000001
 30
0.0
 11
305.0
 21
88.639527999999984
 31
0.0
  0
LINE
  5
2DB
  8
0
 10
293.0
 20
89.711325000000016
 30
0.0
 11
293.0
 21
80.288674999999998
 31
0.0
  0
ARC
  5
2DC
  8
0
 10
299.0
 20
97.618802000000002
 30
0.0
 40
17.33012699999999
 50
249.74384199999989
 51
290.25615800000008
  0
LINE
  5
2DD
  8
0
 10
293.0
 20
80.288674999999998
 30
0.0
 11
293.5
 21
80.0
 31
0.0
  0
LINE
  5
2DE
  8
0
 10
293.0
 20
89.711325000000016
 30
0.0
 11
293.5
 21
90.0
 31
0.0
  0
ARC
  5
2DF
  8
0
 10
299.0
 20
72.381197999999983
 30
0.0
 40
17.33012699999999
 50
69.743841999999916
 51
110.2561580000001
  0
LINE
  5
2E0
  8
0
 10
293.5
 20
90.0
 30
0.0
 11
316.5
 21
90.0
 31
0.0
  0
LINE
  5
2E1
  8
0
 10
316.5
 20
80.0
 30
0.0
 11
293.5
 21
80.0
 31
0.0
  0
LINE
  5
2E2
  8
0
 10
201.5
 20
80.0
 30
0.0
 11
178.5
 21
80.0
 31
0.0
  0
LINE
  5
2E3
  8
0
 10
178.5
 20
90.0
 30
0.0
 11
201.5
 21
90.0
 31
0.0
  0
ARC
  5
2E4
  8
0
 10
200.39230499999999
 20
83.577349999999996
 30
0.0
 40
6.1339750000000004
 50
64.384247000000116
 51
124.3842470000001
  0
LINE
  5
2E5
  8
0
 10
203.85640599999999
 20
88.639527999999984
 30
0.0
 11
201.5
 21
90.0
 31
0.0
  0
LINE
  5
2E6
  8
0
 10
203.85640599999999
 20
81.360472000000001
 30
0.0
 11
201.5
 21
80.0
 31
0.0
  0
ARC
  5
2E7
  8
0
 10
200.39230499999999
 20
86.422650000000004
 30
0.0
 40
6.1339750000000004
 50
235.6157529999999
 51
295.61575299999993
  0
LINE
  5
2E8
  8
0
 10
203.85640599999999
 20
88.639527999999984
 30
0.0
 11
203.85640599999999
 21
81.360472000000001
 31
0.0
  0
LINE
  5
2E9
  8
0
 10
196.928203
 20
88.639527999999984
 30
0.0
 11
196.928203
 21
81.360472000000001
 31
0.0
  0
LINE
  5
2EA
  8
0
 10
183.071797
 20
88.639527999999984
 30
0.0
 11
183.071797
 21
81.360472000000001
 31
0.0
  0
LINE
  5
2EB
  8
0
 10
176.14359400000001
 20
88.639527999999984
 30
0.0
 11
176.14359400000001
 21
81.360472000000001
 31
0.0
  0
ARC
  5
2EC
  8
0
 10
190.0
 20
103.21687799999999
 30
0.0
 40
22.928203
 50
252.41204599999941
 51
287.58795400000059
  0
ARC
  5
2ED
  8
0
 10
179.60769500000001
 20
86.422650000000004
 30
0.0
 40
6.1339750000000004
 50
244.3842470000001
 51
304.38424700000007
  0
LINE
  5
2EE
  8
0
 10
176.14359400000001
 20
81.360472000000001
 30
0.0
 11
178.5
 21
80.0
 31
0.0
  0
LINE
  5
2EF
  8
0
 10
176.14359400000001
 20
88.639527999999984
 30
0.0
 11
178.5
 21
90.0
 31
0.0
  0
ARC
  5
2F0
  8
0
 10
179.60769500000001
 20
83.577349999999996
 30
0.0
 40
6.1339750000000004
 50
55.61575299999987
 51
115.6157529999999
  0
ARC
  5
2F1
  8
0
 10
190.0
 20
66.783122000000006
 30
0.0
 40
22.928203
 50
72.412045999999393
 51
107.58795400000059
  0
LINE
  5
2F2
  8
1
 10
190.0
 20
167.5
 30
0.0
 11
190.0
 21
52.5
 31
0.0
  0
LINE
  5
2F3
  8
0
 10
196.0
 20
60.0
 30
0.0
 11
198.0
 21
62.0
 31
0.0
  0
LINE
  5
2F4
  8
0
 10
182.0
 20
158.0
 30
0.0
 11
198.0
 21
158.0
 31
0.0
  0
LINE
  5
2F5
  8
3
 10
183.068939
 20
157.15346199999999
 30
0.0
 11
183.068939
 21
159.068939
 31
0.0
  0
LINE
  5
2F9
  8
3
 10
196.93105999999989
 20
157.15346199999999
 30
0.0
 11
196.93106
 21
159.068939
 31
0.0
  0
LINE
  5
2FA
  8
3
 10
196.93106
 20
100.0
 30
0.0
 11
196.93106
 21
90.0
 31
0.0
  0
LINE
  5
2FB
  8
3
 10
197.99999899999989
 20
101.851457
 30
0.0
 11
196.93106
 21
100.0
 31
0.0
  0
LINE
  5
2FC
  8
0
 10
182.0
 20
100.0
 30
0.0
 11
198.0
 21
100.0
 31
0.0
  0
LINE
  5
2FD
  8
3
 10
183.068939
 20
100.0
 30
0.0
 11
183.068939
 21
90.0
 31
0.0
  0
LINE
  5
2FE
  8
3
 10
182.0
 20
101.851457
 30
0.0
 11
183.068939
 21
100.0
 31
0.0
  0
LINE
  5
2FF
  8
0
 10
182.0
 20
62.0
 30
0.0
 11
198.0
 21
62.0
 31
0.0
  0
LINE
  5
300
  8
0
 10
182.0
 20
62.0
 30
0.0
 11
184.0
 21
60.0
 31
0.0
  0
LINE
  5
301
  8
0
 10
182.0
 20
158.0
 30
0.0
 11
184.0
 21
160.0
 31
0.0
  0
LINE
  5
302
  8
0
 10
198.0
 20
158.0
 30
0.0
 11
196.0
 21
160.0
 31
0.0
  0
LINE
  5
303
  8
0
 10
198.0
 20
158.0
 30
0.0
 11
198.0
 21
157.15346199999999
 31
0.0
  0
LINE
  5
304
  8
0
 10
184.0
 20
160.0
 30
0.0
 11
196.0
 21
160.0
 31
0.0
  0
LINE
  5
305
  8
0
 10
182.0
 20
62.0
 30
0.0
 11
182.0
 21
80.0
 31
0.0
  0
LINE
  5
306
  8
0
 10
196.0
 20
60.0
 30
0.0
 11
184.0
 21
60.0
 31
0.0
  0
LINE
  5
307
  8
0
 10
251.5
 20
80.0
 30
0.0
 11
228.5
 21
80.0
 31
0.0
  0
LINE
  5
308
  8
0
 10
228.5
 20
90.0
 30
0.0
 11
251.5
 21
90.0
 31
0.0
  0
ARC
  5
309
  8
0
 10
250.39230499999999
 20
83.577349999999996
 30
0.0
 40
6.1339750000000004
 50
64.384247000000116
 51
124.3842470000001
  0
LINE
  5
30A
  8
0
 10
253.85640599999999
 20
88.639527999999984
 30
0.0
 11
251.5
 21
90.0
 31
0.0
  0
LINE
  5
30B
  8
0
 10
253.85640599999999
 20
81.360472000000001
 30
0.0
 11
251.5
 21
80.0
 31
0.0
  0
ARC
  5
30C
  8
0
 10
250.39230499999999
 20
86.422650000000004
 30
0.0
 40
6.1339750000000004
 50
235.6157529999999
 51
295.61575299999993
  0
LINE
  5
30D
  8
0
 10
253.85640599999999
 20
88.639527999999984
 30
0.0
 11
253.85640599999999
 21
81.360472000000001
 31
0.0
  0
LINE
  5
30E
  8
0
 10
246.928203
 20
88.639527999999984
 30
0.0
 11
246.928203
 21
81.360472000000001
 31
0.0
  0
LINE
  5
30F
  8
0
 10
233.071797
 20
88.639527999999984
 30
0.0
 11
233.071797
 21
81.360472000000001
 31
0.0
  0
LINE
  5
310
  8
0
 10
226.14359400000001
 20
88.639527999999984
 30
0.0
 11
226.14359400000001
 21
81.360472000000001
 31
0.0
  0
ARC
  5
311
  8
0
 10
240.0
 20
103.21687799999999
 30
0.0
 40
22.928203
 50
252.41204599999941
 51
287.58795400000059
  0
ARC
  5
312
  8
0
 10
229.60769500000001
 20
86.422650000000004
 30
0.0
 40
6.1339750000000004
 50
244.3842470000001
 51
304.38424700000007
  0
LINE
  5
313
  8
0
 10
226.14359400000001
 20
81.360472000000001
 30
0.0
 11
228.5
 21
80.0
 31
0.0
  0
LINE
  5
314
  8
0
 10
226.14359400000001
 20
88.639527999999984
 30
0.0
 11
228.5
 21
90.0
 31
0.0
  0
ARC
  5
315
  8
0
 10
229.60769500000001
 20
83.577349999999996
 30
0.0
 40
6.1339750000000004
 50
55.61575299999987
 51
115.6157529999999
  0
ARC
  5
316
  8
0
 10
240.0
 20
66.783122000000006
 30
0.0
 40
22.928203
 50
72.412045999999393
 51
107.58795400000059
  0
LINE
  5
318
  8
0
 10
254.0
 20
105.0
 30
0.0
 11
255.0
 21
104.42265
 31
0.0
  0
LINE
  5
319
  8
0
 10
226.0
 20
105.0
 30
0.0
 11
225.0
 21
104.42265
 31
0.0
  0
LINE
  5
31A
  8
0
 10
255.0
 20
104.42265
 30
0.0
 11
255.0
 21
95.577349999999996
 31
0.0
  0
LINE
  5
31B
  8
0
 10
254.0
 20
105.0
 30
0.0
 11
226.0
 21
105.0
 31
0.0
  0
LINE
  5
31C
  8
0
 10
226.0
 20
95.0
 30
0.0
 11
225.0
 21
95.577349999999996
 31
0.0
  0
LINE
  5
31D
  8
0
 10
225.0
 20
95.577349999999996
 30
0.0
 11
225.0
 21
104.42265
 31
0.0
  0
LINE
  5
31E
  8
0
 10
254.0
 20
95.0
 30
0.0
 11
255.0
 21
95.577349999999996
 31
0.0
  0
LINE
  5
31F
  8
0
 10
254.0
 20
95.0
 30
0.0
 11
226.0
 21
95.0
 31
0.0
  0
LINE
  5
320
  8
1
 10
240.0
 20
114.0
 30
0.0
 11
240.0
 21
44.499941715784871
 31
0.0
  0
LINE
  5
321
  8
0
 10
246.0
 20
52.0
 30
0.0
 11
234.0
 21
52.0
 31
0.0
  0
LINE
  5
322
  8
0
 10
232.0
 20
54.0
 30
0.0
 11
232.0
 21
80.0
 31
0.0
  0
LINE
  5
323
  8
0
 10
248.0
 20
54.0
 30
0.0
 11
246.0
 21
52.0
 31
0.0
  0
LINE
  5
324
  8
0
 10
234.0
 20
52.0
 30
0.0
 11
232.0
 21
54.0
 31
0.0
  0
LINE
  5
325
  8
0
 10
232.0
 20
54.0
 30
0.0
 11
248.0
 21
54.0
 31
0.0
  0
LINE
  5
326
  8
0
 10
232.0
 20
92.725054999999983
 30
0.0
 11
248.0
 21
92.725054999999983
 31
0.0
  0
LINE
  5
327
  8
3
 10
233.08250000000001
 20
92.725054999999983
 30
0.0
 11
233.08250000000001
 21
90.0
 31
0.0
  0
LINE
  5
328
  8
3
 10
233.08250000000001
 20
92.725054999999983
 30
0.0
 11
232.0
 21
94.599999999999994
 31
0.0
  0
ARC
  5
329
  8
0
 10
240.0
 20
82.5
 30
0.0
 40
22.5
 50
75.672965999999946
 51
104.327034
  0
ARC
  5
32A
  8
0
 10
240.0
 20
117.5
 30
0.0
 40
22.5
 50
255.67296599999989
 51
284.32703400000003
  0
LINE
  5
32B
  8
0
 10
245.56776400000001
 20
104.300229
 30
0.0
 11
245.56776400000001
 21
95.699770999999998
 31
0.0
  0
LINE
  5
32C
  8
0
 10
245.56776400000001
 20
95.699770999999998
 30
0.0
 11
246.66959800000001
 21
95.699770999999998
 31
0.0
  0
LINE
  5
32D
  8
0
 10
245.56776400000001
 20
104.300229
 30
0.0
 11
246.66959800000001
 21
104.300229
 31
0.0
  0
LINE
  5
32E
  8
0
 10
246.66959800000001
 20
104.300229
 30
0.0
 11
246.66959800000001
 21
95.699770999999998
 31
0.0
  0
ARC
  5
32F
  8
0
 10
250.60660200000001
 20
93.575057000000015
 30
0.0
 40
11.424943000000001
 50
69.842787000000186
 51
110.1572129999998
  0
ARC
  5
330
  8
0
 10
250.60660200000001
 20
106.424943
 30
0.0
 40
11.424943000000001
 50
249.84278700000019
 51
290.15721299999979
  0
LINE
  5
331
  8
0
 10
255.0
 20
104.300229
 30
0.0
 11
254.54360600000001
 21
104.300229
 31
0.0
  0
LINE
  5
332
  8
0
 10
254.54360600000001
 20
104.300229
 30
0.0
 11
254.54360600000001
 21
95.699770999999998
 31
0.0
  0
LINE
  5
333
  8
0
 10
254.54360600000001
 20
95.699770999999998
 30
0.0
 11
255.0
 21
95.699770999999998
 31
0.0
  0
LINE
  5
334
  8
0
 10
234.43223599999999
 20
104.300229
 30
0.0
 11
234.43223599999999
 21
95.699770999999998
 31
0.0
  0
LINE
  5
335
  8
0
 10
233.33040199999999
 20
104.300229
 30
0.0
 11
233.33040199999999
 21
95.699770999999998
 31
0.0
  0
ARC
  5
336
  8
0
 10
229.39339799999999
 20
106.424943
 30
0.0
 40
11.424943000000001
 50
249.84278700000019
 51
290.15721299999979
  0
ARC
  5
337
  8
0
 10
229.39339799999999
 20
93.575057000000015
 30
0.0
 40
11.424943000000001
 50
69.842787000000186
 51
110.1572129999998
  0
LINE
  5
338
  8
0
 10
225.0
 20
104.300229
 30
0.0
 11
225.45639399999999
 21
104.300229
 31
0.0
  0
LINE
  5
339
  8
0
 10
225.45639399999999
 20
104.300229
 30
0.0
 11
225.45639399999999
 21
95.699770999999998
 31
0.0
  0
LINE
  5
33A
  8
0
 10
225.45639399999999
 20
95.699770999999998
 30
0.0
 11
225.0
 21
95.699770999999998
 31
0.0
  0
LINE
  5
33B
  8
0
 10
234.43223599999999
 20
95.699770999999998
 30
0.0
 11
233.33040199999999
 21
95.699770999999998
 31
0.0
  0
ARC
  5
33C
  8
0
 10
231.59999999999999
 20
94.599999999999994
 30
0.0
 40
0.4
 50
0.0
 51
90.0
  0
LINE
  5
33D
  8
3
 10
246.91749999999999
 20
92.725054999999983
 30
0.0
 11
248.0
 21
94.599999999999994
 31
0.0
  0
ARC
  5
33E
  8
0
 10
248.40000000000001
 20
94.599999999999994
 30
0.0
 40
0.4
 50
90.0
 51
180.0
  0
LINE
  5
33F
  8
0
 10
248.0
 20
54.0
 30
0.0
 11
248.0
 21
80.0
 31
0.0
  0
LINE
  5
340
  8
3
 10
246.91749999999999
 20
92.725054999999983
 30
0.0
 11
246.91749999999999
 21
90.0
 31
0.0
  0
LINE
  5
341
  8
0
 10
248.00048200000001
 20
105.0
 30
0.0
 11
248.00048200000001
 21
108.5
 31
0.0
  0
LINE
  5
342
  8
0
 10
247.50048200000001
 20
109.0
 30
0.0
 11
245.0
 21
109.0
 31
0.0
  0
LINE
  5
344
  8
0
 10
247.50048200000001
 20
109.0
 30
0.0
 11
248.00048200000001
 21
108.5
 31
0.0
  0
LINE
  5
345
  8
1
 10
240.0
 20
190.0
 30
0.0
 11
240.0
 21
240.0
 31
0.0
  0
LINE
  5
346
  8
1
 10
108.3068138764303
 20
215.0
 30
0.0
 11
265.0
 21
215.0
 31
0.0
  0
ARC
  5
347
  8
0
 10
240.0
 20
215.0
 30
0.0
 40
8.0
 50
308.68218745348952
 51
51.317812546510517
  0
ARC
  5
348
  8
0
 10
240.0
 20
215.0
 30
0.0
 40
14.0
 50
152.40494347894389
 51
207.59505652105611
  0
LINE
  5
34B
  8
0
 10
246.66959800000001
 20
229.54360600000001
 30
0.0
 11
254.54360600000001
 21
221.66959800000001
 31
0.0
  0
LINE
  5
34C
  8
0
 10
254.54360600000001
 20
208.33040199999999
 30
0.0
 11
246.66959800000001
 21
200.45639399999999
 31
0.0
  0
LINE
  5
34F
  8
0
 10
225.0
 20
219.78035628902279
 30
0.0
 11
225.0
 21
210.21964371097721
 31
0.0
  0
ARC
  5
351
  8
0
 10
240.0
 20
215.0
 30
0.0
 40
16.0
 50
65.364134999999493
 51
69.635865000000635
  0
LINE
  5
352
  8
0
 10
245.56776400000001
 20
230.0
 30
0.0
 11
245.0
 21
230.0
 31
0.0
  0
ARC
  5
353
  8
0
 10
240.0
 20
215.0
 30
0.0
 40
16.0
 50
20.364134999999379
 51
24.6358650000005
  0
ARC
  5
354
  8
0
 10
240.0
 20
215.0
 30
0.0
 40
16.0
 50
335.36413499999952
 51
339.63586500000059
  0
LINE
  5
355
  8
0
 10
255.0
 20
209.43223599999999
 30
0.0
 11
255.0
 21
220.56776400000001
 31
0.0
  0
LINE
  5
356
  8
0
 10
245.0
 20
200.0
 30
0.0
 11
245.56776400000001
 21
200.0
 31
0.0
  0
ARC
  5
358
  8
0
 10
240.0
 20
215.0
 30
0.0
 40
16.0
 50
290.36413499999941
 51
294.635864999999
  0
CIRCLE
  5
35B
  8
0
 10
190.0
 20
215.0
 30
0.0
 40
7.0
  0
CIRCLE
  5
35C
  8
3
 10
190.0
 20
215.0
 30
0.0
 40
8.0
  0
LINE
  5
35D
  8
0
 10
203.59230500000001
 20
214.542563
 30
0.0
 11
197.192305
 21
203.457437
 31
0.0
  0
ARC
  5
35E
  8
0
 10
190.0
 20
215.0
 30
0.0
 40
13.6
 50
358.07248700000059
 51
1.927512999999391
  0
ARC
  5
35F
  8
0
 10
190.0
 20
215.0
 30
0.0
 40
13.6
 50
58.072487000000528
 51
61.927513000000523
  0
LINE
  5
360
  8
0
 10
197.192305
 20
226.542563
 30
0.0
 11
203.59230500000001
 21
215.457437
 31
0.0
  0
ARC
  5
361
  8
0
 10
190.0
 20
215.0
 30
0.0
 40
13.6
 50
118.0724869999994
 51
121.92751299999939
  0
LINE
  5
362
  8
0
 10
183.59999999999999
 20
227.0
 30
0.0
 11
196.40000000000001
 21
227.0
 31
0.0
  0
ARC
  5
363
  8
0
 10
190.0
 20
215.0
 30
0.0
 40
13.6
 50
178.07248700000059
 51
181.92751299999941
  0
LINE
  5
364
  8
0
 10
176.40769499999999
 20
215.457437
 30
0.0
 11
182.807695
 21
226.542563
 31
0.0
  0
ARC
  5
365
  8
0
 10
190.0
 20
215.0
 30
0.0
 40
13.6
 50
238.07248700000051
 51
241.9275130000006
  0
LINE
  5
366
  8
0
 10
182.807695
 20
203.457437
 30
0.0
 11
176.40769499999999
 21
214.542563
 31
0.0
  0
ARC
  5
367
  8
0
 10
190.0
 20
215.0
 30
0.0
 40
13.6
 50
298.07248699999951
 51
301.92751299999952
  0
LINE
  5
368
  8
0
 10
196.40000000000001
 20
203.0
 30
0.0
 11
183.59999999999999
 21
203.0
 31
0.0
  0
CIRCLE
  5
369
  8
0
 10
190.0
 20
215.0
 30
0.0
 40
16.0
  0
CIRCLE
  5
36A
  8
0
 10
190.0
 20
215.0
 30
0.0
 40
11.5
  0
LINE
  5
36C
  8
1
 10
190.0
 20
191.0
 30
0.0
 11
190.0
 21
239.0
 31
0.0
  0
LINE
  5
36F
  8
0
 10
63.0
 20
125.0
 30
0.0
 11
58.0
 21
130.0
 31
0.0
  0
LINE
  5
370
  8
0
 10
87.0
 20
125.0
 30
0.0
 11
92.0
 21
130.0
 31
0.0
  0
LINE
  5
371
  8
0
 10
87.0
 20
125.0
 30
0.0
 11
87.0
 21
105.0
 31
0.0
  0
LINE
  5
372
  8
0
 10
63.0
 20
125.0
 30
0.0
 11
63.0
 21
105.0
 31
0.0
  0
LINE
  5
373
  8
0
 10
57.0
 20
130.0
 30
0.0
 11
56.0
 21
129.0
 31
0.0
  0
LINE
  5
374
  8
0
 10
94.0
 20
129.0
 30
0.0
 11
93.0
 21
130.0
 31
0.0
  0
LINE
  5
375
  8
0
 10
93.0
 20
105.0
 30
0.0
 11
94.0
 21
106.0
 31
0.0
  0
LINE
  5
376
  8
0
 10
57.0
 20
105.0
 30
0.0
 11
56.0
 21
106.0
 31
0.0
  0
LINE
  5
377
  8
0
 10
87.0
 20
125.0
 30
0.0
 11
63.0
 21
125.0
 31
0.0
  0
LINE
  5
379
  8
0
 10
57.0
 20
130.0
 30
0.0
 11
93.0
 21
130.0
 31
0.0
  0
LINE
  5
37A
  8
0
 10
56.0
 20
106.0
 30
0.0
 11
56.0
 21
129.0
 31
0.0
  0
LINE
  5
37B
  8
0
 10
93.0
 20
105.0
 30
0.0
 11
57.0
 21
105.0
 31
0.0
  0
LINE
  5
37C
  8
0
 10
94.0
 20
129.0
 30
0.0
 11
94.0
 21
106.0
 31
0.0
  0
LINE
  5
37F
  8
0
 10
296.99951800000002
 20
105.0
 30
0.0
 11
296.99951800000002
 21
108.5
 31
0.0
  0
LINE
  5
380
  8
0
 10
319.0
 20
105.0
 30
0.0
 11
320.0
 21
104.42265
 31
0.0
  0
LINE
  5
381
  8
0
 10
291.0
 20
105.0
 30
0.0
 11
290.0
 21
104.42265
 31
0.0
  0
LINE
  5
382
  8
0
 10
320.0
 20
104.42265
 30
0.0
 11
320.0
 21
95.577349999999996
 31
0.0
  0
LINE
  5
383
  8
0
 10
319.0
 20
105.0
 30
0.0
 11
291.0
 21
105.0
 31
0.0
  0
LINE
  5
384
  8
0
 10
291.0
 20
95.0
 30
0.0
 11
290.0
 21
95.577349999999996
 31
0.0
  0
LINE
  5
385
  8
0
 10
290.0
 20
95.577349999999996
 30
0.0
 11
290.0
 21
104.42265
 31
0.0
  0
LINE
  5
386
  8
0
 10
319.0
 20
95.0
 30
0.0
 11
320.0
 21
95.577349999999996
 31
0.0
  0
LINE
  5
387
  8
0
 10
319.0
 20
95.0
 30
0.0
 11
291.0
 21
95.0
 31
0.0
  0
LINE
  5
388
  8
1
 10
305.00000000000011
 20
167.5
 30
0.0
 11
305.00000000000011
 21
44.499941715784871
 31
0.0
  0
LINE
  5
389
  8
0
 10
311.0
 20
52.0
 30
0.0
 11
299.0
 21
52.0
 31
0.0
  0
LINE
  5
38A
  8
0
 10
297.0
 20
54.0
 30
0.0
 11
297.0
 21
80.0
 31
0.0
  0
LINE
  5
38B
  8
0
 10
313.0
 20
54.0
 30
0.0
 11
311.0
 21
52.0
 31
0.0
  0
LINE
  5
38C
  8
0
 10
299.0
 20
52.0
 30
0.0
 11
297.0
 21
54.0
 31
0.0
  0
LINE
  5
38D
  8
0
 10
297.0
 20
54.0
 30
0.0
 11
313.0
 21
54.0
 31
0.0
  0
LINE
  5
38E
  8
0
 10
297.0
 20
92.725054999999983
 30
0.0
 11
313.0
 21
92.725054999999983
 31
0.0
  0
LINE
  5
38F
  8
3
 10
298.08249999999998
 20
92.725054999999983
 30
0.0
 11
298.08249999999998
 21
90.0
 31
0.0
  0
LINE
  5
390
  8
3
 10
298.08249999999998
 20
92.725054999999983
 30
0.0
 11
297.0
 21
94.599999999999994
 31
0.0
  0
ARC
  5
391
  8
0
 10
305.0
 20
82.5
 30
0.0
 40
22.5
 50
75.672965999999946
 51
104.327034
  0
ARC
  5
392
  8
0
 10
305.0
 20
117.5
 30
0.0
 40
22.5
 50
255.67296599999989
 51
284.32703400000003
  0
LINE
  5
393
  8
0
 10
310.56776400000001
 20
104.300229
 30
0.0
 11
310.56776400000001
 21
95.699770999999998
 31
0.0
  0
LINE
  5
394
  8
0
 10
310.56776400000001
 20
95.699770999999998
 30
0.0
 11
311.66959800000001
 21
95.699770999999998
 31
0.0
  0
LINE
  5
395
  8
0
 10
310.56776400000001
 20
104.300229
 30
0.0
 11
311.66959800000001
 21
104.300229
 31
0.0
  0
LINE
  5
396
  8
0
 10
311.66959800000001
 20
104.300229
 30
0.0
 11
311.66959800000001
 21
95.699770999999998
 31
0.0
  0
ARC
  5
397
  8
0
 10
315.60660200000001
 20
93.575057000000015
 30
0.0
 40
11.424943000000001
 50
69.842787000000186
 51
110.1572129999998
  0
ARC
  5
398
  8
0
 10
315.60660200000001
 20
106.424943
 30
0.0
 40
11.424943000000001
 50
249.84278700000019
 51
290.15721299999979
  0
LINE
  5
399
  8
0
 10
320.0
 20
104.300229
 30
0.0
 11
319.54360600000001
 21
104.300229
 31
0.0
  0
LINE
  5
39A
  8
0
 10
319.54360600000001
 20
104.300229
 30
0.0
 11
319.54360600000001
 21
95.699770999999998
 31
0.0
  0
LINE
  5
39B
  8
0
 10
319.54360600000001
 20
95.699770999999998
 30
0.0
 11
320.0
 21
95.699770999999998
 31
0.0
  0
LINE
  5
39C
  8
0
 10
299.43223599999999
 20
104.300229
 30
0.0
 11
299.43223599999999
 21
95.699770999999998
 31
0.0
  0
LINE
  5
39D
  8
0
 10
298.33040199999999
 20
104.300229
 30
0.0
 11
298.33040199999999
 21
95.699770999999998
 31
0.0
  0
ARC
  5
39E
  8
0
 10
294.39339799999999
 20
106.424943
 30
0.0
 40
11.424943000000001
 50
249.84278700000019
 51
290.15721299999979
  0
ARC
  5
39F
  8
0
 10
294.39339799999999
 20
93.575057000000015
 30
0.0
 40
11.424943000000001
 50
69.842787000000186
 51
110.1572129999998
  0
LINE
  5
3A0
  8
0
 10
290.0
 20
104.300229
 30
0.0
 11
290.45639399999999
 21
104.300229
 31
0.0
  0
LINE
  5
3A1
  8
0
 10
290.45639399999999
 20
104.300229
 30
0.0
 11
290.45639399999999
 21
95.699770999999998
 31
0.0
  0
LINE
  5
3A2
  8
0
 10
290.45639399999999
 20
95.699770999999998
 30
0.0
 11
290.0
 21
95.699770999999998
 31
0.0
  0
LINE
  5
3A3
  8
0
 10
299.43223599999999
 20
95.699770999999998
 30
0.0
 11
298.33040199999999
 21
95.699770999999998
 31
0.0
  0
ARC
  5
3A4
  8
0
 10
296.60000000000002
 20
94.599999999999994
 30
0.0
 40
0.4
 50
0.0
 51
90.0
  0
LINE
  5
3A5
  8
3
 10
311.91750000000002
 20
92.725054999999983
 30
0.0
 11
313.0
 21
94.599999999999994
 31
0.0
  0
ARC
  5
3A6
  8
0
 10
313.39999999999998
 20
94.599999999999994
 30
0.0
 40
0.4
 50
90.0
 51
180.0
  0
LINE
  5
3A7
  8
0
 10
313.0
 20
54.0
 30
0.0
 11
313.0
 21
80.0
 31
0.0
  0
LINE
  5
3A8
  8
3
 10
311.91750000000002
 20
92.725054999999983
 30
0.0
 11
311.91750000000002
 21
90.0
 31
0.0
  0
LINE
  5
3A9
  8
0
 10
313.00048199999998
 20
105.0
 30
0.0
 11
313.00048199999998
 21
108.5
 31
0.0
  0
LINE
  5
3AA
  8
0
 10
312.50048199999998
 20
109.0
 30
0.0
 11
297.49951800000002
 21
109.0
 31
0.0
  0
LINE
  5
3AB
  8
0
 10
297.49951800000002
 20
109.0
 30
0.0
 11
296.99951800000002
 21
108.5
 31
0.0
  0
LINE
  5
3AC
  8
0
 10
312.50048199999998
 20
109.0
 30
0.0
 11
313.00048199999998
 21
108.5
 31
0.0
  0
LINE
  5
3AD
  8
0
 10
323.0
 20
105.0
 30
0.0
 11
324.0
 21
106.0
 31
0.0
  0
LINE
  5
3AE
  8
0
 10
286.0
 20
106.0
 30
0.0
 11
287.0
 21
105.0
 31
0.0
  0
LINE
  5
3AF
  8
0
 10
287.0
 20
130.0
 30
0.0
 11
286.0
 21
129.0
 31
0.0
  0
LINE
  5
3B0
  8
0
 10
323.0
 20
130.0
 30
0.0
 11
324.0
 21
129.0
 31
0.0
  0
LINE
  5
3B1
  8
0
 10
300.0
 20
110.0
 30
0.0
 11
313.5
 21
110.0
 31
0.0
  0
LINE
  5
3B2
  8
0
 10
313.5
 20
110.0
 30
0.0
 11
313.5
 21
105.0
 31
0.0
  0
LINE
  5
3B3
  8
0
 10
296.5
 20
110.0
 30
0.0
 11
296.5
 21
105.0
 31
0.0
  0
LINE
  5
3B4
  8
0
 10
305.0
 20
110.0
 30
0.0
 11
296.5
 21
110.0
 31
0.0
  0
LINE
  5
3B6
  8
0
 10
323.0
 20
105.0
 30
0.0
 11
287.0
 21
105.0
 31
0.0
  0
LINE
  5
3B7
  8
0
 10
324.0
 20
129.0
 30
0.0
 11
324.0
 21
106.0
 31
0.0
  0
LINE
  5
3B8
  8
0
 10
287.0
 20
130.0
 30
0.0
 11
323.0
 21
130.0
 31
0.0
  0
LINE
  5
3B9
  8
0
 10
286.0
 20
106.0
 30
0.0
 11
286.0
 21
129.0
 31
0.0
  0
ARC
  5
3BA
  8
0
 10
200.19999999999999
 20
151.77998099999999
 30
0.0
 40
5.3734809999999991
 50
69.252335999999502
 51
129.2523359999997
  0
LINE
  5
3BB
  8
0
 10
196.80000000000001
 20
155.94102599999999
 30
0.0
 11
196.80000000000001
 21
139.15346199999999
 31
0.0
  0
ARC
  5
3BC
  8
0
 10
190.0
 20
137.47819000000001
 30
0.0
 40
19.675272
 50
69.780873000000142
 51
90.000007999999823
  0
LINE
  5
3BE
  8
0
 10
205.5
 20
139.15346199999999
 30
0.0
 11
174.5
 21
139.15346199999999
 31
0.0
  0
LINE
  5
3BF
  8
0
 10
174.5
 20
139.15346199999999
 30
0.0
 11
174.0
 21
138.65346199999999
 31
0.0
  0
LINE
  5
3C0
  8
0
 10
174.0
 20
138.65346199999999
 30
0.0
 11
174.0
 21
135.75346200000001
 31
0.0
  0
LINE
  5
3C1
  8
0
 10
176.40000000000001
 20
155.94102599999999
 30
0.0
 11
176.40000000000001
 21
139.553462
 31
0.0
  0
ARC
  5
3C2
  8
0
 10
176.0
 20
139.553462
 30
0.0
 40
0.4
 50
270.0
 51
0.0
  0
ARC
  5
3C3
  8
0
 10
190.0
 20
137.47819000000001
 30
0.0
 40
19.675272
 50
89.999992000000177
 51
110.2191269999998
  0
LINE
  5
3C4
  8
0
 10
205.5
 20
139.15346199999999
 30
0.0
 11
206.0
 21
138.65346199999999
 31
0.0
  0
ARC
  5
3C5
  8
0
 10
204.0
 20
139.553462
 30
0.0
 40
0.4
 50
180.0
 51
270.0
  0
LINE
  5
3C7
  8
0
 10
206.0
 20
138.65346199999999
 30
0.0
 11
206.0
 21
135.75346200000001
 31
0.0
  0
LINE
  5
3C8
  8
0
 10
203.59999999999999
 20
155.94102599999999
 30
0.0
 11
203.59999999999999
 21
139.553462
 31
0.0
  0
LINE
  5
3C9
  8
0
 10
178.5
 20
157.15346199999999
 30
0.0
 11
201.5
 21
157.15346199999999
 31
0.0
  0
LINE
  5
3CA
  8
0
 10
183.19999999999999
 20
155.94102599999999
 30
0.0
 11
183.19999999999999
 21
139.15346199999999
 31
0.0
  0
LINE
  5
3CB
  8
0
 10
203.59999999999999
 20
155.94102599999999
 30
0.0
 11
201.5
 21
157.15346199999999
 31
0.0
  0
ARC
  5
3CC
  8
0
 10
179.80000000000001
 20
151.77998099999999
 30
0.0
 40
5.3734809999999991
 50
50.747664000000277
 51
110.7476639999999
  0
LINE
  5
3CD
  8
0
 10
176.40000000000001
 20
155.94102599999999
 30
0.0
 11
178.5
 21
157.15346199999999
 31
0.0
  0
LINE
  5
3CE
  8
0
 10
206.0
 20
135.75346200000001
 30
0.0
 11
174.0
 21
135.75346200000001
 31
0.0
  0
ARC
  5
3CF
  8
0
 10
190.0
 20
166.882227
 30
0.0
 40
35.0
 50
242.79710600000041
 51
245.63290704125441
  0
ARC
  5
3D0
  8
0
 10
190.0
 20
166.882227
 30
0.0
 40
35.0
 50
294.36709295874567
 51
297.20289399999962
  0
LINE
  5
3D1
  8
0
 10
205.5
 20
130.0
 30
0.0
 11
174.5
 21
130.0
 31
0.0
  0
LINE
  5
3DA
  8
0
 10
174.0
 20
130.5
 30
0.0
 11
174.5
 21
130.0
 31
0.0
  0
LINE
  5
3DB
  8
0
 10
174.5
 20
135.0
 30
0.0
 11
174.0
 21
134.5
 31
0.0
  0
LINE
  5
3DC
  8
0
 10
206.0
 20
134.5
 30
0.0
 11
205.5
 21
135.0
 31
0.0
  0
LINE
  5
3DD
  8
0
 10
206.0
 20
130.5
 30
0.0
 11
205.5
 21
130.0
 31
0.0
  0
LINE
  5
3DE
  8
0
 10
174.0
 20
130.5
 30
0.0
 11
174.0
 21
134.5
 31
0.0
  0
LINE
  5
3DF
  8
0
 10
206.0
 20
134.5
 30
0.0
 11
206.0
 21
130.5
 31
0.0
  0
LINE
  5
3E0
  8
0
 10
174.5
 20
135.0
 30
0.0
 11
205.5
 21
135.0
 31
0.0
  0
ARC
  5
3E4
  8
0
 10
62.600000000000001
 20
139.553462
 30
0.0
 40
0.4
 50
270.0
 51
0.0
  0
LINE
  5
3E5
  8
0
 10
75.0
 20
139.15346199999999
 30
0.0
 11
75.0
 21
155.79298999999989
 31
0.0
  0
LINE
  5
3E6
  8
0
 10
86.5
 20
157.15346199999999
 30
0.0
 11
63.5
 21
157.15346199999999
 31
0.0
  0
LINE
  5
3E7
  8
0
 10
63.0
 20
156.86478699999989
 30
0.0
 11
63.5
 21
157.15346199999999
 31
0.0
  0
LINE
  5
3E8
  8
0
 10
63.0
 20
139.553462
 30
0.0
 11
63.0
 21
156.86478699999989
 31
0.0
  0
ARC
  5
3E9
  8
0
 10
69.0
 20
139.53466
 30
0.0
 40
17.33012699999999
 50
69.743841999999916
 51
110.2561580000001
  0
ARC
  5
3EA
  8
0
 10
81.0
 20
139.53466
 30
0.0
 40
17.33012699999999
 50
69.743841999999916
 51
110.2561580000001
  0
LINE
  5
3EB
  8
0
 10
87.0
 20
156.86478699999989
 30
0.0
 11
86.5
 21
157.15346199999999
 31
0.0
  0
ARC
  5
3EC
  8
0
 10
87.400000000000006
 20
139.553462
 30
0.0
 40
0.4
 50
180.0
 51
270.0
  0
LINE
  5
3ED
  8
0
 10
87.0
 20
139.553462
 30
0.0
 11
87.0
 21
156.86478699999989
 31
0.0
  0
ARC
  5
3EE
  8
0
 10
75.0
 20
166.882227
 30
0.0
 40
35.0
 50
294.36709295874567
 51
297.2028940000003
  0
ARC
  5
3EF
  8
0
 10
75.0
 20
166.882227
 30
0.0
 40
35.0
 50
242.7971059999997
 51
245.63290704125441
  0
LINE
  5
3F0
  8
0
 10
91.0
 20
135.75346200000001
 30
0.0
 11
59.0
 21
135.75346200000001
 31
0.0
  0
LINE
  5
3F1
  8
0
 10
91.0
 20
138.65346199999999
 30
0.0
 11
91.0
 21
135.75346200000001
 31
0.0
  0
LINE
  5
3F2
  8
0
 10
90.5
 20
139.15346199999999
 30
0.0
 11
91.0
 21
138.65346199999999
 31
0.0
  0
LINE
  5
3F3
  8
0
 10
59.0
 20
138.65346199999999
 30
0.0
 11
59.0
 21
135.75346200000001
 31
0.0
  0
LINE
  5
3F4
  8
0
 10
59.5
 20
139.15346199999999
 30
0.0
 11
59.0
 21
138.65346199999999
 31
0.0
  0
LINE
  5
3F5
  8
0
 10
90.5
 20
139.15346199999999
 30
0.0
 11
59.5
 21
139.15346199999999
 31
0.0
  0
LINE
  5
3F6
  8
0
 10
90.5
 20
130.0
 30
0.0
 11
59.5
 21
130.0
 31
0.0
  0
LINE
  5
3FF
  8
0
 10
59.0
 20
130.5
 30
0.0
 11
59.5
 21
130.0
 31
0.0
  0
LINE
  5
400
  8
0
 10
59.5
 20
135.0
 30
0.0
 11
59.0
 21
134.5
 31
0.0
  0
LINE
  5
401
  8
0
 10
91.0
 20
134.5
 30
0.0
 11
90.5
 21
135.0
 31
0.0
  0
LINE
  5
402
  8
0
 10
91.0
 20
130.5
 30
0.0
 11
90.5
 21
130.0
 31
0.0
  0
LINE
  5
403
  8
0
 10
59.0
 20
130.5
 30
0.0
 11
59.0
 21
134.5
 31
0.0
  0
LINE
  5
404
  8
0
 10
91.0
 20
134.5
 30
0.0
 11
91.0
 21
130.5
 31
0.0
  0
LINE
  5
405
  8
0
 10
59.5
 20
135.0
 30
0.0
 11
90.5
 21
135.0
 31
0.0
  0
ARC
  5
409
  8
0
 10
292.60000000000002
 20
139.553462
 30
0.0
 40
0.4
 50
270.0
 51
0.0
  0
LINE
  5
40A
  8
0
 10
305.0
 20
139.15346199999999
 30
0.0
 11
305.0
 21
155.79298999999989
 31
0.0
  0
LINE
  5
40B
  8
0
 10
316.5
 20
157.15346199999999
 30
0.0
 11
293.5
 21
157.15346199999999
 31
0.0
  0
LINE
  5
40C
  8
0
 10
293.0
 20
156.86478699999989
 30
0.0
 11
293.5
 21
157.15346199999999
 31
0.0
  0
LINE
  5
40D
  8
0
 10
293.0
 20
139.553462
 30
0.0
 11
293.0
 21
156.86478699999989
 31
0.0
  0
ARC
  5
40E
  8
0
 10
299.0
 20
139.53466
 30
0.0
 40
17.33012699999999
 50
69.743841999999916
 51
110.2561580000001
  0
ARC
  5
40F
  8
0
 10
311.0
 20
139.53466
 30
0.0
 40
17.33012699999999
 50
69.743841999999916
 51
110.2561580000001
  0
LINE
  5
410
  8
0
 10
317.0
 20
156.86478699999989
 30
0.0
 11
316.5
 21
157.15346199999999
 31
0.0
  0
ARC
  5
411
  8
0
 10
317.39999999999998
 20
139.553462
 30
0.0
 40
0.4
 50
180.0
 51
270.0
  0
LINE
  5
412
  8
0
 10
317.0
 20
139.553462
 30
0.0
 11
317.0
 21
156.86478699999989
 31
0.0
  0
ARC
  5
413
  8
0
 10
305.0
 20
166.882227
 30
0.0
 40
35.0
 50
294.36709295874567
 51
297.20289399999962
  0
ARC
  5
414
  8
0
 10
305.0
 20
166.882227
 30
0.0
 40
35.0
 50
242.79710600000041
 51
245.6329070412543
  0
LINE
  5
415
  8
0
 10
321.0
 20
135.75346200000001
 30
0.0
 11
289.0
 21
135.75346200000001
 31
0.0
  0
LINE
  5
416
  8
0
 10
321.0
 20
138.65346199999999
 30
0.0
 11
321.0
 21
135.75346200000001
 31
0.0
  0
LINE
  5
417
  8
0
 10
320.5
 20
139.15346199999999
 30
0.0
 11
321.0
 21
138.65346199999999
 31
0.0
  0
LINE
  5
418
  8
0
 10
289.0
 20
138.65346199999999
 30
0.0
 11
289.0
 21
135.75346200000001
 31
0.0
  0
LINE
  5
419
  8
0
 10
289.5
 20
139.15346199999999
 30
0.0
 11
289.0
 21
138.65346199999999
 31
0.0
  0
LINE
  5
41A
  8
0
 10
320.5
 20
139.15346199999999
 30
0.0
 11
289.5
 21
139.15346199999999
 31
0.0
  0
LINE
  5
41B
  8
0
 10
320.5
 20
130.0
 30
0.0
 11
289.5
 21
130.0
 31
0.0
  0
LINE
  5
424
  8
0
 10
289.0
 20
130.5
 30
0.0
 11
289.5
 21
130.0
 31
0.0
  0
LINE
  5
425
  8
0
 10
289.5
 20
135.0
 30
0.0
 11
289.0
 21
134.5
 31
0.0
  0
LINE
  5
426
  8
0
 10
321.0
 20
134.5
 30
0.0
 11
320.5
 21
135.0
 31
0.0
  0
LINE
  5
427
  8
0
 10
321.0
 20
130.5
 30
0.0
 11
320.5
 21
130.0
 31
0.0
  0
LINE
  5
428
  8
0
 10
289.0
 20
130.5
 30
0.0
 11
289.0
 21
134.5
 31
0.0
  0
LINE
  5
429
  8
0
 10
321.0
 20
134.5
 30
0.0
 11
321.0
 21
130.5
 31
0.0
  0
LINE
  5
42A
  8
0
 10
289.5
 20
135.0
 30
0.0
 11
320.5
 21
135.0
 31
0.0
  0
ARC
  5
433
  8
0
 10
240.0
 20
215.0
 30
0.0
 40
14.0
 50
290.92483242763842
 51
69.075167572361664
  0
ARC
  5
434
  8
0
 10
240.0
 20
215.0
 30
0.0
 40
8.0
 50
136.5459522895311
 51
223.4540477104689
  0
LINE
  5
485
  8
0
 10
313.0
 20
90.0
 30
0.0
 11
313.0
 21
94.599999999999994
 31
0.0
  0
LINE
  5
486
  8
3
 10
311.91750000000002
 20
80.0
 30
0.0
 11
311.91750000000002
 21
52.917499999999997
 31
0.0
  0
LINE
  5
487
  8
3
 10
298.08249999999998
 20
80.0
 30
0.0
 11
298.08249999999998
 21
52.917499999999997
 31
0.0
  0
LINE
  5
488
  8
0
 10
297.0
 20
90.0
 30
0.0
 11
297.0
 21
94.599999999999994
 31
0.0
  0
LINE
  5
489
  8
3
 10
233.08250000000001
 20
80.0
 30
0.0
 11
233.08250000000001
 21
52.917499999999997
 31
0.0
  0
LINE
  5
48A
  8
0
 10
232.0
 20
90.0
 30
0.0
 11
232.0
 21
94.599999999999994
 31
0.0
  0
LINE
  5
48B
  8
0
 10
248.0
 20
90.0
 30
0.0
 11
248.0
 21
94.599999999999994
 31
0.0
  0
LINE
  5
48C
  8
3
 10
246.91749999999999
 20
80.0
 30
0.0
 11
246.91749999999999
 21
52.917499999999997
 31
0.0
  0
LINE
  5
48D
  8
3
 10
183.068939
 20
80.0
 30
0.0
 11
183.068939
 21
60.931060999999993
 31
0.0
  0
LINE
  5
48E
  8
0
 10
182.0
 20
90.0
 30
0.0
 11
182.0
 21
105.0
 31
0.0
  0
LINE
  5
48F
  8
0
 10
198.0
 20
80.0
 30
0.0
 11
198.0
 21
62.0
 31
0.0
  0
LINE
  5
490
  8
3
 10
196.93106
 20
80.0
 30
0.0
 11
196.93106
 21
60.931060999999993
 31
0.0
  0
LINE
  5
491
  8
3
 10
68.068939
 20
80.0
 30
0.0
 11
68.068939
 21
60.931060999999993
 31
0.0
  0
LINE
  5
492
  8
0
 10
67.0
 20
90.0
 30
0.0
 11
67.0
 21
105.0
 31
0.0
  0
LINE
  5
493
  8
0
 10
83.0
 20
80.0
 30
0.0
 11
83.0
 21
62.0
 31
0.0
  0
LINE
  5
494
  8
3
 10
81.931060000000002
 20
80.0
 30
0.0
 11
81.931060000000002
 21
60.931060999999993
 31
0.0
  0
LINE
  5
495
  8
0
 10
298.33040205994831
 20
104.3002293335898
 30
0.0
 11
299.43223554179212
 21
104.30022933223221
 31
0.0
  0
LINE
  5
496
  8
0
 10
233.33040199999999
 20
104.300229
 30
0.0
 11
234.4322355417921
 21
104.30022933223221
 31
0.0
  0
LINE
  5
497
  8
0
 10
182.0
 20
157.15346199999999
 30
0.0
 11
182.0
 21
158.0
 31
0.0
  0
LINE
  5
498
  8
0
 10
198.0
 20
105.0
 30
0.0
 11
198.0
 21
90.0
 31
0.0
  0
LINE
  5
499
  8
0
 10
67.0
 20
157.15346199999999
 30
0.0
 11
67.0
 21
158.0
 31
0.0
  0
LINE
  5
49A
  8
0
 10
83.0
 20
105.0
 30
0.0
 11
83.0
 21
90.0
 31
0.0
  0
LINE
  5
4E1
  8
0
 10
297.0
 20
158.0000000000002
 30
0.0
 11
313.00000000000011
 21
158.0000000000002
 31
0.0
  0
LINE
  5
4E2
  8
3
 10
298.06893900000011
 20
157.15346200000019
 30
0.0
 11
298.06893900000011
 21
159.0689390000002
 31
0.0
  0
LINE
  5
4E3
  8
3
 10
311.93105999999989
 20
157.15346200000019
 30
0.0
 11
311.93106
 21
159.0689390000002
 31
0.0
  0
LINE
  5
4E4
  8
0
 10
297.0
 20
158.0000000000002
 30
0.0
 11
299.00000000000011
 21
160.0000000000002
 31
0.0
  0
LINE
  5
4E5
  8
0
 10
313.00000000000011
 20
158.0000000000002
 30
0.0
 11
311.00000000000011
 21
160.0000000000002
 31
0.0
  0
LINE
  5
4E6
  8
0
 10
313.00000000000011
 20
158.0000000000002
 30
0.0
 11
313.00000000000011
 21
157.15346200000019
 31
0.0
  0
LINE
  5
4E7
  8
0
 10
299.00000000000011
 20
160.0000000000002
 30
0.0
 11
311.00000000000011
 21
160.0000000000002
 31
0.0
  0
LINE
  5
4E8
  8
0
 10
297.0
 20
157.15346200000019
 30
0.0
 11
297.0
 21
158.0000000000002
 31
0.0
  0
LINE
  5
4EB
  8
0
 10
80.999999999999972
 20
51.999999999999737
 30
0.0
 11
68.999999999999972
 21
51.999999999999737
 31
0.0
  0
LINE
  5
4EC
  8
0
 10
66.999999999999972
 20
53.999999999999737
 30
0.0
 11
66.999999999999972
 21
62.000000000000021
 31
0.0
  0
LINE
  5
4ED
  8
0
 10
82.999999999999972
 20
53.999999999999737
 30
0.0
 11
80.999999999999972
 21
51.999999999999737
 31
0.0
  0
LINE
  5
4EE
  8
0
 10
68.999999999999972
 20
51.999999999999737
 30
0.0
 11
66.999999999999972
 21
53.999999999999737
 31
0.0
  0
LINE
  5
4EF
  8
0
 10
66.999999999999972
 20
53.999999999999737
 30
0.0
 11
82.999999999999972
 21
53.999999999999737
 31
0.0
  0
LINE
  5
4F0
  8
3
 10
68.082499999999953
 20
60.91750000000004
 30
0.0
 11
68.082499999999953
 21
52.917499999999748
 31
0.0
  0
LINE
  5
4F1
  8
0
 10
82.999999999999972
 20
53.999999999999737
 30
0.0
 11
82.999999999999972
 21
61.999999999999972
 31
0.0
  0
LINE
  5
4F2
  8
3
 10
81.917499999999976
 20
60.91749999999999
 30
0.0
 11
81.917499999999976
 21
52.917499999999748
 31
0.0
  0
LINE
  5
53A
  8
0
 10
88.999999999999943
 20
105.0
 30
0.0
 11
89.999999999999943
 21
104.42265
 31
0.0
  0
LINE
  5
53B
  8
0
 10
60.999999999999943
 20
105.0
 30
0.0
 11
59.999999999999943
 21
104.42265
 31
0.0
  0
LINE
  5
53C
  8
0
 10
89.999999999999943
 20
104.42265
 30
0.0
 11
89.999999999999943
 21
95.577349999999996
 31
0.0
  0
LINE
  5
53D
  8
0
 10
88.999999999999943
 20
105.0
 30
0.0
 11
60.999999999999943
 21
105.0
 31
0.0
  0
LINE
  5
53E
  8
0
 10
60.999999999999943
 20
95.0
 30
0.0
 11
59.999999999999943
 21
95.577349999999996
 31
0.0
  0
LINE
  5
53F
  8
0
 10
59.999999999999943
 20
95.577349999999996
 30
0.0
 11
59.999999999999943
 21
104.42265
 31
0.0
  0
LINE
  5
540
  8
0
 10
88.999999999999943
 20
95.0
 30
0.0
 11
89.999999999999943
 21
95.577349999999996
 31
0.0
  0
LINE
  5
541
  8
0
 10
88.999999999999943
 20
95.0
 30
0.0
 11
83.0
 21
95.0
 31
0.0
  0
ARC
  5
548
  8
0
 10
85.606601999999953
 20
93.575057000000015
 30
0.0
 40
11.424943000000001
 50
69.842787000000286
 51
103.188185405488
  0
ARC
  5
549
  8
0
 10
85.606601999999953
 20
106.424943
 30
0.0
 40
11.424943000000001
 50
256.81181459451187
 51
290.15721299999967
  0
LINE
  5
54A
  8
0
 10
89.999999999999943
 20
104.300229
 30
0.0
 11
89.543605999999954
 21
104.300229
 31
0.0
  0
LINE
  5
54B
  8
0
 10
89.543605999999954
 20
104.300229
 30
0.0
 11
89.543605999999954
 21
95.699770999999998
 31
0.0
  0
LINE
  5
54C
  8
0
 10
89.543605999999954
 20
95.699770999999998
 30
0.0
 11
89.999999999999943
 21
95.699770999999998
 31
0.0
  0
ARC
  5
54F
  8
0
 10
64.393397999999934
 20
106.424943
 30
0.0
 40
11.424943000000001
 50
249.8427870000003
 51
283.18818540548858
  0
ARC
  5
550
  8
0
 10
64.393397999999934
 20
93.575057000000015
 30
0.0
 40
11.424943000000001
 50
76.811814594511404
 51
110.1572129999997
  0
LINE
  5
551
  8
0
 10
59.999999999999943
 20
104.300229
 30
0.0
 11
60.456393999999932
 21
104.300229
 31
0.0
  0
LINE
  5
552
  8
0
 10
60.456393999999932
 20
104.300229
 30
0.0
 11
60.456393999999932
 21
95.699770999999998
 31
0.0
  0
LINE
  5
553
  8
0
 10
60.456393999999932
 20
95.699770999999998
 30
0.0
 11
59.999999999999943
 21
95.699770999999998
 31
0.0
  0
LINE
  5
556
  8
0
 10
67.0
 20
95.0
 30
0.0
 11
60.999999999999943
 21
95.0
 31
0.0
  0
TEXT
  5
5F9
  8
0
 62
     3
 10
0.0
 20
0.0
 30
0.0
 40
10.0
  1
BJ153-16125A1
  7
STANDARD1
  0
ENDSEC
  0
EOF
