  0
SECTION
  2
HEADER
  9
$ACADVER
  1
AC1009
  9
$INSBASE
 10
82.638099999999994
 20
103.82319099999999
 30
0.0
  9
$EXTMIN
 10
0.0
 20
-2.960436562073669
 30
0.0
  9
$EXTMAX
 10
339.0
 20
245.0
 30
0.0
  9
$LIMMIN
 10
0.0
 20
0.0
  9
$LIMMAX
 10
375.0
 20
270.0
  9
$ORTHOMODE
 70
     1
  9
$REGENMODE
 70
     1
  9
$FILLMODE
 70
     1
  9
$QTEXTMODE
 70
     0
  9
$MIRRTEXT
 70
     0
  9
$DRAGMODE
 70
     2
  9
$LTSCALE
 40
10.0
  9
$OSMODE
 70
  3071
  9
$ATTMODE
 70
     1
  9
$TEXTSIZE
 40
0.06
  9
$TRACEWID
 40
0.05
  9
$TEXTSTYLE
  7
STANDARD
  9
$CLAYER
  8
0
  9
$CELTYPE
  6
BYLAYER
  9
$CECOLOR
 62
   256
  9
$DIMSCALE
 40
1.0
  9
$DIMASZ
 40
3.0
  9
$DIMEXO
 40
2.0
  9
$DIMDLI
 40
10.0
  9
$DIMRND
 40
0.0
  9
$DIMDLE
 40
0.0
  9
$DIMEXE
 40
2.0
  9
$DIMTP
 40
0.0
  9
$DIMTM
 40
0.0
  9
$DIMTXT
 40
3.0
  9
$DIMCEN
 40
0.0
  9
$DIMTSZ
 40
0.0
  9
$DIMTOL
 70
     0
  9
$DIMLIM
 70
     0
  9
$DIMTIH
 70
     0
  9
$DIMTOH
 70
     0
  9
$DIMSE1
 70
     0
  9
$DIMSE2
 70
     0
  9
$DIMTAD
 70
     1
  9
$DIMZIN
 70
     0
  9
$DIMBLK
  1

  9
$DIMASO
 70
     0
  9
$DIMSHO
 70
     0
  9
$DIMPOST
  1

  9
$DIMAPOST
  1

  9
$DIMALT
 70
     0
  9
$DIMALTD
 70
     2
  9
$DIMALTF
 40
25.399999999999999
  9
$DIMLFAC
 40
1.0
  9
$DIMTOFL
 70
     1
  9
$DIMTVP
 40
1.6000000000000001
  9
$DIMTIX
 70
     1
  9
$DIMSOXD
 70
     0
  9
$DIMSAH
 70
     0
  9
$DIMBLK1
  1

  9
$DIMBLK2
  1

  9
$DIMSTYLE
  2
STANDARD
  9
$DIMCLRD
 70
     0
  9
$DIMCLRE
 70
     0
  9
$DIMCLRT
 70
     0
  9
$DIMTFAC
 40
1.0
  9
$DIMGAP
 40
0.09
  9
$LUNITS
 70
     2
  9
$LUPREC
 70
     4
  9
$SKETCHINC
 40
0.1
  9
$FILLETRAD
 40
0.0
  9
$AUNITS
 70
     0
  9
$AUPREC
 70
     4
  9
$MENU
  1
E:\r13\win\SUPPORT\ACAD
  9
$ELEVATION
 40
0.0
  9
$PELEVATION
 40
0.0
  9
$THICKNESS
 40
0.0
  9
$LIMCHECK
 70
     0
  9
$BLIPMODE
 70
     0
  9
$CHAMFERA
 40
0.0
  9
$CHAMFERB
 40
0.0
  9
$SKPOLY
 70
     0
  9
$TDCREATE
 40
2449840.346469908
  9
$TDUPDATE
 40
2456597.6395206479
  9
$TDINDWG
 40
0.0042364815
  9
$TDUSRTIMER
 40
0.0042364815
  9
$USRTIMER
 70
     1
  9
$ANGBASE
 50
0.0
  9
$ANGDIR
 70
     0
  9
$PDMODE
 70
     1
  9
$PDSIZE
 40
0.0
  9
$PLINEWID
 40
0.0
  9
$COORDS
 70
     1
  9
$SPLFRAME
 70
     0
  9
$SPLINETYPE
 70
     6
  9
$SPLINESEGS
 70
     8
  9
$ATTDIA
 70
     0
  9
$ATTREQ
 70
     1
  9
$HANDLING
 70
     1
  9
$HANDSEED
  5
6F0
  9
$SURFTAB1
 70
     6
  9
$SURFTAB2
 70
     6
  9
$SURFTYPE
 70
     6
  9
$SURFU
 70
     6
  9
$SURFV
 70
     6
  9
$UCSNAME
  2

  9
$UCSORG
 10
0.0
 20
0.0
 30
0.0
  9
$UCSXDIR
 10
1.0
 20
0.0
 30
0.0
  9
$UCSYDIR
 10
0.0
 20
1.0
 30
0.0
  9
$PUCSNAME
  2

  9
$PUCSORG
 10
0.0
 20
0.0
 30
0.0
  9
$PUCSXDIR
 10
1.0
 20
0.0
 30
0.0
  9
$PUCSYDIR
 10
0.0
 20
1.0
 30
0.0
  9
$USERI1
 70
     3
  9
$USERI2
 70
     1
  9
$USERI3
 70
     0
  9
$USERI4
 70
     0
  9
$USERI5
 70
     0
  9
$USERR1
 40
1.0
  9
$USERR2
 40
3.0
  9
$USERR3
 40
3.0
  9
$USERR4
 40
3.0
  9
$USERR5
 40
10.0
  9
$WORLDVIEW
 70
     1
  9
$SHADEDGE
 70
     3
  9
$SHADEDIF
 70
    70
  9
$TILEMODE
 70
     1
  9
$MAXACTVP
 70
    16
  9
$PLIMCHECK
 70
     0
  9
$PEXTMIN
 10
1.0000000000000000E+020
 20
1.0000000000000000E+020
 30
1.0000000000000000E+020
  9
$PEXTMAX
 10
-1.0000000000000000E+020
 20
-1.0000000000000000E+020
 30
-1.0000000000000000E+020
  9
$PLIMMIN
 10
0.0
 20
0.0
  9
$PLIMMAX
 10
12.0
 20
9.0
  9
$UNITMODE
 70
     0
  9
$VISRETAIN
 70
     0
  9
$PLINEGEN
 70
     0
  9
$PSLTSCALE
 70
     0
  0
ENDSEC
  0
SECTION
  2
TABLES
  0
TABLE
  2
VPORT
 70
     1
  0
VPORT
  2
*ACTIVE
 70
     0
 10
0.0
 20
0.0
 11
1.0
 21
1.0
 12
195.0581083320873
 22
133.5127261426681
 13
0.0
 23
0.0
 14
5.0
 24
5.0
 15
10.0
 25
10.0
 16
0.0
 26
0.0
 36
1.0
 17
0.0
 27
0.0
 37
0.0
 40
275.42274993631997
 41
1.831871345029239
 42
50.0
 43
0.0
 44
0.0
 50
0.0
 51
0.0
 71
     0
 72
   100
 73
     1
 74
     0
 75
     0
 76
     0
 77
     0
 78
     0
  0
ENDTAB
  0
TABLE
  2
LTYPE
 70
     4
  0
LTYPE
  2
CONTINUOUS
 70
     0
  3
Solid Line
 72
    65
 73
     0
 40
0.0
  0
LTYPE
  2
CENTER
 70
     0
  3
____ _ ____ _ ____ _ ____ _ ____ _ ____ _ ____
 72
    65
 73
     4
 40
2.0
 49
1.25
 49
-0.25
 49
0.25
 49
-0.25
  0
LTYPE
  2
HIDDEN
 70
     0
  3
__ __ __ __ __ __ __ __ __ __ __ __ __ __ __ __
 72
    65
 73
     2
 40
0.375
 49
0.25
 49
-0.125
  0
LTYPE
  2
PHANTOM2
 70
     0
  3
___ _ _ ___ _ _ ___ _ _ ___ _ _
 72
    65
 73
     6
 40
1.25
 49
0.625
 49
-0.125
 49
0.125
 49
-0.125
 49
0.125
 49
-0.125
  0
ENDTAB
  0
TABLE
  2
LAYER
 70
     4
  0
LAYER
  2
0
 70
     0
 62
     7
  6
CONTINUOUS
  0
LAYER
  2
1
 70
     0
 62
     1
  6
CENTER
  0
LAYER
  2
2
 70
     0
 62
     2
  6
HIDDEN
  0
LAYER
  2
3
 70
     0
 62
     3
  6
CONTINUOUS
  0
ENDTAB
  0
TABLE
  2
STYLE
 70
     2
  0
STYLE
  2
STANDARD
 70
     0
 40
0.0
 41
1.0
 50
0.0
 71
     0
 42
0.06
  3
TXT
  4
BIGFONT
  0
STYLE
  2
STANDARD1
 70
     0
 40
0.0
 41
1.0
 50
0.0
 71
     0
 42
3.0
  3
txt
  4

  0
ENDTAB
  0
TABLE
  2
VIEW
 70
     0
  0
ENDTAB
  0
TABLE
  2
UCS
 70
     0
  0
ENDTAB
  0
TABLE
  2
APPID
 70
     3
  0
APPID
  2
ACAD
 70
     0
  0
APPID
  2
ACAD_MLEADERVER
 70
     0
  0
APPID
  2
ACAD_NAV_VCDISPLAY
 70
     0
  0
ENDTAB
  0
TABLE
  2
DIMSTYLE
 70
     1
  0
DIMSTYLE
  2
STANDARD
 70
     0
  3

  4

  5

  6

  7

 40
1.0
 41
0.18
 42
0.0625
 43
0.38
 44
0.18
 45
0.0
 46
0.0
 47
0.0
 48
0.0
140
0.18
141
0.09
142
0.0
143
25.399999999999999
144
1.0
145
0.0
146
1.0
147
0.09
 71
     0
 72
     0
 73
     1
 74
     1
 75
     0
 76
     0
 77
     0
 78
     0
170
     0
171
     2
172
     0
173
     0
174
     0
175
     0
176
     0
177
     0
178
     0
  0
ENDTAB
  0
ENDSEC
  0
SECTION
  2
BLOCKS
  0
BLOCK
  8
0
  2
$MODEL_SPACE
 70
     0
 10
0.0
 20
0.0
 30
0.0
  3
$MODEL_SPACE
  1

  0
ENDBLK
  5
21F
  8
0
  0
BLOCK
 67
     1
  8
0
  2
$PAPER_SPACE
 70
     0
 10
0.0
 20
0.0
 30
0.0
  3
$PAPER_SPACE
  1

  0
ENDBLK
  5
21D
 67
     1
  8
0
  0
ENDSEC
  0
SECTION
  2
ENTITIES
  0
CIRCLE
  5
42E
  8
0
 10
190.0
 20
220.0
 30
0.0
 40
7.0
  0
CIRCLE
  5
42F
  8
3
 10
190.0
 20
220.0
 30
0.0
 40
8.0
  0
LINE
  5
430
  8
0
 10
203.59230500000001
 20
219.542563
 30
0.0
 11
197.192305
 21
208.457437
 31
0.0
  0
ARC
  5
431
  8
0
 10
190.0
 20
220.0
 30
0.0
 40
13.6
 50
358.07248700000048
 51
1.9275129999994931
  0
ARC
  5
432
  8
0
 10
190.0
 20
220.0
 30
0.0
 40
13.6
 50
58.072487000002148
 51
61.92751300000063
  0
LINE
  5
433
  8
0
 10
197.192305
 20
231.542563
 30
0.0
 11
203.59230500000001
 21
220.457437
 31
0.0
  0
ARC
  5
434
  8
0
 10
190.0
 20
220.0
 30
0.0
 40
13.6
 50
118.0724869999993
 51
121.9275129999978
  0
LINE
  5
435
  8
0
 10
183.59999999999999
 20
232.0
 30
0.0
 11
196.40000000000001
 21
232.0
 31
0.0
  0
ARC
  5
436
  8
0
 10
190.0
 20
220.0
 30
0.0
 40
13.6
 50
178.07248700000051
 51
181.92751299999949
  0
LINE
  5
437
  8
0
 10
176.40769499999999
 20
220.457437
 30
0.0
 11
182.80769499999991
 21
231.542563
 31
0.0
  0
ARC
  5
438
  8
0
 10
190.0
 20
220.0
 30
0.0
 40
13.6
 50
238.0724870000021
 51
241.9275130000006
  0
LINE
  5
439
  8
0
 10
182.80769499999991
 20
208.457437
 30
0.0
 11
176.40769499999999
 21
219.542563
 31
0.0
  0
ARC
  5
43A
  8
0
 10
190.0
 20
220.0
 30
0.0
 40
13.6
 50
298.07248699999928
 51
301.92751299999787
  0
LINE
  5
43B
  8
0
 10
196.40000000000001
 20
208.0
 30
0.0
 11
183.59999999999999
 21
208.0
 31
0.0
  0
CIRCLE
  5
43C
  8
0
 10
190.0
 20
220.0
 30
0.0
 40
16.0
  0
CIRCLE
  5
43D
  8
0
 10
190.0
 20
220.0
 30
0.0
 40
11.5
  0
LINE
  5
43E
  8
1
 10
190.0
 20
196.0
 30
0.0
 11
190.0
 21
244.0
 31
0.0
  0
LINE
  5
43F
  8
0
 10
205.5
 20
135.0
 30
0.0
 11
174.5
 21
135.0
 31
0.0
  0
LINE
  5
440
  8
0
 10
174.0
 20
135.5
 30
0.0
 11
174.5
 21
135.0
 31
0.0
  0
LINE
  5
441
  8
0
 10
174.5
 20
140.0
 30
0.0
 11
174.0
 21
139.5
 31
0.0
  0
LINE
  5
442
  8
0
 10
206.0
 20
139.5
 30
0.0
 11
205.5
 21
140.0
 31
0.0
  0
LINE
  5
443
  8
0
 10
206.0
 20
135.5
 30
0.0
 11
205.5
 21
135.0
 31
0.0
  0
LINE
  5
444
  8
0
 10
174.0
 20
135.5
 30
0.0
 11
174.0
 21
139.5
 31
0.0
  0
LINE
  5
445
  8
0
 10
206.0
 20
139.5
 30
0.0
 11
206.0
 21
135.5
 31
0.0
  0
LINE
  5
446
  8
0
 10
174.5
 20
140.0
 30
0.0
 11
205.5
 21
140.0
 31
0.0
  0
ARC
  5
447
  8
0
 10
200.1999999999999
 20
156.77998099999999
 30
0.0
 40
5.3734809999999991
 50
69.252336000001435
 51
129.252336000003
  0
LINE
  5
448
  8
0
 10
196.80000000000001
 20
160.94102599999999
 30
0.0
 11
196.80000000000001
 21
144.15346199999999
 31
0.0
  0
ARC
  5
449
  8
0
 10
190.0
 20
142.47819000000001
 30
0.0
 40
19.675272
 50
69.780873000002174
 51
90.000007999998203
  0
LINE
  5
44A
  8
0
 10
205.5
 20
144.15346199999999
 30
0.0
 11
174.5
 21
144.15346199999999
 31
0.0
  0
LINE
  5
44B
  8
0
 10
174.5
 20
144.15346199999999
 30
0.0
 11
174.0
 21
143.65346199999999
 31
0.0
  0
LINE
  5
44C
  8
0
 10
174.0
 20
143.65346199999999
 30
0.0
 11
174.0
 21
140.75346200000001
 31
0.0
  0
LINE
  5
44D
  8
0
 10
176.40000000000001
 20
160.94102599999999
 30
0.0
 11
176.40000000000001
 21
144.553462
 31
0.0
  0
ARC
  5
44E
  8
0
 10
176.0
 20
144.553462
 30
0.0
 40
0.4
 50
270.0
 51
0.0
  0
ARC
  5
44F
  8
0
 10
190.0
 20
142.47819000000001
 30
0.0
 40
19.675272
 50
89.999992000001797
 51
110.2191269999978
  0
LINE
  5
450
  8
0
 10
205.5
 20
144.15346199999999
 30
0.0
 11
206.0
 21
143.65346199999999
 31
0.0
  0
ARC
  5
451
  8
0
 10
204.0
 20
144.553462
 30
0.0
 40
0.4
 50
180.0
 51
270.0
  0
LINE
  5
452
  8
0
 10
206.0
 20
143.65346199999999
 30
0.0
 11
206.0
 21
140.75346200000001
 31
0.0
  0
LINE
  5
453
  8
0
 10
203.59999999999999
 20
160.94102599999999
 30
0.0
 11
203.59999999999999
 21
144.553462
 31
0.0
  0
LINE
  5
454
  8
0
 10
178.5
 20
162.15346199999999
 30
0.0
 11
201.5
 21
162.15346199999999
 31
0.0
  0
LINE
  5
455
  8
0
 10
183.1999999999999
 20
160.94102599999999
 30
0.0
 11
183.1999999999999
 21
144.15346199999999
 31
0.0
  0
LINE
  5
456
  8
0
 10
203.59999999999999
 20
160.94102599999999
 30
0.0
 11
201.5
 21
162.15346199999999
 31
0.0
  0
ARC
  5
457
  8
0
 10
179.80000000000001
 20
156.77998099999999
 30
0.0
 40
5.3734809999999991
 50
50.747663999996909
 51
110.74766399999849
  0
LINE
  5
458
  8
0
 10
176.40000000000001
 20
160.94102599999999
 30
0.0
 11
178.5
 21
162.15346199999999
 31
0.0
  0
LINE
  5
459
  8
0
 10
206.0
 20
140.75346200000001
 30
0.0
 11
174.0
 21
140.75346200000001
 31
0.0
  0
ARC
  5
45A
  8
0
 10
190.0
 20
171.882227
 30
0.0
 40
35.0
 50
242.7971059999974
 51
245.63290704125791
  0
ARC
  5
45B
  8
0
 10
190.0
 20
171.882227
 30
0.0
 40
35.0
 50
294.36709295874209
 51
297.20289400000257
  0
LINE
  5
45C
  8
1
 10
255.0
 20
195.0
 30
0.0
 11
255.0
 21
245.0
 31
0.0
  0
LINE
  5
45D
  8
1
 10
85.440294685950676
 20
220.0
 30
0.0
 11
280.0
 21
220.0
 31
0.0
  0
ARC
  5
45E
  8
0
 10
255.0
 20
220.0
 30
0.0
 40
8.0
 50
136.54595228952911
 51
223.4540477104708
  0
ARC
  5
45F
  8
0
 10
255.0
 20
220.0
 30
0.0
 40
8.0
 50
308.68218745348918
 51
51.317812546510773
  0
ARC
  5
460
  8
0
 10
255.0
 20
220.0
 30
0.0
 40
14.0
 50
152.40494347894349
 51
207.59505652105639
  0
ARC
  5
461
  8
0
 10
255.0
 20
220.0
 30
0.0
 40
14.0
 50
290.9248324276403
 51
69.075167572359746
  0
LINE
  5
462
  8
0
 10
261.66959800000012
 20
234.54360600000001
 30
0.0
 11
269.54360600000012
 21
226.66959800000001
 31
0.0
  0
LINE
  5
463
  8
0
 10
269.54360600000012
 20
213.33040199999999
 30
0.0
 11
261.66959800000012
 21
205.45639399999999
 31
0.0
  0
LINE
  5
464
  8
0
 10
240.0
 20
224.78035628902279
 30
0.0
 11
240.0
 21
215.21964371097721
 31
0.0
  0
ARC
  5
465
  8
0
 10
255.0
 20
220.0
 30
0.0
 40
16.0
 50
65.364135000002577
 51
69.635865000000535
  0
ARC
  5
466
  8
0
 10
255.0
 20
220.0
 30
0.0
 40
16.0
 50
20.36413499999923
 51
24.63586500000034
  0
ARC
  5
467
  8
0
 10
255.0
 20
220.0
 30
0.0
 40
16.0
 50
335.36413499999969
 51
339.63586500000071
  0
LINE
  5
468
  8
0
 10
270.0
 20
214.43223599999999
 30
0.0
 11
270.0
 21
225.56776400000001
 31
0.0
  0
ARC
  5
469
  8
0
 10
255.0
 20
220.0
 30
0.0
 40
16.0
 50
290.36413499999941
 51
294.6358649999973
  0
LINE
  5
46A
  8
0
 10
269.0
 20
110.0
 30
0.0
 11
270.0
 21
109.42265
 31
0.0
  0
LINE
  5
46B
  8
0
 10
241.0
 20
110.0
 30
0.0
 11
240.0
 21
109.42265
 31
0.0
  0
LINE
  5
46C
  8
0
 10
270.0
 20
109.42265
 30
0.0
 11
270.0
 21
100.57735
 31
0.0
  0
LINE
  5
46D
  8
0
 10
269.0
 20
110.0
 30
0.0
 11
241.0
 21
110.0
 31
0.0
  0
LINE
  5
46E
  8
0
 10
241.0
 20
100.0
 30
0.0
 11
240.0
 21
100.57735
 31
0.0
  0
LINE
  5
46F
  8
0
 10
240.0
 20
100.57735
 30
0.0
 11
240.0
 21
109.42265
 31
0.0
  0
LINE
  5
470
  8
0
 10
269.0
 20
100.0
 30
0.0
 11
270.0
 21
100.57735
 31
0.0
  0
LINE
  5
471
  8
0
 10
269.0
 20
100.0
 30
0.0
 11
241.0
 21
100.0
 31
0.0
  0
LINE
  5
472
  8
1
 10
255.0
 20
119.0
 30
0.0
 11
255.0
 21
34.5
 31
0.0
  0
LINE
  5
473
  8
0
 10
261.0
 20
42.0
 30
0.0
 11
249.0
 21
42.0
 31
0.0
  0
LINE
  5
474
  8
0
 10
247.0
 20
44.0
 30
0.0
 11
247.0
 21
75.0
 31
0.0
  0
LINE
  5
475
  8
0
 10
247.0
 20
85.0
 30
0.0
 11
247.0
 21
99.599999999999994
 31
0.0
  0
LINE
  5
476
  8
0
 10
263.0
 20
44.0
 30
0.0
 11
261.0
 21
42.0
 31
0.0
  0
LINE
  5
477
  8
0
 10
249.0
 20
42.0
 30
0.0
 11
247.0
 21
44.0
 31
0.0
  0
LINE
  5
478
  8
0
 10
247.0
 20
44.0
 30
0.0
 11
263.0
 21
44.0
 31
0.0
  0
LINE
  5
479
  8
0
 10
247.0
 20
97.725055000000012
 30
0.0
 11
263.0
 21
97.725055000000012
 31
0.0
  0
LINE
  5
47A
  8
3
 10
248.08250000000001
 20
97.725055000000012
 30
0.0
 11
248.08250000000001
 21
85.0
 31
0.0
  0
LINE
  5
47B
  8
3
 10
248.08250000000001
 20
75.0
 30
0.0
 11
248.08250000000001
 21
42.917499999999997
 31
0.0
  0
LINE
  5
47C
  8
3
 10
248.08250000000001
 20
97.725055000000012
 30
0.0
 11
247.0
 21
99.599999999999994
 31
0.0
  0
ARC
  5
47D
  8
0
 10
255.0
 20
87.5
 30
0.0
 40
22.5
 50
75.672965999999974
 51
104.327034
  0
ARC
  5
47E
  8
0
 10
255.0
 20
122.5
 30
0.0
 40
22.5
 50
255.672966
 51
284.32703400000003
  0
LINE
  5
47F
  8
0
 10
260.56776400000001
 20
109.300229
 30
0.0
 11
260.56776400000001
 21
100.699771
 31
0.0
  0
LINE
  5
480
  8
0
 10
260.56776400000001
 20
100.699771
 30
0.0
 11
261.66959800000012
 21
100.699771
 31
0.0
  0
LINE
  5
481
  8
0
 10
260.56776400000001
 20
109.300229
 30
0.0
 11
261.66959800000012
 21
109.300229
 31
0.0
  0
LINE
  5
482
  8
0
 10
261.66959800000012
 20
109.300229
 30
0.0
 11
261.66959800000012
 21
100.699771
 31
0.0
  0
ARC
  5
483
  8
0
 10
265.6066019999999
 20
98.575057000000015
 30
0.0
 40
11.424943000000001
 50
69.842787000002033
 51
110.15721299999799
  0
ARC
  5
484
  8
0
 10
265.6066019999999
 20
111.424943
 30
0.0
 40
11.424943000000001
 50
249.84278700000201
 51
290.15721299999802
  0
LINE
  5
485
  8
0
 10
270.0
 20
109.300229
 30
0.0
 11
269.54360600000012
 21
109.300229
 31
0.0
  0
LINE
  5
486
  8
0
 10
269.54360600000012
 20
109.300229
 30
0.0
 11
269.54360600000012
 21
100.699771
 31
0.0
  0
LINE
  5
487
  8
0
 10
269.54360600000012
 20
100.699771
 30
0.0
 11
270.0
 21
100.699771
 31
0.0
  0
LINE
  5
488
  8
0
 10
249.43223599999999
 20
109.300229
 30
0.0
 11
249.43223599999999
 21
100.699771
 31
0.0
  0
LINE
  5
489
  8
0
 10
248.33040199999991
 20
109.300229
 30
0.0
 11
248.33040199999991
 21
100.699771
 31
0.0
  0
ARC
  5
48A
  8
0
 10
244.3933980000001
 20
111.424943
 30
0.0
 40
11.424943000000001
 50
249.84278700000201
 51
290.15721299999802
  0
ARC
  5
48B
  8
0
 10
244.3933980000001
 20
98.575057000000015
 30
0.0
 40
11.424943000000001
 50
69.842787000002033
 51
110.15721299999799
  0
LINE
  5
48C
  8
0
 10
240.0
 20
109.300229
 30
0.0
 11
240.4563939999999
 21
109.300229
 31
0.0
  0
LINE
  5
48D
  8
0
 10
240.4563939999999
 20
109.300229
 30
0.0
 11
240.4563939999999
 21
100.699771
 31
0.0
  0
LINE
  5
48E
  8
0
 10
240.4563939999999
 20
100.699771
 30
0.0
 11
240.0
 21
100.699771
 31
0.0
  0
LINE
  5
48F
  8
0
 10
249.43223599999999
 20
100.699771
 30
0.0
 11
248.33040199999991
 21
100.699771
 31
0.0
  0
ARC
  5
490
  8
0
 10
246.59999999999999
 20
99.599999999999994
 30
0.0
 40
0.4
 50
0.0
 51
90.0
  0
LINE
  5
491
  8
3
 10
261.91750000000002
 20
97.725055000000012
 30
0.0
 11
263.0
 21
99.599999999999994
 31
0.0
  0
ARC
  5
492
  8
0
 10
263.39999999999998
 20
99.599999999999994
 30
0.0
 40
0.4
 50
90.0
 51
180.0
  0
LINE
  5
493
  8
0
 10
263.0
 20
44.0
 30
0.0
 11
263.0
 21
75.0
 31
0.0
  0
LINE
  5
494
  8
0
 10
263.0
 20
85.0
 30
0.0
 11
263.0
 21
99.599999999999994
 31
0.0
  0
LINE
  5
495
  8
3
 10
261.91750000000002
 20
97.725055000000012
 30
0.0
 11
261.91750000000002
 21
85.0
 31
0.0
  0
LINE
  5
496
  8
3
 10
261.91750000000002
 20
75.0
 30
0.0
 11
261.91750000000002
 21
42.917499999999997
 31
0.0
  0
LINE
  5
497
  8
0
 10
263.00048199999998
 20
110.0
 30
0.0
 11
263.00048199999998
 21
113.5
 31
0.0
  0
LINE
  5
498
  8
0
 10
262.50048199999998
 20
114.0
 30
0.0
 11
260.0
 21
114.0
 31
0.0
  0
LINE
  5
499
  8
0
 10
262.50048199999998
 20
114.0
 30
0.0
 11
263.00048199999998
 21
113.5
 31
0.0
  0
LINE
  5
49A
  8
0
 10
266.5
 20
75.0
 30
0.0
 11
243.5
 21
75.0
 31
0.0
  0
LINE
  5
49B
  8
0
 10
243.5
 20
85.0
 30
0.0
 11
266.5
 21
85.0
 31
0.0
  0
ARC
  5
49C
  8
0
 10
265.39230499999991
 20
78.577349999999996
 30
0.0
 40
6.1339750000000004
 50
64.384247000000045
 51
124.38424699999671
  0
LINE
  5
49D
  8
0
 10
268.85640599999999
 20
83.639527999999984
 30
0.0
 11
266.5
 21
85.0
 31
0.0
  0
LINE
  5
49E
  8
0
 10
268.85640599999999
 20
76.360472000000001
 30
0.0
 11
266.5
 21
75.0
 31
0.0
  0
ARC
  5
49F
  8
0
 10
265.39230499999991
 20
81.422650000000004
 30
0.0
 40
6.1339750000000004
 50
235.6157530000032
 51
295.61575299999998
  0
LINE
  5
4A0
  8
0
 10
268.85640599999999
 20
83.639527999999984
 30
0.0
 11
268.85640599999999
 21
76.360472000000001
 31
0.0
  0
LINE
  5
4A1
  8
0
 10
261.928203
 20
83.639527999999984
 30
0.0
 11
261.928203
 21
76.360472000000001
 31
0.0
  0
LINE
  5
4A2
  8
0
 10
248.071797
 20
83.639527999999984
 30
0.0
 11
248.071797
 21
76.360472000000001
 31
0.0
  0
LINE
  5
4A3
  8
0
 10
241.14359400000001
 20
83.639527999999984
 30
0.0
 11
241.14359400000001
 21
76.360472000000001
 31
0.0
  0
ARC
  5
4A4
  8
0
 10
255.0
 20
98.216878000000008
 30
0.0
 40
22.928203
 50
252.412046000001
 51
287.58795399999912
  0
ARC
  5
4A5
  8
0
 10
244.60769500000009
 20
81.422650000000004
 30
0.0
 40
6.1339750000000004
 50
244.38424699999999
 51
304.38424699999672
  0
LINE
  5
4A6
  8
0
 10
241.14359400000001
 20
76.360472000000001
 30
0.0
 11
243.5
 21
75.0
 31
0.0
  0
LINE
  5
4A7
  8
0
 10
241.14359400000001
 20
83.639527999999984
 30
0.0
 11
243.5
 21
85.0
 31
0.0
  0
ARC
  5
4A8
  8
0
 10
244.60769500000009
 20
78.577349999999996
 30
0.0
 40
6.1339750000000004
 50
55.615753000003281
 51
115.6157529999999
  0
ARC
  5
4A9
  8
0
 10
255.0
 20
61.783121999999999
 30
0.0
 40
22.928203
 50
72.412046000000956
 51
107.587953999999
  0
LINE
  5
4AA
  8
1
 10
190.0
 20
183.5
 30
0.0
 11
190.0
 21
43.5
 31
0.0
  0
LINE
  5
4AB
  8
0
 10
196.0
 20
51.0
 30
0.0
 11
198.0
 21
53.0
 31
0.0
  0
LINE
  5
4AC
  8
0
 10
182.0
 20
174.0
 30
0.0
 11
198.0
 21
174.0
 31
0.0
  0
LINE
  5
4AD
  8
3
 10
183.068939
 20
162.15346199999999
 30
0.0
 11
183.068939
 21
175.068939
 31
0.0
  0
LINE
  5
4AE
  8
3
 10
196.93106
 20
162.15346199999999
 30
0.0
 11
196.93106
 21
175.068939
 31
0.0
  0
LINE
  5
4AF
  8
3
 10
196.93106
 20
91.0
 30
0.0
 11
196.93106
 21
85.0
 31
0.0
  0
LINE
  5
4B0
  8
3
 10
196.93106
 20
75.0
 30
0.0
 11
196.93106
 21
51.931061
 31
0.0
  0
LINE
  5
4B1
  8
3
 10
197.999999
 20
92.851457000000011
 30
0.0
 11
196.93106
 21
91.0
 31
0.0
  0
LINE
  5
4B2
  8
0
 10
182.0
 20
91.0
 30
0.0
 11
198.0
 21
91.0
 31
0.0
  0
LINE
  5
4B3
  8
3
 10
183.068939
 20
91.0
 30
0.0
 11
183.068939
 21
85.0
 31
0.0
  0
LINE
  5
4B4
  8
3
 10
183.068939
 20
75.0
 30
0.0
 11
183.068939
 21
51.931061
 31
0.0
  0
LINE
  5
4B5
  8
3
 10
182.0
 20
92.851457000000011
 30
0.0
 11
183.068939
 21
91.0
 31
0.0
  0
LINE
  5
4B6
  8
0
 10
182.0
 20
53.0
 30
0.0
 11
198.0
 21
53.0
 31
0.0
  0
LINE
  5
4B7
  8
0
 10
182.0
 20
53.0
 30
0.0
 11
184.0
 21
51.0
 31
0.0
  0
LINE
  5
4B8
  8
0
 10
182.0
 20
174.0
 30
0.0
 11
184.0
 21
176.0
 31
0.0
  0
LINE
  5
4B9
  8
0
 10
198.0
 20
174.0
 30
0.0
 11
196.0
 21
176.0
 31
0.0
  0
LINE
  5
4BA
  8
0
 10
198.0
 20
174.0
 30
0.0
 11
198.0
 21
162.15346199999999
 31
0.0
  0
LINE
  5
4BB
  8
0
 10
198.0
 20
110.0
 30
0.0
 11
198.0
 21
85.0
 31
0.0
  0
LINE
  5
4BC
  8
0
 10
198.0
 20
75.0
 30
0.0
 11
198.0
 21
53.0
 31
0.0
  0
LINE
  5
4BD
  8
0
 10
184.0
 20
176.0
 30
0.0
 11
196.0
 21
176.0
 31
0.0
  0
LINE
  5
4BE
  8
0
 10
182.0
 20
53.0
 30
0.0
 11
182.0
 21
75.0
 31
0.0
  0
LINE
  5
4BF
  8
0
 10
182.0
 20
85.0
 30
0.0
 11
182.0
 21
110.0
 31
0.0
  0
LINE
  5
4C0
  8
0
 10
182.0
 20
162.15346199999999
 30
0.0
 11
182.0
 21
174.0
 31
0.0
  0
LINE
  5
4C1
  8
0
 10
196.0
 20
51.0
 30
0.0
 11
184.0
 21
51.0
 31
0.0
  0
LINE
  5
4C2
  8
0
 10
201.5
 20
75.0
 30
0.0
 11
178.5
 21
75.0
 31
0.0
  0
LINE
  5
4C3
  8
0
 10
178.5
 20
85.0
 30
0.0
 11
201.5
 21
85.0
 31
0.0
  0
ARC
  5
4C4
  8
0
 10
200.39230499999999
 20
78.577349999999996
 30
0.0
 40
6.1339750000000004
 50
64.384247000000045
 51
124.38424699999671
  0
LINE
  5
4C5
  8
0
 10
203.85640599999999
 20
83.639527999999984
 30
0.0
 11
201.5
 21
85.0
 31
0.0
  0
LINE
  5
4C6
  8
0
 10
203.85640599999999
 20
76.360472000000001
 30
0.0
 11
201.5
 21
75.0
 31
0.0
  0
ARC
  5
4C7
  8
0
 10
200.39230499999999
 20
81.422650000000004
 30
0.0
 40
6.1339750000000004
 50
235.6157530000032
 51
295.61575299999998
  0
LINE
  5
4C8
  8
0
 10
203.85640599999999
 20
83.639527999999984
 30
0.0
 11
203.85640599999999
 21
76.360472000000001
 31
0.0
  0
LINE
  5
4C9
  8
0
 10
196.928203
 20
83.639527999999984
 30
0.0
 11
196.928203
 21
76.360472000000001
 31
0.0
  0
LINE
  5
4CA
  8
0
 10
183.07179699999989
 20
83.639527999999984
 30
0.0
 11
183.07179699999989
 21
76.360472000000001
 31
0.0
  0
LINE
  5
4CB
  8
0
 10
176.14359400000001
 20
83.639527999999984
 30
0.0
 11
176.14359400000001
 21
76.360472000000001
 31
0.0
  0
ARC
  5
4CC
  8
0
 10
190.0
 20
98.216878000000008
 30
0.0
 40
22.928203
 50
252.412046000001
 51
287.58795399999912
  0
ARC
  5
4CD
  8
0
 10
179.60769500000001
 20
81.422650000000004
 30
0.0
 40
6.1339750000000004
 50
244.38424699999999
 51
304.38424699999672
  0
LINE
  5
4CE
  8
0
 10
176.14359400000001
 20
76.360472000000001
 30
0.0
 11
178.5
 21
75.0
 31
0.0
  0
LINE
  5
4CF
  8
0
 10
176.14359400000001
 20
83.639527999999984
 30
0.0
 11
178.5
 21
85.0
 31
0.0
  0
ARC
  5
4D0
  8
0
 10
179.60769500000001
 20
78.577349999999996
 30
0.0
 40
6.1339750000000004
 50
55.615753000003281
 51
115.6157529999999
  0
ARC
  5
4D1
  8
0
 10
190.0
 20
61.783121999999999
 30
0.0
 40
22.928203
 50
72.412046000000956
 51
107.587953999999
  0
ARC
  5
4D2
  8
0
 10
326.0
 20
67.381197999999983
 30
0.0
 40
17.33012699999999
 50
69.743841999999802
 51
110.2561580000002
  0
LINE
  5
4D3
  8
0
 10
332.0
 20
84.711325000000016
 30
0.0
 11
331.5
 21
85.0
 31
0.0
  0
LINE
  5
4D4
  8
0
 10
332.0
 20
75.288674999999998
 30
0.0
 11
331.5
 21
75.0
 31
0.0
  0
ARC
  5
4D5
  8
0
 10
326.0
 20
92.618802000000002
 30
0.0
 40
17.33012699999999
 50
249.7438419999998
 51
290.2561580000002
  0
LINE
  5
4D6
  8
0
 10
332.0
 20
84.711325000000016
 30
0.0
 11
332.0
 21
75.288674999999998
 31
0.0
  0
LINE
  5
4D7
  8
0
 10
320.0
 20
76.360472000000001
 30
0.0
 11
320.0
 21
83.639527999999984
 31
0.0
  0
LINE
  5
4D8
  8
0
 10
308.0
 20
84.711325000000016
 30
0.0
 11
308.0
 21
75.288674999999998
 31
0.0
  0
ARC
  5
4D9
  8
0
 10
314.0
 20
92.618802000000002
 30
0.0
 40
17.33012699999999
 50
249.7438419999998
 51
290.2561580000002
  0
LINE
  5
4DA
  8
0
 10
308.0
 20
75.288674999999998
 30
0.0
 11
308.5
 21
75.0
 31
0.0
  0
LINE
  5
4DB
  8
0
 10
308.0
 20
84.711325000000016
 30
0.0
 11
308.5
 21
85.0
 31
0.0
  0
ARC
  5
4DC
  8
0
 10
314.0
 20
67.381197999999983
 30
0.0
 40
17.33012699999999
 50
69.743841999999802
 51
110.2561580000002
  0
LINE
  5
4DD
  8
0
 10
308.5
 20
85.0
 30
0.0
 11
331.5
 21
85.0
 31
0.0
  0
LINE
  5
4DE
  8
0
 10
331.5
 20
75.0
 30
0.0
 11
308.5
 21
75.0
 31
0.0
  0
LINE
  5
4DF
  8
1
 10
55.0
 20
183.5
 30
0.0
 11
55.0
 21
34.5
 31
0.0
  0
LINE
  5
4E0
  8
0
 10
61.0
 20
51.0
 30
0.0
 11
63.0
 21
53.0
 31
0.0
  0
LINE
  5
4E1
  8
0
 10
47.0
 20
174.0
 30
0.0
 11
63.0
 21
174.0
 31
0.0
  0
LINE
  5
4E2
  8
3
 10
48.068939
 20
162.15346199999999
 30
0.0
 11
48.068939
 21
175.068939
 31
0.0
  0
LINE
  5
4E3
  8
3
 10
61.931060000000002
 20
162.15346199999999
 30
0.0
 11
61.931060000000002
 21
175.068939
 31
0.0
  0
LINE
  5
4E4
  8
3
 10
61.931060000000002
 20
91.0
 30
0.0
 11
61.931060000000002
 21
85.0
 31
0.0
  0
LINE
  5
4E5
  8
3
 10
61.931060000000002
 20
75.0
 30
0.0
 11
61.931060000000002
 21
51.931061
 31
0.0
  0
LINE
  5
4E6
  8
3
 10
63.0
 20
92.851457000000011
 30
0.0
 11
61.931061
 21
91.0
 31
0.0
  0
LINE
  5
4E7
  8
0
 10
47.0
 20
91.0
 30
0.0
 11
63.0
 21
91.0
 31
0.0
  0
LINE
  5
4E8
  8
3
 10
48.068939
 20
91.0
 30
0.0
 11
48.068939
 21
85.0
 31
0.0
  0
LINE
  5
4E9
  8
3
 10
48.068939
 20
75.0
 30
0.0
 11
48.068939
 21
51.931061
 31
0.0
  0
LINE
  5
4EA
  8
3
 10
47.0
 20
92.851457000000011
 30
0.0
 11
48.068939
 21
91.0
 31
0.0
  0
LINE
  5
4EB
  8
0
 10
47.0
 20
53.0
 30
0.0
 11
63.0
 21
53.0
 31
0.0
  0
LINE
  5
4EC
  8
0
 10
47.0
 20
53.0
 30
0.0
 11
49.0
 21
51.0
 31
0.0
  0
LINE
  5
4ED
  8
0
 10
47.0
 20
174.0
 30
0.0
 11
49.0
 21
176.0
 31
0.0
  0
LINE
  5
4EE
  8
0
 10
63.0
 20
174.0
 30
0.0
 11
61.0
 21
176.0
 31
0.0
  0
LINE
  5
4EF
  8
0
 10
63.0
 20
174.0
 30
0.0
 11
63.0
 21
162.15346199999999
 31
0.0
  0
LINE
  5
4F0
  8
0
 10
63.0
 20
110.0
 30
0.0
 11
63.0
 21
85.0
 31
0.0
  0
LINE
  5
4F1
  8
0
 10
63.0
 20
75.0
 30
0.0
 11
63.0
 21
53.0
 31
0.0
  0
LINE
  5
4F2
  8
0
 10
49.0
 20
176.0
 30
0.0
 11
61.0
 21
176.0
 31
0.0
  0
LINE
  5
4F3
  8
0
 10
47.0
 20
53.0
 30
0.0
 11
47.0
 21
75.0
 31
0.0
  0
LINE
  5
4F4
  8
0
 10
47.0
 20
85.0
 30
0.0
 11
47.0
 21
110.0
 31
0.0
  0
LINE
  5
4F5
  8
0
 10
47.0
 20
162.15346199999999
 30
0.0
 11
47.0
 21
174.0
 31
0.0
  0
LINE
  5
4F6
  8
0
 10
61.0
 20
51.0
 30
0.0
 11
49.0
 21
51.0
 31
0.0
  0
ARC
  5
4F7
  8
0
 10
61.0
 20
67.381197999999983
 30
0.0
 40
17.33012699999999
 50
69.743841999999802
 51
110.2561580000002
  0
LINE
  5
4F8
  8
0
 10
67.0
 20
84.711325000000016
 30
0.0
 11
66.5
 21
85.0
 31
0.0
  0
LINE
  5
4F9
  8
0
 10
67.0
 20
75.288674999999998
 30
0.0
 11
66.5
 21
75.0
 31
0.0
  0
ARC
  5
4FA
  8
0
 10
61.0
 20
92.618802000000002
 30
0.0
 40
17.33012699999999
 50
249.7438419999998
 51
290.2561580000002
  0
LINE
  5
4FB
  8
0
 10
67.0
 20
84.711325000000016
 30
0.0
 11
67.0
 21
75.288674999999998
 31
0.0
  0
LINE
  5
4FC
  8
0
 10
55.0
 20
76.360472000000001
 30
0.0
 11
55.0
 21
83.639527999999984
 31
0.0
  0
LINE
  5
4FD
  8
0
 10
43.0
 20
84.711325000000016
 30
0.0
 11
43.0
 21
75.288674999999998
 31
0.0
  0
ARC
  5
4FE
  8
0
 10
49.0
 20
92.618802000000002
 30
0.0
 40
17.33012699999999
 50
249.7438419999998
 51
290.2561580000002
  0
LINE
  5
4FF
  8
0
 10
43.0
 20
75.288674999999998
 30
0.0
 11
43.5
 21
75.0
 31
0.0
  0
LINE
  5
500
  8
0
 10
43.0
 20
84.711325000000016
 30
0.0
 11
43.5
 21
85.0
 31
0.0
  0
ARC
  5
501
  8
0
 10
49.0
 20
67.381197999999983
 30
0.0
 40
17.33012699999999
 50
69.743841999999802
 51
110.2561580000002
  0
LINE
  5
502
  8
0
 10
43.5
 20
85.0
 30
0.0
 11
66.5
 21
85.0
 31
0.0
  0
LINE
  5
503
  8
0
 10
66.5
 20
75.0
 30
0.0
 11
43.5
 21
75.0
 31
0.0
  0
CIRCLE
  5
504
  8
0
 10
245.0
 20
220.0
 30
0.0
 40
6.9175000000000004
  0
LINE
  5
505
  8
0
 10
108.0432389999999
 20
236.64376606889471
 30
0.0
 11
108.0432389999999
 21
203.35623393110529
 31
0.0
  0
LINE
  5
506
  8
0
 10
260.0
 20
237.0
 30
0.0
 11
258.0
 21
239.0
 31
0.0
  0
LINE
  5
507
  8
0
 10
260.0
 20
203.0
 30
0.0
 11
258.0
 21
201.0
 31
0.0
  0
LINE
  5
508
  8
2
 10
176.44455828827401
 20
228.5
 30
0.0
 11
260.0
 21
228.5
 31
0.0
  0
LINE
  5
509
  8
2
 10
176.44455828827401
 20
211.5
 30
0.0
 11
260.0
 21
211.5
 31
0.0
  0
LINE
  5
50A
  8
0
 10
100.0
 20
232.0
 30
0.0
 11
112.12435600000001
 21
239.0
 31
0.0
  0
LINE
  5
50B
  8
0
 10
176.44455828827401
 20
228.5
 30
0.0
 11
125.0
 21
228.5
 31
0.0
  0
LINE
  5
50C
  8
0
 10
176.44455828827401
 20
211.5
 30
0.0
 11
125.0
 21
211.5
 31
0.0
  0
CIRCLE
  5
50D
  8
3
 10
245.0
 20
220.0
 30
0.0
 40
8.0
  0
ARC
  5
50E
  8
0
 10
125.0
 20
220.0
 30
0.0
 40
8.5
 50
90.0
 51
270.0
  0
ARC
  5
50F
  8
2
 10
190.0
 20
220.0
 30
0.0
 40
8.5
 50
270.0
 51
90.0
  0
LINE
  5
510
  8
1
 10
125.0
 20
206.27477999999999
 30
0.0
 11
125.0
 21
234.285372
 31
0.0
  0
LINE
  5
511
  8
1
 10
245.0
 20
206.27477999999999
 30
0.0
 11
245.0
 21
234.285372
 31
0.0
  0
LINE
  5
512
  8
0
 10
100.0
 20
208.0
 30
0.0
 11
112.12435600000001
 21
201.0
 31
0.0
  0
LINE
  5
513
  8
0
 10
260.0
 20
237.0
 30
0.0
 11
260.0
 21
203.0
 31
0.0
  0
LINE
  5
514
  8
0
 10
112.12435600000001
 20
239.0
 30
0.0
 11
258.0
 21
239.0
 31
0.0
  0
LINE
  5
515
  8
0
 10
100.0
 20
208.0
 30
0.0
 11
100.0
 21
232.0
 31
0.0
  0
LINE
  5
516
  8
0
 10
258.0
 20
201.0
 30
0.0
 11
112.12435600000001
 21
201.0
 31
0.0
  0
LINE
  5
517
  8
0
 10
259.0
 20
110.0
 30
0.0
 11
101.0
 21
110.0
 31
0.0
  0
LINE
  5
518
  8
0
 10
100.0
 20
111.0
 30
0.0
 11
100.0
 21
130.0
 31
0.0
  0
LINE
  5
519
  8
0
 10
108.66025399999999
 20
135.0
 30
0.0
 11
259.0
 21
135.0
 31
0.0
  0
LINE
  5
51A
  8
0
 10
260.0
 20
134.0
 30
0.0
 11
260.0
 21
111.0
 31
0.0
  0
LINE
  5
51B
  8
2
 10
260.0
 20
115.0
 30
0.0
 11
190.0
 21
115.0
 31
0.0
  0
LINE
  5
51C
  8
0
 10
100.0
 20
130.0
 30
0.0
 11
108.66025399999999
 21
135.0
 31
0.0
  0
LINE
  5
51D
  8
1
 10
245.0
 20
105.0
 30
0.0
 11
245.0
 21
139.88289399999999
 31
0.0
  0
LINE
  5
51E
  8
1
 10
125.0
 20
105.0
 30
0.0
 11
125.0
 21
140.01878500000001
 31
0.0
  0
LINE
  5
51F
  8
2
 10
116.5
 20
110.0
 30
0.0
 11
116.5
 21
135.0
 31
0.0
  0
LINE
  5
520
  8
2
 10
198.5
 20
115.0
 30
0.0
 11
198.5
 21
135.0
 31
0.0
  0
LINE
  5
521
  8
2
 10
237.0
 20
115.0
 30
0.0
 11
237.0
 21
135.0
 31
0.0
  0
LINE
  5
522
  8
2
 10
238.08250000000001
 20
115.0
 30
0.0
 11
238.08250000000001
 21
135.0
 31
0.0
  0
LINE
  5
523
  8
2
 10
251.91749999999999
 20
115.0
 30
0.0
 11
251.91749999999999
 21
135.0
 31
0.0
  0
LINE
  5
524
  8
2
 10
253.0
 20
115.0
 30
0.0
 11
253.0
 21
135.0
 31
0.0
  0
LINE
  5
525
  8
0
 10
259.0
 20
135.0
 30
0.0
 11
260.0
 21
134.0
 31
0.0
  0
LINE
  5
526
  8
0
 10
260.0
 20
111.0
 30
0.0
 11
259.0
 21
110.0
 31
0.0
  0
LINE
  5
527
  8
0
 10
101.0
 20
110.0
 30
0.0
 11
100.0
 21
111.0
 31
0.0
  0
LINE
  5
528
  8
0
 10
111.35436799999999
 20
135.0
 30
0.0
 11
111.35436799999999
 21
110.0
 31
0.0
  0
LINE
  5
529
  8
0
 10
338.0
 20
110.0
 30
0.0
 11
339.0
 21
111.0
 31
0.0
  0
LINE
  5
52A
  8
0
 10
301.0
 20
111.0
 30
0.0
 11
302.0
 21
110.0
 31
0.0
  0
LINE
  5
52B
  8
0
 10
302.0
 20
135.0
 30
0.0
 11
301.0
 21
134.0
 31
0.0
  0
LINE
  5
52C
  8
0
 10
338.0
 20
135.0
 30
0.0
 11
339.0
 21
134.0
 31
0.0
  0
LINE
  5
52D
  8
0
 10
315.0
 20
115.0
 30
0.0
 11
328.5
 21
115.0
 31
0.0
  0
LINE
  5
52E
  8
0
 10
328.5
 20
115.0
 30
0.0
 11
328.5
 21
110.0
 31
0.0
  0
LINE
  5
52F
  8
0
 10
311.5
 20
115.0
 30
0.0
 11
311.5
 21
110.0
 31
0.0
  0
LINE
  5
530
  8
0
 10
320.0
 20
115.0
 30
0.0
 11
311.5
 21
115.0
 31
0.0
  0
LINE
  5
531
  8
0
 10
338.0
 20
110.0
 30
0.0
 11
302.0
 21
110.0
 31
0.0
  0
LINE
  5
532
  8
0
 10
339.0
 20
134.0
 30
0.0
 11
339.0
 21
111.0
 31
0.0
  0
LINE
  5
533
  8
0
 10
302.0
 20
135.0
 30
0.0
 11
338.0
 21
135.0
 31
0.0
  0
LINE
  5
534
  8
0
 10
301.0
 20
111.0
 30
0.0
 11
301.0
 21
134.0
 31
0.0
  0
LINE
  5
535
  8
0
 10
311.99951800000002
 20
110.0
 30
0.0
 11
311.99951800000002
 21
113.5
 31
0.0
  0
LINE
  5
536
  8
0
 10
334.0
 20
110.0
 30
0.0
 11
335.0
 21
109.42265
 31
0.0
  0
LINE
  5
537
  8
0
 10
306.0
 20
110.0
 30
0.0
 11
305.0
 21
109.42265
 31
0.0
  0
LINE
  5
538
  8
0
 10
335.0
 20
109.42265
 30
0.0
 11
335.0
 21
100.57735
 31
0.0
  0
LINE
  5
539
  8
0
 10
334.0
 20
110.0
 30
0.0
 11
306.0
 21
110.0
 31
0.0
  0
LINE
  5
53A
  8
0
 10
306.0
 20
100.0
 30
0.0
 11
305.0
 21
100.57735
 31
0.0
  0
LINE
  5
53B
  8
0
 10
305.0
 20
100.57735
 30
0.0
 11
305.0
 21
109.42265
 31
0.0
  0
LINE
  5
53C
  8
0
 10
334.0
 20
100.0
 30
0.0
 11
335.0
 21
100.57735
 31
0.0
  0
LINE
  5
53D
  8
0
 10
334.0
 20
100.0
 30
0.0
 11
306.0
 21
100.0
 31
0.0
  0
LINE
  5
53E
  8
1
 10
320.0
 20
183.15346199999979
 30
0.0
 11
320.0
 21
34.5
 31
0.0
  0
LINE
  5
53F
  8
0
 10
326.0
 20
42.0
 30
0.0
 11
314.0
 21
42.0
 31
0.0
  0
LINE
  5
540
  8
0
 10
312.0
 20
44.0
 30
0.0
 11
312.0
 21
75.0
 31
0.0
  0
LINE
  5
541
  8
0
 10
312.0
 20
85.0
 30
0.0
 11
312.0
 21
99.599999999999994
 31
0.0
  0
LINE
  5
542
  8
0
 10
328.0
 20
44.0
 30
0.0
 11
326.0
 21
42.0
 31
0.0
  0
LINE
  5
543
  8
0
 10
314.0
 20
42.0
 30
0.0
 11
312.0
 21
44.0
 31
0.0
  0
LINE
  5
544
  8
0
 10
312.0
 20
44.0
 30
0.0
 11
328.0
 21
44.0
 31
0.0
  0
LINE
  5
545
  8
0
 10
312.0
 20
97.725055000000012
 30
0.0
 11
328.0
 21
97.725055000000012
 31
0.0
  0
LINE
  5
546
  8
3
 10
313.08249999999998
 20
97.725055000000012
 30
0.0
 11
313.08249999999998
 21
85.0
 31
0.0
  0
LINE
  5
547
  8
3
 10
313.08249999999998
 20
75.0
 30
0.0
 11
313.08249999999998
 21
42.917499999999997
 31
0.0
  0
LINE
  5
548
  8
3
 10
313.08249999999998
 20
97.725055000000012
 30
0.0
 11
312.0
 21
99.599999999999994
 31
0.0
  0
ARC
  5
549
  8
0
 10
320.0
 20
87.5
 30
0.0
 40
22.5
 50
75.672965999999974
 51
104.327034
  0
ARC
  5
54A
  8
0
 10
320.0
 20
122.5
 30
0.0
 40
22.5
 50
255.672966
 51
284.32703400000003
  0
LINE
  5
54B
  8
0
 10
325.56776400000001
 20
109.300229
 30
0.0
 11
325.56776400000001
 21
100.699771
 31
0.0
  0
LINE
  5
54C
  8
0
 10
325.56776400000001
 20
100.699771
 30
0.0
 11
326.66959800000012
 21
100.699771
 31
0.0
  0
LINE
  5
54D
  8
0
 10
325.56776400000001
 20
109.300229
 30
0.0
 11
326.66959800000012
 21
109.300229
 31
0.0
  0
LINE
  5
54E
  8
0
 10
326.66959800000012
 20
109.300229
 30
0.0
 11
326.66959800000012
 21
100.699771
 31
0.0
  0
ARC
  5
54F
  8
0
 10
330.6066019999999
 20
98.575057000000015
 30
0.0
 40
11.424943000000001
 50
69.842787000002033
 51
110.15721299999799
  0
ARC
  5
550
  8
0
 10
330.6066019999999
 20
111.424943
 30
0.0
 40
11.424943000000001
 50
249.84278700000201
 51
290.15721299999802
  0
LINE
  5
551
  8
0
 10
335.0
 20
109.300229
 30
0.0
 11
334.54360600000012
 21
109.300229
 31
0.0
  0
LINE
  5
552
  8
0
 10
334.54360600000012
 20
109.300229
 30
0.0
 11
334.54360600000012
 21
100.699771
 31
0.0
  0
LINE
  5
553
  8
0
 10
334.54360600000012
 20
100.699771
 30
0.0
 11
335.0
 21
100.699771
 31
0.0
  0
LINE
  5
554
  8
0
 10
314.43223599999999
 20
109.300229
 30
0.0
 11
314.43223599999999
 21
100.699771
 31
0.0
  0
LINE
  5
555
  8
0
 10
313.33040199999988
 20
109.300229
 30
0.0
 11
313.33040199999988
 21
100.699771
 31
0.0
  0
ARC
  5
556
  8
0
 10
309.39339799999999
 20
111.424943
 30
0.0
 40
11.424943000000001
 50
249.84278700000201
 51
290.15721299999802
  0
ARC
  5
557
  8
0
 10
309.39339799999999
 20
98.575057000000015
 30
0.0
 40
11.424943000000001
 50
69.842787000002033
 51
110.15721299999799
  0
LINE
  5
558
  8
0
 10
305.0
 20
109.300229
 30
0.0
 11
305.45639399999988
 21
109.300229
 31
0.0
  0
LINE
  5
559
  8
0
 10
305.45639399999988
 20
109.300229
 30
0.0
 11
305.45639399999988
 21
100.699771
 31
0.0
  0
LINE
  5
55A
  8
0
 10
305.45639399999988
 20
100.699771
 30
0.0
 11
305.0
 21
100.699771
 31
0.0
  0
LINE
  5
55B
  8
0
 10
314.43223599999999
 20
100.699771
 30
0.0
 11
313.33040199999988
 21
100.699771
 31
0.0
  0
ARC
  5
55C
  8
0
 10
311.60000000000002
 20
99.599999999999994
 30
0.0
 40
0.4
 50
0.0
 51
90.0
  0
LINE
  5
55D
  8
3
 10
326.91750000000002
 20
97.725055000000012
 30
0.0
 11
328.0
 21
99.599999999999994
 31
0.0
  0
ARC
  5
55E
  8
0
 10
328.39999999999998
 20
99.599999999999994
 30
0.0
 40
0.4
 50
90.0
 51
180.0
  0
LINE
  5
55F
  8
0
 10
328.0
 20
44.0
 30
0.0
 11
328.0
 21
75.0
 31
0.0
  0
LINE
  5
560
  8
0
 10
328.0
 20
85.0
 30
0.0
 11
328.0
 21
99.599999999999994
 31
0.0
  0
LINE
  5
561
  8
3
 10
326.91750000000002
 20
97.725055000000012
 30
0.0
 11
326.91750000000002
 21
85.0
 31
0.0
  0
LINE
  5
562
  8
3
 10
326.91750000000002
 20
75.0
 30
0.0
 11
326.91750000000002
 21
42.917499999999997
 31
0.0
  0
LINE
  5
563
  8
0
 10
328.00048199999998
 20
110.0
 30
0.0
 11
328.00048199999998
 21
113.5
 31
0.0
  0
LINE
  5
564
  8
0
 10
327.50048199999998
 20
114.0
 30
0.0
 11
312.49951799999991
 21
114.0
 31
0.0
  0
LINE
  5
565
  8
0
 10
312.49951799999991
 20
114.0
 30
0.0
 11
311.99951800000002
 21
113.5
 31
0.0
  0
LINE
  5
566
  8
0
 10
327.50048199999998
 20
114.0
 30
0.0
 11
328.00048199999998
 21
113.5
 31
0.0
  0
LINE
  5
567
  8
0
 10
335.5
 20
135.0
 30
0.0
 11
304.5
 21
135.0
 31
0.0
  0
LINE
  5
568
  8
0
 10
304.0
 20
135.5
 30
0.0
 11
304.5
 21
135.0
 31
0.0
  0
LINE
  5
569
  8
0
 10
304.5
 20
140.0
 30
0.0
 11
304.0
 21
139.5
 31
0.0
  0
LINE
  5
56A
  8
0
 10
336.0
 20
139.5
 30
0.0
 11
335.5
 21
140.0
 31
0.0
  0
LINE
  5
56B
  8
0
 10
336.0
 20
135.5
 30
0.0
 11
335.5
 21
135.0
 31
0.0
  0
LINE
  5
56C
  8
0
 10
304.0
 20
135.5
 30
0.0
 11
304.0
 21
139.5
 31
0.0
  0
LINE
  5
56D
  8
0
 10
336.0
 20
139.5
 30
0.0
 11
336.0
 21
135.5
 31
0.0
  0
LINE
  5
56E
  8
0
 10
304.5
 20
140.0
 30
0.0
 11
335.5
 21
140.0
 31
0.0
  0
ARC
  5
56F
  8
0
 10
307.60000000000002
 20
144.553462
 30
0.0
 40
0.4
 50
270.0
 51
0.0
  0
LINE
  5
570
  8
0
 10
320.0
 20
144.15346199999999
 30
0.0
 11
320.0
 21
160.79299
 31
0.0
  0
LINE
  5
571
  8
0
 10
331.5
 20
162.15346199999999
 30
0.0
 11
308.5
 21
162.15346199999999
 31
0.0
  0
LINE
  5
572
  8
0
 10
308.0
 20
161.86478700000001
 30
0.0
 11
308.5
 21
162.15346199999999
 31
0.0
  0
LINE
  5
573
  8
0
 10
308.0
 20
144.553462
 30
0.0
 11
308.0
 21
161.86478700000001
 31
0.0
  0
ARC
  5
574
  8
0
 10
314.0
 20
144.53466
 30
0.0
 40
17.33012699999999
 50
69.743841999999802
 51
110.2561580000002
  0
ARC
  5
575
  8
0
 10
326.0
 20
144.53466
 30
0.0
 40
17.33012699999999
 50
69.743841999999802
 51
110.2561580000002
  0
LINE
  5
576
  8
0
 10
332.0
 20
161.86478700000001
 30
0.0
 11
331.5
 21
162.15346199999999
 31
0.0
  0
ARC
  5
577
  8
0
 10
332.39999999999998
 20
144.553462
 30
0.0
 40
0.4
 50
180.0
 51
270.0
  0
LINE
  5
578
  8
0
 10
332.0
 20
144.553462
 30
0.0
 11
332.0
 21
161.86478700000001
 31
0.0
  0
ARC
  5
579
  8
0
 10
320.0
 20
171.882227
 30
0.0
 40
35.0
 50
294.36709295874903
 51
297.20289400000257
  0
ARC
  5
57A
  8
0
 10
320.0
 20
171.882227
 30
0.0
 40
35.0
 50
242.7971059999974
 51
245.63290704125089
  0
LINE
  5
57B
  8
0
 10
336.0
 20
140.75346200000001
 30
0.0
 11
304.0
 21
140.75346200000001
 31
0.0
  0
LINE
  5
57C
  8
0
 10
336.0
 20
143.65346199999999
 30
0.0
 11
336.0
 21
140.75346200000001
 31
0.0
  0
LINE
  5
57D
  8
0
 10
335.5
 20
144.15346199999999
 30
0.0
 11
336.0
 21
143.65346199999999
 31
0.0
  0
LINE
  5
57E
  8
0
 10
304.0
 20
143.65346199999999
 30
0.0
 11
304.0
 21
140.75346200000001
 31
0.0
  0
LINE
  5
57F
  8
0
 10
304.5
 20
144.15346199999999
 30
0.0
 11
304.0
 21
143.65346199999999
 31
0.0
  0
LINE
  5
580
  8
0
 10
335.5
 20
144.15346199999999
 30
0.0
 11
304.5
 21
144.15346199999999
 31
0.0
  0
LINE
  5
581
  8
0
 10
43.0
 20
130.0
 30
0.0
 11
38.0
 21
135.0
 31
0.0
  0
LINE
  5
582
  8
0
 10
67.0
 20
130.0
 30
0.0
 11
72.0
 21
135.0
 31
0.0
  0
LINE
  5
583
  8
0
 10
67.0
 20
130.0
 30
0.0
 11
67.0
 21
110.0
 31
0.0
  0
LINE
  5
584
  8
0
 10
43.0
 20
130.0
 30
0.0
 11
43.0
 21
110.0
 31
0.0
  0
LINE
  5
585
  8
0
 10
37.0
 20
135.0
 30
0.0
 11
36.0
 21
134.0
 31
0.0
  0
LINE
  5
586
  8
0
 10
74.0
 20
134.0
 30
0.0
 11
73.0
 21
135.0
 31
0.0
  0
LINE
  5
587
  8
0
 10
73.0
 20
110.0
 30
0.0
 11
74.0
 21
111.0
 31
0.0
  0
LINE
  5
588
  8
0
 10
37.0
 20
110.0
 30
0.0
 11
36.0
 21
111.0
 31
0.0
  0
LINE
  5
589
  8
0
 10
67.0
 20
130.0
 30
0.0
 11
43.0
 21
130.0
 31
0.0
  0
LINE
  5
58A
  8
0
 10
37.0
 20
135.0
 30
0.0
 11
73.0
 21
135.0
 31
0.0
  0
LINE
  5
58B
  8
0
 10
36.0
 20
111.0
 30
0.0
 11
36.0
 21
134.0
 31
0.0
  0
LINE
  5
58C
  8
0
 10
73.0
 20
110.0
 30
0.0
 11
37.0
 21
110.0
 31
0.0
  0
LINE
  5
58D
  8
0
 10
74.0
 20
134.0
 30
0.0
 11
74.0
 21
111.0
 31
0.0
  0
LINE
  5
58E
  8
0
 10
70.5
 20
135.0
 30
0.0
 11
39.5
 21
135.0
 31
0.0
  0
LINE
  5
58F
  8
0
 10
39.0
 20
135.5
 30
0.0
 11
39.5
 21
135.0
 31
0.0
  0
LINE
  5
590
  8
0
 10
39.5
 20
140.0
 30
0.0
 11
39.0
 21
139.5
 31
0.0
  0
LINE
  5
591
  8
0
 10
71.0
 20
139.5
 30
0.0
 11
70.5
 21
140.0
 31
0.0
  0
LINE
  5
592
  8
0
 10
71.0
 20
135.5
 30
0.0
 11
70.5
 21
135.0
 31
0.0
  0
LINE
  5
593
  8
0
 10
39.0
 20
135.5
 30
0.0
 11
39.0
 21
139.5
 31
0.0
  0
LINE
  5
594
  8
0
 10
71.0
 20
139.5
 30
0.0
 11
71.0
 21
135.5
 31
0.0
  0
LINE
  5
595
  8
0
 10
39.5
 20
140.0
 30
0.0
 11
70.5
 21
140.0
 31
0.0
  0
ARC
  5
596
  8
0
 10
42.600000000000023
 20
144.553462
 30
0.0
 40
0.4
 50
270.0
 51
0.0
  0
LINE
  5
597
  8
0
 10
55.0
 20
144.15346199999999
 30
0.0
 11
55.0
 21
160.79299
 31
0.0
  0
LINE
  5
598
  8
0
 10
66.5
 20
162.15346199999999
 30
0.0
 11
43.5
 21
162.15346199999999
 31
0.0
  0
LINE
  5
599
  8
0
 10
43.0
 20
161.86478700000001
 30
0.0
 11
43.5
 21
162.15346199999999
 31
0.0
  0
LINE
  5
59A
  8
0
 10
43.0
 20
144.553462
 30
0.0
 11
43.0
 21
161.86478700000001
 31
0.0
  0
ARC
  5
59B
  8
0
 10
49.0
 20
144.53466
 30
0.0
 40
17.33012699999999
 50
69.743841999999802
 51
110.2561580000002
  0
ARC
  5
59C
  8
0
 10
61.0
 20
144.53466
 30
0.0
 40
17.33012699999999
 50
69.743841999999802
 51
110.2561580000002
  0
LINE
  5
59D
  8
0
 10
67.0
 20
161.86478700000001
 30
0.0
 11
66.5
 21
162.15346199999999
 31
0.0
  0
ARC
  5
59E
  8
0
 10
67.399999999999977
 20
144.553462
 30
0.0
 40
0.4
 50
180.0
 51
270.0
  0
LINE
  5
59F
  8
0
 10
67.0
 20
144.553462
 30
0.0
 11
67.0
 21
161.86478700000001
 31
0.0
  0
ARC
  5
5A0
  8
0
 10
55.0
 20
171.882227
 30
0.0
 40
35.0
 50
294.36709295874903
 51
297.2028940000028
  0
ARC
  5
5A1
  8
0
 10
55.0
 20
171.882227
 30
0.0
 40
35.0
 50
242.7971059999972
 51
245.63290704125791
  0
LINE
  5
5A2
  8
0
 10
71.0
 20
140.75346200000001
 30
0.0
 11
39.0
 21
140.75346200000001
 31
0.0
  0
LINE
  5
5A3
  8
0
 10
71.0
 20
143.65346199999999
 30
0.0
 11
71.0
 21
140.75346200000001
 31
0.0
  0
LINE
  5
5A4
  8
0
 10
70.5
 20
144.15346199999999
 30
0.0
 11
71.0
 21
143.65346199999999
 31
0.0
  0
LINE
  5
5A5
  8
0
 10
39.0
 20
143.65346199999999
 30
0.0
 11
39.0
 21
140.75346200000001
 31
0.0
  0
LINE
  5
5A6
  8
0
 10
39.5
 20
144.15346199999999
 30
0.0
 11
39.0
 21
143.65346199999999
 31
0.0
  0
LINE
  5
5A7
  8
0
 10
70.5
 20
144.15346199999999
 30
0.0
 11
39.5
 21
144.15346199999999
 31
0.0
  0
LINE
  5
5A8
  8
0
 10
260.56776441353571
 20
234.9999999811788
 30
0.0
 11
260.0
 21
234.9999999811788
 31
0.0
  0
LINE
  5
5A9
  8
0
 10
260.56776441353571
 20
205.0000000188212
 30
0.0
 11
260.0
 21
205.0000000188212
 31
0.0
  0
LINE
  5
5AA
  8
0
 10
313.33040199999988
 20
109.300229
 30
0.0
 11
314.43223554179212
 21
109.30022933223221
 31
0.0
  0
LINE
  5
5AB
  8
0
 10
248.33040199999991
 20
109.300229
 30
0.0
 11
249.43223424095811
 21
109.300229
 31
0.0
  0
LINE
  5
5AC
  8
0
 10
312.00000274718622
 20
174.0
 30
0.0
 11
328.0000027471861
 21
174.0
 31
0.0
  0
LINE
  5
5AD
  8
3
 10
313.06894174718622
 20
162.15346200000019
 30
0.0
 11
313.06894174718622
 21
175.068939
 31
0.0
  0
LINE
  5
5AE
  8
3
 10
326.9310627471861
 20
162.15346200000019
 30
0.0
 11
326.9310627471861
 21
175.068939
 31
0.0
  0
LINE
  5
5AF
  8
0
 10
312.00000274718622
 20
174.0
 30
0.0
 11
314.00000274718622
 21
176.0
 31
0.0
  0
LINE
  5
5B0
  8
0
 10
328.0000027471861
 20
174.0
 30
0.0
 11
326.0000027471861
 21
176.0
 31
0.0
  0
LINE
  5
5B1
  8
0
 10
328.0000027471861
 20
174.0
 30
0.0
 11
328.0000027471861
 21
162.15346200000019
 31
0.0
  0
LINE
  5
5B2
  8
0
 10
314.00000274718622
 20
176.0
 30
0.0
 11
326.0000027471861
 21
176.0
 31
0.0
  0
LINE
  5
5B3
  8
0
 10
312.00000274718622
 20
162.15346200000019
 30
0.0
 11
312.00000274718622
 21
174.0
 31
0.0
  0
LINE
  5
5B4
  8
0
 10
61.0
 20
42.0
 30
0.0
 11
49.0
 21
42.0
 31
0.0
  0
LINE
  5
5B5
  8
0
 10
47.0
 20
44.0
 30
0.0
 11
47.0
 21
53.0
 31
0.0
  0
LINE
  5
5B6
  8
0
 10
63.0
 20
44.0
 30
0.0
 11
61.0
 21
42.0
 31
0.0
  0
LINE
  5
5B7
  8
0
 10
49.0
 20
42.0
 30
0.0
 11
47.0
 21
44.0
 31
0.0
  0
LINE
  5
5B8
  8
0
 10
47.0
 20
44.0
 30
0.0
 11
63.0
 21
44.0
 31
0.0
  0
LINE
  5
5B9
  8
3
 10
48.082499999999982
 20
51.917500000000018
 30
0.0
 11
48.082499999999982
 21
42.917499999999997
 31
0.0
  0
LINE
  5
5BA
  8
0
 10
63.0
 20
44.0
 30
0.0
 11
63.0
 21
53.0
 31
0.0
  0
LINE
  5
5BB
  8
3
 10
61.917500000000018
 20
51.917500000000018
 30
0.0
 11
61.917500000000018
 21
42.917499999999997
 31
0.0
  0
LINE
  5
5BC
  8
0
 10
69.0
 20
110.0
 30
0.0
 11
70.0
 21
109.42265
 31
0.0
  0
LINE
  5
5BD
  8
0
 10
41.0
 20
110.0
 30
0.0
 11
40.0
 21
109.42265
 31
0.0
  0
LINE
  5
5BE
  8
0
 10
70.0
 20
109.42265
 30
0.0
 11
70.0
 21
100.57735
 31
0.0
  0
LINE
  5
5BF
  8
0
 10
69.0
 20
110.0
 30
0.0
 11
41.0
 21
110.0
 31
0.0
  0
LINE
  5
5C0
  8
0
 10
41.0
 20
100.0
 30
0.0
 11
40.0
 21
100.57735
 31
0.0
  0
LINE
  5
5C1
  8
0
 10
40.0
 20
100.57735
 30
0.0
 11
40.0
 21
109.42265
 31
0.0
  0
LINE
  5
5C2
  8
0
 10
69.0
 20
100.0
 30
0.0
 11
70.0
 21
100.57735
 31
0.0
  0
LINE
  5
5C3
  8
0
 10
69.0
 20
100.0
 30
0.0
 11
63.0
 21
100.0
 31
0.0
  0
LINE
  5
5C4
  8
0
 10
47.0
 20
100.0
 30
0.0
 11
41.0
 21
100.0
 31
0.0
  0
ARC
  5
5C5
  8
0
 10
65.606601999999995
 20
98.575057000000015
 30
0.0
 40
11.424943000000001
 50
69.842787000001962
 51
103.188185405488
  0
ARC
  5
5C6
  8
0
 10
65.606601999999995
 20
111.424943
 30
0.0
 40
11.424943000000001
 50
256.81181459451199
 51
290.15721299999802
  0
LINE
  5
5C7
  8
0
 10
70.0
 20
109.300229
 30
0.0
 11
69.543606000000011
 21
109.300229
 31
0.0
  0
LINE
  5
5C8
  8
0
 10
69.543606000000011
 20
109.300229
 30
0.0
 11
69.543606000000011
 21
100.699771
 31
0.0
  0
LINE
  5
5C9
  8
0
 10
69.543606000000011
 20
100.699771
 30
0.0
 11
70.0
 21
100.699771
 31
0.0
  0
ARC
  5
5CA
  8
0
 10
44.393397999999991
 20
111.424943
 30
0.0
 40
11.424943000000001
 50
249.84278700000201
 51
283.18818540548801
  0
ARC
  5
5CB
  8
0
 10
44.393397999999991
 20
98.575057000000015
 30
0.0
 40
11.424943000000001
 50
76.811814594511944
 51
110.15721299999799
  0
LINE
  5
5CC
  8
0
 10
40.0
 20
109.300229
 30
0.0
 11
40.456393999999982
 21
109.300229
 31
0.0
  0
LINE
  5
5CD
  8
0
 10
40.456393999999982
 20
109.300229
 30
0.0
 11
40.456393999999982
 21
100.699771
 31
0.0
  0
LINE
  5
5CE
  8
0
 10
40.456393999999982
 20
100.699771
 30
0.0
 11
40.0
 21
100.699771
 31
0.0
  0
TEXT
  5
68A
  8
0
 62
     3
 10
0.0
 20
0.0
 30
0.0
 40
10.0
  1
BJ153-16160A2
  7
STANDARD1
  0
ENDSEC
  0
EOF
