  0
SECTION
  2
HEADER
  9
$ACADVER
  1
AC1009
  9
$INSBASE
 10
82.638099999999994
 20
103.82319099999999
 30
0.0
  9
$EXTMIN
 10
0.0
 20
-2.960436562073669
 30
0.0
  9
$EXTMAX
 10
595.0
 20
414.94589959595669
 30
0.0
  9
$LIMMIN
 10
0.0
 20
0.0
  9
$LIMMAX
 10
750.0
 20
540.0
  9
$ORTHOMODE
 70
     1
  9
$REGENMODE
 70
     1
  9
$FILLMODE
 70
     1
  9
$QTEXTMODE
 70
     0
  9
$MIRRTEXT
 70
     0
  9
$DRAGMODE
 70
     2
  9
$LTSCALE
 40
20.0
  9
$OSMODE
 70
  3071
  9
$ATTMODE
 70
     1
  9
$TEXTSIZE
 40
0.06
  9
$TRACEWID
 40
0.05
  9
$TEXTSTYLE
  7
STANDARD
  9
$CLAYER
  8
0
  9
$CELTYPE
  6
BYLAYER
  9
$CECOLOR
 62
   256
  9
$DIMSCALE
 40
2.0
  9
$DIMASZ
 40
3.0
  9
$DIMEXO
 40
2.0
  9
$DIMDLI
 40
10.0
  9
$DIMRND
 40
0.0
  9
$DIMDLE
 40
0.0
  9
$DIMEXE
 40
2.0
  9
$DIMTP
 40
0.0
  9
$DIMTM
 40
0.0
  9
$DIMTXT
 40
3.0
  9
$DIMCEN
 40
0.0
  9
$DIMTSZ
 40
0.0
  9
$DIMTOL
 70
     0
  9
$DIMLIM
 70
     0
  9
$DIMTIH
 70
     0
  9
$DIMTOH
 70
     0
  9
$DIMSE1
 70
     0
  9
$DIMSE2
 70
     0
  9
$DIMTAD
 70
     1
  9
$DIMZIN
 70
     0
  9
$DIMBLK
  1

  9
$DIMASO
 70
     0
  9
$DIMSHO
 70
     0
  9
$DIMPOST
  1

  9
$DIMAPOST
  1

  9
$DIMALT
 70
     0
  9
$DIMALTD
 70
     2
  9
$DIMALTF
 40
25.399999999999999
  9
$DIMLFAC
 40
1.0
  9
$DIMTOFL
 70
     1
  9
$DIMTVP
 40
1.6000000000000001
  9
$DIMTIX
 70
     1
  9
$DIMSOXD
 70
     0
  9
$DIMSAH
 70
     0
  9
$DIMBLK1
  1

  9
$DIMBLK2
  1

  9
$DIMSTYLE
  2
STANDARD
  9
$DIMCLRD
 70
     0
  9
$DIMCLRE
 70
     0
  9
$DIMCLRT
 70
     0
  9
$DIMTFAC
 40
1.0
  9
$DIMGAP
 40
0.09
  9
$LUNITS
 70
     2
  9
$LUPREC
 70
     4
  9
$SKETCHINC
 40
0.1
  9
$FILLETRAD
 40
0.0
  9
$AUNITS
 70
     0
  9
$AUPREC
 70
     4
  9
$MENU
  1
E:\r13\win\SUPPORT\ACAD
  9
$ELEVATION
 40
0.0
  9
$PELEVATION
 40
0.0
  9
$THICKNESS
 40
0.0
  9
$LIMCHECK
 70
     0
  9
$BLIPMODE
 70
     0
  9
$CHAMFERA
 40
0.0
  9
$CHAMFERB
 40
0.0
  9
$SKPOLY
 70
     0
  9
$TDCREATE
 40
2449840.3465162041
  9
$TDUPDATE
 40
2456597.6400196762
  9
$TDINDWG
 40
0.0075804167
  9
$TDUSRTIMER
 40
0.0075804167
  9
$USRTIMER
 70
     1
  9
$ANGBASE
 50
0.0
  9
$ANGDIR
 70
     0
  9
$PDMODE
 70
     1
  9
$PDSIZE
 40
0.0
  9
$PLINEWID
 40
0.0
  9
$COORDS
 70
     1
  9
$SPLFRAME
 70
     0
  9
$SPLINETYPE
 70
     6
  9
$SPLINESEGS
 70
     8
  9
$ATTDIA
 70
     0
  9
$ATTREQ
 70
     1
  9
$HANDLING
 70
     1
  9
$HANDSEED
  5
900
  9
$SURFTAB1
 70
     6
  9
$SURFTAB2
 70
     6
  9
$SURFTYPE
 70
     6
  9
$SURFU
 70
     6
  9
$SURFV
 70
     6
  9
$UCSNAME
  2

  9
$UCSORG
 10
0.0
 20
0.0
 30
0.0
  9
$UCSXDIR
 10
1.0
 20
0.0
 30
0.0
  9
$UCSYDIR
 10
0.0
 20
1.0
 30
0.0
  9
$PUCSNAME
  2

  9
$PUCSORG
 10
0.0
 20
0.0
 30
0.0
  9
$PUCSXDIR
 10
1.0
 20
0.0
 30
0.0
  9
$PUCSYDIR
 10
0.0
 20
1.0
 30
0.0
  9
$USERI1
 70
     3
  9
$USERI2
 70
     1
  9
$USERI3
 70
     0
  9
$USERI4
 70
     0
  9
$USERI5
 70
     0
  9
$USERR1
 40
2.0
  9
$USERR2
 40
3.0
  9
$USERR3
 40
3.0
  9
$USERR4
 40
3.0
  9
$USERR5
 40
10.0
  9
$WORLDVIEW
 70
     1
  9
$SHADEDGE
 70
     3
  9
$SHADEDIF
 70
    70
  9
$TILEMODE
 70
     1
  9
$MAXACTVP
 70
    16
  9
$PLIMCHECK
 70
     0
  9
$PEXTMIN
 10
1.0000000000000000E+020
 20
1.0000000000000000E+020
 30
1.0000000000000000E+020
  9
$PEXTMAX
 10
-1.0000000000000000E+020
 20
-1.0000000000000000E+020
 30
-1.0000000000000000E+020
  9
$PLIMMIN
 10
0.0
 20
0.0
  9
$PLIMMAX
 10
12.0
 20
9.0
  9
$UNITMODE
 70
     0
  9
$VISRETAIN
 70
     0
  9
$PLINEGEN
 70
     0
  9
$PSLTSCALE
 70
     0
  0
ENDSEC
  0
SECTION
  2
TABLES
  0
TABLE
  2
VPORT
 70
     1
  0
VPORT
  2
*ACTIVE
 70
     0
 10
0.0
 20
0.0
 11
1.0
 21
1.0
 12
390.03402345615979
 22
268.50860658393782
 13
0.0
 23
0.0
 14
10.0
 24
10.0
 15
10.0
 25
10.0
 16
0.0
 26
0.0
 36
1.0
 17
0.0
 27
0.0
 37
0.0
 40
547.85258761088789
 41
1.831871345029239
 42
50.0
 43
0.0
 44
0.0
 50
0.0
 51
0.0
 71
     0
 72
   100
 73
     1
 74
     0
 75
     0
 76
     0
 77
     0
 78
     0
  0
ENDTAB
  0
TABLE
  2
LTYPE
 70
     4
  0
LTYPE
  2
CONTINUOUS
 70
     0
  3
Solid Line
 72
    65
 73
     0
 40
0.0
  0
LTYPE
  2
CENTER
 70
     0
  3
____ _ ____ _ ____ _ ____ _ ____ _ ____ _ ____
 72
    65
 73
     4
 40
2.0
 49
1.25
 49
-0.25
 49
0.25
 49
-0.25
  0
LTYPE
  2
HIDDEN
 70
     0
  3
__ __ __ __ __ __ __ __ __ __ __ __ __ __ __ __
 72
    65
 73
     2
 40
0.375
 49
0.25
 49
-0.125
  0
LTYPE
  2
PHANTOM2
 70
     0
  3
___ _ _ ___ _ _ ___ _ _ ___ _ _
 72
    65
 73
     6
 40
1.25
 49
0.625
 49
-0.125
 49
0.125
 49
-0.125
 49
0.125
 49
-0.125
  0
ENDTAB
  0
TABLE
  2
LAYER
 70
     4
  0
LAYER
  2
0
 70
     0
 62
     7
  6
CONTINUOUS
  0
LAYER
  2
1
 70
     0
 62
     1
  6
CENTER
  0
LAYER
  2
2
 70
     0
 62
     2
  6
HIDDEN
  0
LAYER
  2
3
 70
     0
 62
     3
  6
CONTINUOUS
  0
ENDTAB
  0
TABLE
  2
STYLE
 70
     2
  0
STYLE
  2
STANDARD
 70
     0
 40
0.0
 41
1.0
 50
0.0
 71
     0
 42
0.06
  3
TXT
  4
BIGFONT
  0
STYLE
  2
STANDARD1
 70
     0
 40
0.0
 41
1.0
 50
0.0
 71
     0
 42
3.0
  3
txt
  4

  0
ENDTAB
  0
TABLE
  2
VIEW
 70
     0
  0
ENDTAB
  0
TABLE
  2
UCS
 70
     0
  0
ENDTAB
  0
TABLE
  2
APPID
 70
     4
  0
APPID
  2
ACAD
 70
     0
  0
APPID
  2
ACAD_EXEMPT_FROM_CAD_STANDARDS
 70
     0
  0
APPID
  2
ACAD_MLEADERVER
 70
     0
  0
APPID
  2
ACAD_NAV_VCDISPLAY
 70
     0
  0
ENDTAB
  0
TABLE
  2
DIMSTYLE
 70
     1
  0
DIMSTYLE
  2
STANDARD
 70
     0
  3

  4

  5

  6

  7

 40
1.0
 41
0.18
 42
0.0625
 43
0.38
 44
0.18
 45
0.0
 46
0.0
 47
0.0
 48
0.0
140
0.18
141
0.09
142
0.0
143
25.399999999999999
144
1.0
145
0.0
146
1.0
147
0.09
 71
     0
 72
     0
 73
     1
 74
     1
 75
     0
 76
     0
 77
     0
 78
     0
170
     0
171
     2
172
     0
173
     0
174
     0
175
     0
176
     0
177
     0
178
     0
  0
ENDTAB
  0
ENDSEC
  0
SECTION
  2
BLOCKS
  0
BLOCK
  8
0
  2
$MODEL_SPACE
 70
     0
 10
0.0
 20
0.0
 30
0.0
  3
$MODEL_SPACE
  1

  0
ENDBLK
  5
220
  8
0
  0
BLOCK
 67
     1
  8
0
  2
$PAPER_SPACE
 70
     0
 10
0.0
 20
0.0
 30
0.0
  3
$PAPER_SPACE
  1

  0
ENDBLK
  5
21E
 67
     1
  8
0
  0
BLOCK
  8
0
  2
B741418C
 70
     0
 10
0.0
 20
0.0
 30
0.0
  3
B741418C
  1

  0
LINE
  5
97
  8
0
 10
0.0
 20
28.371579000000001
 30
0.0
 11
0.0
 21
7.5
 31
0.0
  0
ARC
  5
98
  8
0
 10
-15.4
 20
7.9000000000000004
 30
0.0
 40
0.4
 50
270.0
 51
360.0
  0
LINE
  5
99
  8
0
 10
-15.0
 20
29.199999999999999
 30
0.0
 11
-15.0
 21
7.9000000000000004
 31
0.0
  0
LINE
  5
9A
  8
0
 10
14.199999999999999
 20
30.0
 30
0.0
 11
-14.199999999999999
 21
30.0
 31
0.0
  0
LINE
  5
9B
  8
0
 10
14.199999999999999
 20
30.0
 30
0.0
 11
15.0
 21
29.199999999999999
 31
0.0
  0
LINE
  5
9C
  8
0
 10
-14.199999999999999
 20
30.0
 30
0.0
 11
-15.0
 21
29.199999999999999
 31
0.0
  0
ARC
  5
9D
  8
0
 10
-7.5
 20
11.914458
 30
0.0
 40
18.085542
 50
65.499832999999995
 51
114.500167
  0
ARC
  5
9E
  8
0
 10
7.5
 20
11.914458
 30
0.0
 40
18.085542
 50
65.499832999999995
 51
114.500167
  0
ARC
  5
9F
  8
0
 10
15.400016000000001
 20
7.9000000000000004
 30
0.0
 40
0.4
 50
180.0
 51
270.0
  0
LINE
  5
A0
  8
0
 10
15.000016
 20
29.199999999999999
 30
0.0
 11
15.000016
 21
7.9000000000000004
 31
0.0
  0
LINE
  5
A1
  8
1
 10
0.0
 20
35.0
 30
0.0
 11
0.0
 21
-5.0
 31
0.0
  0
ARC
  5
A2
  8
0
 10
0.0
 20
38.341016000000003
 30
0.0
 40
40.0
 50
286.55927300000002
 51
300.0
  0
ARC
  5
A3
  8
0
 10
0.0
 20
38.341016000000003
 30
0.0
 40
40.0
 50
240.0
 51
253.44072700000001
  0
LINE
  5
A4
  8
0
 10
20.0
 20
3.7000000000000002
 30
0.0
 11
-20.0
 21
3.7000000000000002
 31
0.0
  0
LINE
  5
A5
  8
0
 10
19.5
 20
7.5
 30
0.0
 11
-19.5
 21
7.5
 31
0.0
  0
LINE
  5
A6
  8
0
 10
-20.0
 20
7.0
 30
0.0
 11
-20.0
 21
3.7000000000000002
 31
0.0
  0
LINE
  5
A7
  8
0
 10
-20.0
 20
7.0
 30
0.0
 11
-19.5
 21
7.5
 31
0.0
  0
LINE
  5
A8
  8
0
 10
20.0
 20
7.0
 30
0.0
 11
19.5
 21
7.5
 31
0.0
  0
LINE
  5
A9
  8
0
 10
11.400283999999999
 20
0.0
 30
0.0
 11
-11.400283999999999
 21
0.0
 31
0.0
  0
LINE
  5
AA
  8
0
 10
20.0
 20
7.0
 30
0.0
 11
20.0
 21
3.7000000000000002
 31
0.0
  0
ENDBLK
  5
AB
  8
0
  0
BLOCK
  8
0
  2
742E01B2
 70
     0
 10
90.0
 20
70.0
 30
0.0
  3
742E01B2
  1

  0
LINE
  5
AD
  8
1
 10
90.0
 20
82.0
 30
0.0
 11
90.0
 21
65.0
 31
0.0
  0
LINE
  5
AE
  8
2
 10
78.5
 20
70.5
 30
0.0
 11
101.5
 21
70.5
 31
0.0
  0
LINE
  5
AF
  8
2
 10
78.5
 20
74.452207999999999
 30
0.0
 11
101.5
 21
74.452207999999999
 31
0.0
  0
LINE
  5
B0
  8
2
 10
78.5
 20
70.5
 30
0.0
 11
78.0
 21
70.0
 31
0.0
  0
LINE
  5
B1
  8
2
 10
78.5
 20
74.452207999999999
 30
0.0
 11
78.5
 21
70.5
 31
0.0
  0
LINE
  5
B2
  8
2
 10
71.5
 20
77.0
 30
0.0
 11
78.5
 21
74.452207999999999
 31
0.0
  0
LINE
  5
B3
  8
2
 10
101.5
 20
70.5
 30
0.0
 11
102.0
 21
70.0
 31
0.0
  0
LINE
  5
B4
  8
2
 10
101.5
 20
74.452207999999999
 30
0.0
 11
101.5
 21
70.5
 31
0.0
  0
LINE
  5
B5
  8
2
 10
108.5
 20
77.0
 30
0.0
 11
101.5
 21
74.452207999999999
 31
0.0
  0
LINE
  5
B6
  8
0
 10
70.0
 20
76.5
 30
0.0
 11
70.5
 21
77.0
 31
0.0
  0
LINE
  5
B7
  8
0
 10
70.5
 20
70.0
 30
0.0
 11
70.0
 21
70.5
 31
0.0
  0
LINE
  5
B8
  8
0
 10
110.0
 20
76.5
 30
0.0
 11
109.5
 21
77.0
 31
0.0
  0
LINE
  5
B9
  8
0
 10
109.5
 20
70.0
 30
0.0
 11
110.0
 21
70.5
 31
0.0
  0
LINE
  5
BA
  8
0
 10
70.0
 20
76.5
 30
0.0
 11
70.0
 21
70.5
 31
0.0
  0
LINE
  5
BB
  8
0
 10
110.0
 20
70.5
 30
0.0
 11
110.0
 21
76.5
 31
0.0
  0
LINE
  5
BC
  8
0
 10
70.5
 20
70.0
 30
0.0
 11
109.5
 21
70.0
 31
0.0
  0
LINE
  5
BD
  8
0
 10
109.5
 20
77.0
 30
0.0
 11
70.5
 21
77.0
 31
0.0
  0
ENDBLK
  5
BE
  8
0
  0
ENDSEC
  0
SECTION
  2
ENTITIES
  0
LINE
  5
5BF
  8
0
 10
457.0
 20
230.0
 30
0.0
 11
259.0
 21
230.0
 31
0.0
  0
LINE
  5
5C0
  8
0
 10
258.0
 20
231.0
 30
0.0
 11
258.0
 21
250.0
 31
0.0
  0
LINE
  5
5C1
  8
0
 10
266.66025400000001
 20
255.0
 30
0.0
 11
457.0
 21
255.0
 31
0.0
  0
LINE
  5
5C2
  8
0
 10
458.0
 20
254.0
 30
0.0
 11
458.0
 21
231.0
 31
0.0
  0
LINE
  5
5C3
  8
2
 10
458.0
 20
235.0
 30
0.0
 11
370.0
 21
235.0
 31
0.0
  0
LINE
  5
5C4
  8
0
 10
258.0
 20
250.0
 30
0.0
 11
266.66025400000001
 21
255.0
 31
0.0
  0
LINE
  5
5C5
  8
1
 10
442.0
 20
225.0
 30
0.0
 11
442.0
 21
259.88289400000002
 31
0.0
  0
LINE
  5
5C7
  8
1
 10
290.0
 20
225.0
 30
0.0
 11
290.0
 21
260.01878499999998
 31
0.0
  0
LINE
  5
5C8
  8
2
 10
281.5
 20
230.0
 30
0.0
 11
281.5
 21
255.0
 31
0.0
  0
LINE
  5
5C9
  8
2
 10
378.5
 20
235.0
 30
0.0
 11
378.5
 21
255.0
 31
0.0
  0
LINE
  5
5CA
  8
2
 10
432.0
 20
235.0
 30
0.0
 11
432.0
 21
255.0
 31
0.0
  0
LINE
  5
5CB
  8
2
 10
433.35300000000001
 20
235.0
 30
0.0
 11
433.35300000000001
 21
255.0
 31
0.0
  0
LINE
  5
5CC
  8
2
 10
450.64699999999999
 20
235.0
 30
0.0
 11
450.64699999999999
 21
255.0
 31
0.0
  0
LINE
  5
5CD
  8
2
 10
452.0
 20
235.0
 30
0.0
 11
452.0
 21
255.0
 31
0.0
  0
LINE
  5
5CE
  8
0
 10
457.0
 20
255.0
 30
0.0
 11
458.0
 21
254.0
 31
0.0
  0
LINE
  5
5CF
  8
0
 10
458.0
 20
231.0
 30
0.0
 11
457.0
 21
230.0
 31
0.0
  0
LINE
  5
5D0
  8
0
 10
259.0
 20
230.0
 30
0.0
 11
258.0
 21
231.0
 31
0.0
  0
LINE
  5
5D1
  8
0
 10
269.50398300000001
 20
255.0
 30
0.0
 11
269.50398300000001
 21
230.0
 31
0.0
  0
LINE
  5
5D2
  8
0
 10
456.0
 20
355.0
 30
0.0
 11
270.12435599999998
 21
355.0
 31
0.0
  0
LINE
  5
5D3
  8
0
 10
258.0
 20
362.0
 30
0.0
 11
258.0
 21
398.0
 31
0.0
  0
LINE
  5
5D4
  8
0
 10
270.12435599999998
 20
405.0
 30
0.0
 11
456.0
 21
405.0
 31
0.0
  0
LINE
  5
5D5
  8
0
 10
458.0
 20
403.0
 30
0.0
 11
458.0
 21
357.0
 31
0.0
  0
LINE
  5
5D6
  8
0
 10
258.0
 20
362.0
 30
0.0
 11
270.12435599999998
 21
355.0
 31
0.0
  0
LINE
  5
5D7
  8
1
 10
442.0
 20
360.27478000000002
 30
0.0
 11
442.0
 21
400.285372
 31
0.0
  0
LINE
  5
5D9
  8
1
 10
290.0
 20
360.27478000000002
 30
0.0
 11
290.0
 21
400.285372
 31
0.0
  0
ARC
  5
5DB
  8
2
 10
370.0
 20
380.0
 30
0.0
 40
10.5
 50
270.0
 51
90.0
  0
ARC
  5
5DC
  8
0
 10
290.0
 20
380.0
 30
0.0
 40
10.5
 50
90.0
 51
270.0
  0
CIRCLE
  5
5DD
  8
3
 10
442.06441599999999
 20
380.00004999999999
 30
0.0
 40
10.0
  0
LINE
  5
5DE
  8
0
 10
352.97795546945082
 20
369.5
 30
0.0
 11
290.0
 21
369.5
 31
0.0
  0
LINE
  5
5DF
  8
0
 10
352.97795546945082
 20
390.5
 30
0.0
 11
290.0
 21
390.5
 31
0.0
  0
LINE
  5
5E0
  8
0
 10
258.0
 20
398.0
 30
0.0
 11
270.12435599999998
 21
405.0
 31
0.0
  0
LINE
  5
5E1
  8
2
 10
352.97795546945082
 20
369.5
 30
0.0
 11
458.0
 21
369.5
 31
0.0
  0
LINE
  5
5E2
  8
2
 10
352.97795546945082
 20
390.5
 30
0.0
 11
458.0
 21
390.5
 31
0.0
  0
LINE
  5
5E3
  8
0
 10
458.0
 20
357.0
 30
0.0
 11
456.0
 21
355.0
 31
0.0
  0
LINE
  5
5E4
  8
0
 10
458.0
 20
403.0
 30
0.0
 11
456.0
 21
405.0
 31
0.0
  0
LINE
  5
5E5
  8
0
 10
266.19285400000001
 20
402.73014599999999
 30
0.0
 11
266.19285400000001
 21
357.26985400000001
 31
0.0
  0
CIRCLE
  5
5E6
  8
0
 10
442.0
 20
380.0
 30
0.0
 40
8.6470000000000002
  0
LINE
  5
5E7
  8
0
 10
159.99999800000001
 20
195.37156400000001
 30
0.0
 11
159.99999800000001
 21
186.62840600000001
 31
0.0
  0
LINE
  5
5E8
  8
0
 10
174.49999800000001
 20
184.99998500000001
 30
0.0
 11
145.49999800000001
 21
184.99998500000001
 31
0.0
  0
LINE
  5
5E9
  8
0
 10
145.49999800000001
 20
196.99998500000001
 30
0.0
 11
174.49999800000001
 21
196.99998500000001
 31
0.0
  0
ARC
  5
5EA
  8
0
 10
152.49999800000001
 20
175.04865100000001
 30
0.0
 40
21.662659000000001
 50
69.743841999999916
 51
110.2561580000001
  0
LINE
  5
5EB
  8
0
 10
145.49999800000001
 20
196.99998500000001
 30
0.0
 11
144.99999800000001
 21
196.71131
 31
0.0
  0
LINE
  5
5EC
  8
0
 10
145.49999800000001
 20
184.99998500000001
 30
0.0
 11
144.99999800000001
 21
185.28865999999999
 31
0.0
  0
ARC
  5
5ED
  8
0
 10
152.49999800000001
 20
206.95131900000001
 30
0.0
 40
21.662659000000001
 50
249.74384199999989
 51
290.25615800000008
  0
LINE
  5
5EE
  8
0
 10
144.99999800000001
 20
196.71131
 30
0.0
 11
144.99999800000001
 21
185.28865999999999
 31
0.0
  0
LINE
  5
5EF
  8
0
 10
174.99999800000001
 20
196.71131
 30
0.0
 11
174.99999800000001
 21
185.28865999999999
 31
0.0
  0
ARC
  5
5F0
  8
0
 10
167.49999800000001
 20
206.95131900000001
 30
0.0
 40
21.662659000000001
 50
249.74384199999989
 51
290.25615800000008
  0
LINE
  5
5F1
  8
0
 10
174.49999800000001
 20
184.99998500000001
 30
0.0
 11
174.99999800000001
 21
185.28865999999999
 31
0.0
  0
LINE
  5
5F2
  8
0
 10
174.49999800000001
 20
196.99998500000001
 30
0.0
 11
174.99999800000001
 21
196.71131
 31
0.0
  0
ARC
  5
5F3
  8
0
 10
167.49999800000001
 20
175.04865100000001
 30
0.0
 40
21.662659000000001
 50
69.743841999999916
 51
110.2561580000001
  0
LINE
  5
5F4
  8
0
 10
569.99999800000001
 20
195.37156400000001
 30
0.0
 11
569.99999800000001
 21
186.62840600000001
 31
0.0
  0
LINE
  5
5F5
  8
0
 10
584.49999799999989
 20
184.99998500000001
 30
0.0
 11
555.49999799999989
 21
184.99998500000001
 31
0.0
  0
LINE
  5
5F6
  8
0
 10
555.49999799999989
 20
196.99998500000001
 30
0.0
 11
584.49999799999989
 21
196.99998500000001
 31
0.0
  0
ARC
  5
5F7
  8
0
 10
562.49999800000001
 20
175.04865100000001
 30
0.0
 40
21.662659000000001
 50
69.743841999999916
 51
110.2561580000001
  0
LINE
  5
5F8
  8
0
 10
555.49999799999989
 20
196.99998500000001
 30
0.0
 11
554.99999799999989
 21
196.71131
 31
0.0
  0
LINE
  5
5F9
  8
0
 10
555.49999799999989
 20
184.99998500000001
 30
0.0
 11
554.99999799999989
 21
185.28865999999999
 31
0.0
  0
ARC
  5
5FA
  8
0
 10
562.49999800000001
 20
206.95131900000001
 30
0.0
 40
21.662659000000001
 50
249.74384199999989
 51
290.25615800000008
  0
LINE
  5
5FB
  8
0
 10
554.99999799999989
 20
196.71131
 30
0.0
 11
554.99999799999989
 21
185.28865999999999
 31
0.0
  0
LINE
  5
5FC
  8
0
 10
584.99999799999989
 20
196.71131
 30
0.0
 11
584.99999799999989
 21
185.28865999999999
 31
0.0
  0
ARC
  5
5FD
  8
0
 10
577.49999800000001
 20
206.95131900000001
 30
0.0
 40
21.662659000000001
 50
249.74384199999989
 51
290.25615800000008
  0
LINE
  5
5FE
  8
0
 10
584.49999799999989
 20
184.99998500000001
 30
0.0
 11
584.99999799999989
 21
185.28865999999999
 31
0.0
  0
LINE
  5
5FF
  8
0
 10
584.49999799999989
 20
196.99998500000001
 30
0.0
 11
584.99999799999989
 21
196.71131
 31
0.0
  0
ARC
  5
600
  8
0
 10
577.49999800000001
 20
175.04865100000001
 30
0.0
 40
21.662659000000001
 50
69.743841999999916
 51
110.2561580000001
  0
LINE
  5
601
  8
1
 10
160.0
 20
318.99952200000001
 30
0.0
 11
160.0
 21
127.6823501418889
 31
0.0
  0
LINE
  5
602
  8
0
 10
167.5
 20
149.0
 30
0.0
 11
152.5
 21
149.0
 31
0.0
  0
LINE
  5
603
  8
0
 10
150.0
 20
151.5
 30
0.0
 11
150.0
 21
184.99998500000001
 31
0.0
  0
LINE
  5
604
  8
0
 10
152.5
 20
309.0
 30
0.0
 11
167.5
 21
309.0
 31
0.0
  0
LINE
  5
605
  8
0
 10
170.0
 20
306.5
 30
0.0
 11
170.0
 21
289.500652
 31
0.0
  0
LINE
  5
606
  8
0
 10
152.5
 20
149.0
 30
0.0
 11
150.0
 21
151.5
 31
0.0
  0
LINE
  5
607
  8
0
 10
167.5
 20
149.0
 30
0.0
 11
170.0
 21
151.5
 31
0.0
  0
LINE
  5
608
  8
0
 10
150.0
 20
151.5
 30
0.0
 11
170.0
 21
151.5
 31
0.0
  0
LINE
  5
609
  8
3
 10
151.25
 20
150.25
 30
0.0
 11
151.25
 21
184.99998500000001
 31
0.0
  0
LINE
  5
60A
  8
3
 10
151.25
 20
199.0
 30
0.0
 11
150.0
 21
201.165064
 31
0.0
  0
LINE
  5
60B
  8
0
 10
150.0
 20
199.0
 30
0.0
 11
170.0
 21
199.0
 31
0.0
  0
LINE
  5
60C
  8
0
 10
150.0
 20
306.5
 30
0.0
 11
152.5
 21
309.0
 31
0.0
  0
LINE
  5
60D
  8
0
 10
167.5
 20
309.0
 30
0.0
 11
170.0
 21
306.5
 31
0.0
  0
LINE
  5
60E
  8
3
 10
168.75
 20
150.25
 30
0.0
 11
168.75
 21
184.99998500000001
 31
0.0
  0
LINE
  5
60F
  8
3
 10
168.75
 20
199.0
 30
0.0
 11
170.0
 21
201.165064
 31
0.0
  0
LINE
  5
611
  8
3
 10
168.75
 20
307.75
 30
0.0
 11
168.75
 21
289.500652
 31
0.0
  0
LINE
  5
613
  8
3
 10
151.25
 20
307.75
 30
0.0
 11
151.25
 21
289.500652
 31
0.0
  0
LINE
  5
615
  8
0
 10
150.0
 20
306.5
 30
0.0
 11
170.0
 21
306.5
 31
0.0
  0
LINE
  5
616
  8
0
 10
355.49999800000001
 20
197.0
 30
0.0
 11
352.67948999999999
 21
195.371579
 31
0.0
  0
ARC
  5
617
  8
0
 10
357.00961699999999
 20
189.043857
 30
0.0
 40
7.6674679999999986
 50
55.61575299999987
 51
115.6157529999999
  0
ARC
  5
618
  8
0
 10
357.00961699999999
 20
189.043857
 30
0.0
 40
7.6674679999999986
 50
124.3842470000001
 51
124.3842470000001
  0
ARC
  5
619
  8
0
 10
369.99999800000001
 20
168.05107100000001
 30
0.0
 40
28.660253999999998
 50
72.4120460000007
 51
107.5879539999993
  0
ARC
  5
61A
  8
0
 10
357.00961699999999
 20
192.956143
 30
0.0
 40
7.6674679999999986
 50
235.6157529999999
 51
235.6157529999999
  0
ARC
  5
61B
  8
0
 10
357.00961699999999
 20
192.956143
 30
0.0
 40
7.6674679999999986
 50
244.3842470000001
 51
304.38424700000007
  0
LINE
  5
61C
  8
0
 10
355.49999800000001
 20
185.0
 30
0.0
 11
352.67948999999999
 21
186.628421
 31
0.0
  0
LINE
  5
61D
  8
0
 10
352.67948999999999
 20
195.371579
 30
0.0
 11
352.67948999999999
 21
186.628421
 31
0.0
  0
LINE
  5
61E
  8
0
 10
361.339744
 20
186.628421
 30
0.0
 11
361.339744
 21
195.371579
 31
0.0
  0
ARC
  5
61F
  8
0
 10
369.99999800000001
 20
213.94892899999999
 30
0.0
 40
28.660253999999998
 50
252.41204600000069
 51
287.58795399999929
  0
LINE
  5
620
  8
0
 10
378.66025200000001
 20
186.628421
 30
0.0
 11
378.66025200000001
 21
195.371579
 31
0.0
  0
LINE
  5
621
  8
0
 10
387.32050600000002
 20
195.371579
 30
0.0
 11
387.32050600000002
 21
186.628421
 31
0.0
  0
LINE
  5
622
  8
0
 10
384.49999800000001
 20
185.0
 30
0.0
 11
387.32050600000002
 21
186.628421
 31
0.0
  0
ARC
  5
623
  8
0
 10
382.99037900000002
 20
192.956143
 30
0.0
 40
7.6674679999999986
 50
235.6157529999999
 51
295.61575299999993
  0
ARC
  5
624
  8
0
 10
382.99037900000002
 20
192.956143
 30
0.0
 40
7.6674679999999986
 50
304.38424700000007
 51
304.38424700000007
  0
ARC
  5
625
  8
0
 10
382.99037900000002
 20
189.043857
 30
0.0
 40
7.6674679999999986
 50
55.61575299999987
 51
55.61575299999987
  0
ARC
  5
626
  8
0
 10
382.99037900000002
 20
189.043857
 30
0.0
 40
7.6674679999999986
 50
64.384247000000116
 51
124.3842470000001
  0
LINE
  5
627
  8
0
 10
384.49999800000001
 20
197.0
 30
0.0
 11
387.32050600000002
 21
195.371579
 31
0.0
  0
LINE
  5
628
  8
0
 10
355.49999800000001
 20
197.0
 30
0.0
 11
384.49999800000001
 21
197.0
 31
0.0
  0
LINE
  5
629
  8
0
 10
384.49999800000001
 20
185.0
 30
0.0
 11
355.49999800000001
 21
185.0
 31
0.0
  0
LINE
  5
62A
  8
1
 10
370.0
 20
318.99952200000001
 30
0.0
 11
370.0
 21
139.00010599999999
 31
0.0
  0
LINE
  5
62B
  8
0
 10
377.5
 20
149.0
 30
0.0
 11
362.5
 21
149.0
 31
0.0
  0
LINE
  5
62C
  8
0
 10
360.0
 20
151.5
 30
0.0
 11
360.0
 21
184.99998500000001
 31
0.0
  0
LINE
  5
62D
  8
0
 10
362.5
 20
309.0
 30
0.0
 11
377.5
 21
309.0
 31
0.0
  0
LINE
  5
62E
  8
0
 10
380.0
 20
306.5
 30
0.0
 11
379.99999999999989
 21
289.500652
 31
0.0
  0
LINE
  5
62F
  8
0
 10
362.5
 20
149.0
 30
0.0
 11
360.0
 21
151.5
 31
0.0
  0
LINE
  5
630
  8
0
 10
377.5
 20
149.0
 30
0.0
 11
380.0
 21
151.5
 31
0.0
  0
LINE
  5
631
  8
0
 10
360.0
 20
151.5
 30
0.0
 11
380.0
 21
151.5
 31
0.0
  0
LINE
  5
632
  8
3
 10
361.25
 20
150.25
 30
0.0
 11
361.25
 21
184.99998500000001
 31
0.0
  0
LINE
  5
633
  8
3
 10
361.25
 20
199.0
 30
0.0
 11
360.0
 21
201.165064
 31
0.0
  0
LINE
  5
634
  8
0
 10
360.0
 20
199.0
 30
0.0
 11
380.0
 21
199.0
 31
0.0
  0
LINE
  5
635
  8
0
 10
360.0
 20
306.5
 30
0.0
 11
362.5
 21
309.0
 31
0.0
  0
LINE
  5
636
  8
0
 10
377.5
 20
309.0
 30
0.0
 11
380.0
 21
306.5
 31
0.0
  0
LINE
  5
637
  8
3
 10
378.75
 20
150.25
 30
0.0
 11
378.75
 21
184.99998500000001
 31
0.0
  0
LINE
  5
638
  8
3
 10
378.75
 20
199.0
 30
0.0
 11
380.0
 21
201.165064
 31
0.0
  0
LINE
  5
63A
  8
3
 10
378.75
 20
307.75
 30
0.0
 11
378.75
 21
289.500652
 31
0.0
  0
LINE
  5
63C
  8
3
 10
361.25
 20
307.75
 30
0.0
 11
361.25
 21
289.500652
 31
0.0
  0
LINE
  5
63E
  8
0
 10
360.0
 20
306.5
 30
0.0
 11
380.0
 21
306.5
 31
0.0
  0
LINE
  5
63F
  8
0
 10
435.4999939999999
 20
197.0
 30
0.0
 11
432.67948599999988
 21
195.371579
 31
0.0
  0
ARC
  5
640
  8
0
 10
437.009613
 20
189.043857
 30
0.0
 40
7.6674679999999986
 50
55.61575299999987
 51
115.6157529999999
  0
ARC
  5
641
  8
0
 10
437.009613
 20
189.043857
 30
0.0
 40
7.6674679999999986
 50
124.3842470000001
 51
124.3842470000001
  0
ARC
  5
642
  8
0
 10
449.99999400000002
 20
168.05107100000001
 30
0.0
 40
28.660253999999998
 50
72.4120460000007
 51
107.5879539999993
  0
ARC
  5
643
  8
0
 10
437.009613
 20
192.956143
 30
0.0
 40
7.6674679999999986
 50
235.6157529999999
 51
235.6157529999999
  0
ARC
  5
644
  8
0
 10
437.009613
 20
192.956143
 30
0.0
 40
7.6674679999999986
 50
244.3842470000001
 51
304.38424700000007
  0
LINE
  5
645
  8
0
 10
435.4999939999999
 20
185.0
 30
0.0
 11
432.67948599999988
 21
186.628421
 31
0.0
  0
LINE
  5
646
  8
0
 10
432.67948599999988
 20
195.371579
 30
0.0
 11
432.67948599999988
 21
186.628421
 31
0.0
  0
LINE
  5
647
  8
0
 10
441.33974000000001
 20
186.628421
 30
0.0
 11
441.33974000000001
 21
195.371579
 31
0.0
  0
ARC
  5
648
  8
0
 10
449.99999400000002
 20
213.94892899999999
 30
0.0
 40
28.660253999999998
 50
252.41204600000069
 51
287.58795399999929
  0
LINE
  5
649
  8
0
 10
458.66024800000002
 20
186.628421
 30
0.0
 11
458.66024800000002
 21
195.371579
 31
0.0
  0
LINE
  5
64A
  8
0
 10
467.32050199999998
 20
195.371579
 30
0.0
 11
467.32050199999998
 21
186.628421
 31
0.0
  0
LINE
  5
64B
  8
0
 10
464.4999939999999
 20
185.0
 30
0.0
 11
467.32050199999998
 21
186.628421
 31
0.0
  0
ARC
  5
64C
  8
0
 10
462.99037499999997
 20
192.956143
 30
0.0
 40
7.6674679999999986
 50
235.6157529999999
 51
295.61575299999993
  0
ARC
  5
64D
  8
0
 10
462.99037499999997
 20
192.956143
 30
0.0
 40
7.6674679999999986
 50
304.38424700000007
 51
304.38424700000007
  0
ARC
  5
64E
  8
0
 10
462.99037499999997
 20
189.043857
 30
0.0
 40
7.6674679999999986
 50
55.61575299999987
 51
55.61575299999987
  0
ARC
  5
64F
  8
0
 10
462.99037499999997
 20
189.043857
 30
0.0
 40
7.6674679999999986
 50
64.384247000000116
 51
124.3842470000001
  0
LINE
  5
650
  8
0
 10
464.4999939999999
 20
197.0
 30
0.0
 11
467.32050199999998
 21
195.371579
 31
0.0
  0
LINE
  5
651
  8
0
 10
435.4999939999999
 20
197.0
 30
0.0
 11
464.4999939999999
 21
197.0
 31
0.0
  0
LINE
  5
652
  8
0
 10
464.4999939999999
 20
185.0
 30
0.0
 11
435.4999939999999
 21
185.0
 31
0.0
  0
LINE
  5
656
  8
0
 10
468.0
 20
386.082763
 30
0.0
 11
468.0
 21
373.917237
 31
0.0
  0
LINE
  5
657
  8
1
 10
450.0
 20
357.0
 30
0.0
 11
450.0
 21
403.0
 31
0.0
  0
LINE
  5
658
  8
1
 10
480.78123310234992
 20
380.0
 30
0.0
 11
240.20426831490821
 21
380.0
 31
0.0
  0
LINE
  5
65A
  8
0
 10
467.0290849999999
 20
388.426759
 30
0.0
 11
458.426759
 21
397.02908500000001
 31
0.0
  0
LINE
  5
65B
  8
0
 10
467.0290849999999
 20
371.573241
 30
0.0
 11
458.426759
 21
362.97091499999999
 31
0.0
  0
ARC
  5
65D
  8
0
 10
450.0
 20
380.0
 30
0.0
 40
17.5
 50
297.20289441221439
 51
62.797105587785531
  0
ARC
  5
65E
  8
0
 10
450.0
 20
380.0
 30
0.0
 40
19.0
 50
18.671718000000141
 51
26.328282000000758
  0
ARC
  5
65F
  8
0
 10
450.0
 20
380.0
 30
0.0
 40
19.0
 50
63.671717999999238
 51
65.098937629633028
  0
ARC
  5
664
  8
0
 10
450.0
 20
380.0
 30
0.0
 40
19.0
 50
294.9010623703669
 51
296.32828200000068
  0
ARC
  5
665
  8
0
 10
450.0
 20
380.0
 30
0.0
 40
19.0
 50
333.6717179999992
 51
341.32828199999989
  0
ARC
  5
666
  8
0
 10
450.0
 20
380.0
 30
0.0
 40
10.0
 50
123.8957606097532
 51
236.1042393902467
  0
LINE
  5
667
  8
0
 10
467.50000099999988
 20
215.0
 30
0.0
 11
432.500001
 21
215.0
 31
0.0
  0
LINE
  5
668
  8
0
 10
467.99999200000002
 20
229.71133
 30
0.0
 11
467.99999200000002
 21
215.28867
 31
0.0
  0
ARC
  5
669
  8
0
 10
461.00000199999999
 20
214.0
 30
0.0
 40
1.0
 50
90.0
 51
180.0
  0
ARC
  5
66A
  8
0
 10
439.00000199999999
 20
214.0
 30
0.0
 40
1.0
 50
0.0
 51
90.0
  0
LINE
  5
66B
  8
0
 10
432.500001
 20
230.0
 30
0.0
 11
467.50000099999988
 21
230.0
 31
0.0
  0
LINE
  5
66C
  8
0
 10
459.99999400000002
 20
142.5
 30
0.0
 11
439.9999939999999
 21
142.5
 31
0.0
  0
LINE
  5
66D
  8
0
 10
442.49999400000002
 20
140.0
 30
0.0
 11
439.9999939999999
 21
142.5
 31
0.0
  0
LINE
  5
66E
  8
0
 10
459.99999400000002
 20
142.5
 30
0.0
 11
457.49999400000002
 21
140.0
 31
0.0
  0
LINE
  5
66F
  8
0
 10
459.99999300000002
 20
214.0
 30
0.0
 11
459.99999300000002
 21
196.99998500000001
 31
0.0
  0
LINE
  5
670
  8
3
 10
458.64699399999989
 20
205.0
 30
0.0
 11
458.64699399999989
 21
196.99998500000001
 31
0.0
  0
LINE
  5
671
  8
3
 10
441.35299400000002
 20
205.0
 30
0.0
 11
441.35299400000002
 21
196.99998500000001
 31
0.0
  0
LINE
  5
672
  8
0
 10
439.9999929999999
 20
214.0
 30
0.0
 11
439.9999929999999
 21
196.99998500000001
 31
0.0
  0
LINE
  5
673
  8
0
 10
457.49999400000002
 20
140.0
 30
0.0
 11
442.49999400000002
 21
140.0
 31
0.0
  0
LINE
  5
674
  8
3
 10
441.3529989999999
 20
205.0
 30
0.0
 11
439.999999
 21
207.34346500000001
 31
0.0
  0
LINE
  5
675
  8
3
 10
458.64699899999999
 20
205.0
 30
0.0
 11
459.99999899999989
 21
207.34346500000001
 31
0.0
  0
LINE
  5
676
  8
0
 10
439.999999
 20
205.0
 30
0.0
 11
459.99999899999989
 21
205.0
 31
0.0
  0
LINE
  5
678
  8
0
 10
458.0
 20
234.0
 30
0.0
 11
459.50000099999988
 21
234.0
 31
0.0
  0
LINE
  5
679
  8
0
 10
460.000001
 20
233.5
 30
0.0
 11
460.000001
 21
230.40000000000001
 31
0.0
  0
LINE
  5
67A
  8
0
 10
459.50000099999988
 20
234.0
 30
0.0
 11
460.000001
 21
233.5
 31
0.0
  0
LINE
  5
67C
  8
0
 10
458.42676
 20
229.19999999999999
 30
0.0
 11
458.42676
 21
215.80000000000001
 31
0.0
  0
LINE
  5
67D
  8
0
 10
456.082763
 20
229.19999999999999
 30
0.0
 11
456.082763
 21
215.80000000000001
 31
0.0
  0
ARC
  5
67E
  8
0
 10
460.40000099999997
 20
230.40000000000001
 30
0.0
 40
0.4
 50
180.0
 51
270.0
  0
LINE
  5
680
  8
0
 10
467.50000099999988
 20
230.0
 30
0.0
 11
467.99999200000002
 21
229.71133
 31
0.0
  0
ARC
  5
681
  8
0
 10
463.21337599999998
 20
207.11253300000001
 30
0.0
 40
22.600175
 50
77.772404000000961
 51
102.227595999999
  0
LINE
  5
682
  8
0
 10
458.42676
 20
215.80000000000001
 30
0.0
 11
456.082763
 21
215.80000000000001
 31
0.0
  0
LINE
  5
683
  8
0
 10
467.50000099999988
 20
215.0
 30
0.0
 11
467.99999200000002
 21
215.28867
 31
0.0
  0
ARC
  5
684
  8
0
 10
463.21337599999998
 20
237.88746699999999
 30
0.0
 40
22.600175
 50
257.77240400000102
 51
282.22759599999898
  0
ARC
  5
685
  8
0
 10
449.999999
 20
193.27511699999999
 30
0.0
 40
36.436207000000003
 50
80.389881999999105
 51
99.610118000000895
  0
ARC
  5
686
  8
0
 10
449.999999
 20
251.72488300000001
 30
0.0
 40
36.436207000000003
 50
260.38988199999909
 51
279.61011800000091
  0
LINE
  5
687
  8
0
 10
458.42676
 20
229.19999999999999
 30
0.0
 11
456.082763
 21
229.19999999999999
 31
0.0
  0
LINE
  5
688
  8
0
 10
441.57324199999999
 20
229.19999999999999
 30
0.0
 11
443.917238
 21
229.19999999999999
 31
0.0
  0
ARC
  5
689
  8
0
 10
436.78662500000002
 20
237.88746699999999
 30
0.0
 40
22.600175
 50
257.77240400000102
 51
282.22759599999898
  0
LINE
  5
68A
  8
0
 10
432.500001
 20
215.0
 30
0.0
 11
432.00000899999992
 21
215.28867
 31
0.0
  0
LINE
  5
68B
  8
0
 10
441.57324199999999
 20
215.80000000000001
 30
0.0
 11
443.917238
 21
215.80000000000001
 31
0.0
  0
ARC
  5
68C
  8
0
 10
436.78662500000002
 20
207.11253300000001
 30
0.0
 40
22.600175
 50
77.772404000000961
 51
102.227595999999
  0
LINE
  5
68D
  8
0
 10
432.500001
 20
230.0
 30
0.0
 11
432.00000899999992
 21
229.71133
 31
0.0
  0
LINE
  5
68E
  8
0
 10
443.917238
 20
229.19999999999999
 30
0.0
 11
443.917238
 21
215.80000000000001
 31
0.0
  0
LINE
  5
68F
  8
0
 10
441.57324199999999
 20
229.19999999999999
 30
0.0
 11
441.57324199999999
 21
215.80000000000001
 31
0.0
  0
LINE
  5
690
  8
0
 10
432.00000899999992
 20
229.71133
 30
0.0
 11
432.00000899999992
 21
215.28867
 31
0.0
  0
LINE
  5
691
  8
1
 10
449.99999350746589
 20
127.6823501418889
 30
0.0
 11
450.00000099999988
 21
239.0
 31
0.0
  0
CIRCLE
  5
694
  8
0
 10
370.0
 20
380.0
 30
0.0
 40
14.5
  0
CIRCLE
  5
695
  8
0
 10
370.0
 20
380.0
 30
0.0
 40
20.0
  0
LINE
  5
697
  8
1
 10
370.0
 20
345.05410040404331
 30
0.0
 11
370.0
 21
414.94589959595669
 31
0.0
  0
LINE
  5
698
  8
0
 10
361.89429200000001
 20
365.0
 30
0.0
 11
378.10570799999999
 21
365.0
 31
0.0
  0
ARC
  5
699
  8
0
 10
370.0
 20
380.0
 30
0.0
 40
17.050000000000001
 50
298.38592399999982
 51
301.6140759999995
  0
LINE
  5
69A
  8
0
 10
352.95676500000002
 20
379.51974899999999
 30
0.0
 11
361.06247300000001
 21
365.48025100000001
 31
0.0
  0
ARC
  5
69B
  8
0
 10
370.0
 20
380.0
 30
0.0
 40
17.050000000000001
 50
238.38592400000039
 51
241.61407600000021
  0
LINE
  5
69C
  8
0
 10
361.06247300000001
 20
394.51974899999999
 30
0.0
 11
352.95676500000002
 21
380.48025100000001
 31
0.0
  0
ARC
  5
69D
  8
0
 10
370.0
 20
380.0
 30
0.0
 40
17.050000000000001
 50
178.3859240000013
 51
181.6140759999987
  0
LINE
  5
69E
  8
0
 10
378.10570799999999
 20
395.0
 30
0.0
 11
361.89429200000001
 21
395.0
 31
0.0
  0
ARC
  5
69F
  8
0
 10
370.0
 20
380.0
 30
0.0
 40
17.050000000000001
 50
118.3859239999998
 51
121.6140759999995
  0
LINE
  5
6A0
  8
0
 10
387.04323499999998
 20
380.48025100000001
 30
0.0
 11
378.93752699999999
 21
394.51974899999999
 31
0.0
  0
ARC
  5
6A1
  8
0
 10
370.0
 20
380.0
 30
0.0
 40
17.050000000000001
 50
58.385924000000443
 51
61.614076000000161
  0
ARC
  5
6A2
  8
0
 10
370.0
 20
380.0
 30
0.0
 40
17.050000000000001
 50
358.3859240000013
 51
1.614075999998692
  0
LINE
  5
6A3
  8
0
 10
378.93752699999999
 20
365.48025100000001
 30
0.0
 11
387.04323499999998
 21
379.51974899999999
 31
0.0
  0
CIRCLE
  5
6A4
  8
3
 10
370.0
 20
380.0
 30
0.0
 40
10.0
  0
CIRCLE
  5
6A5
  8
0
 10
370.0
 20
380.0
 30
0.0
 40
8.75
  0
LINE
  5
6A8
  8
0
 10
178.0
 20
250.0
 30
0.0
 11
183.0
 21
255.0
 31
0.0
  0
LINE
  5
6A9
  8
0
 10
137.0
 20
255.0
 30
0.0
 11
142.0
 21
250.0
 31
0.0
  0
LINE
  5
6AA
  8
0
 10
178.0
 20
250.0
 30
0.0
 11
178.0
 21
230.0
 31
0.0
  0
LINE
  5
6AB
  8
0
 10
142.0
 20
250.0
 30
0.0
 11
142.0
 21
230.0
 31
0.0
  0
LINE
  5
6AC
  8
0
 10
136.0
 20
255.0
 30
0.0
 11
135.0
 21
254.0
 31
0.0
  0
LINE
  5
6AD
  8
0
 10
185.0
 20
254.0
 30
0.0
 11
184.0
 21
255.0
 31
0.0
  0
LINE
  5
6AE
  8
0
 10
184.0
 20
230.0
 30
0.0
 11
185.0
 21
231.0
 31
0.0
  0
LINE
  5
6AF
  8
0
 10
136.0
 20
230.0
 30
0.0
 11
135.0
 21
231.0
 31
0.0
  0
LINE
  5
6B0
  8
0
 10
178.0
 20
250.0
 30
0.0
 11
142.0
 21
250.0
 31
0.0
  0
LINE
  5
6B2
  8
0
 10
136.0
 20
255.0
 30
0.0
 11
184.0
 21
255.0
 31
0.0
  0
LINE
  5
6B3
  8
0
 10
135.0
 20
231.0
 30
0.0
 11
135.0
 21
254.0
 31
0.0
  0
LINE
  5
6B4
  8
0
 10
184.0
 20
230.0
 30
0.0
 11
136.0
 21
230.0
 31
0.0
  0
LINE
  5
6B5
  8
0
 10
185.0
 20
254.0
 30
0.0
 11
185.0
 21
231.0
 31
0.0
  0
LINE
  5
6B8
  8
0
 10
587.50000199999988
 20
215.0
 30
0.0
 11
552.50000199999999
 21
215.0
 31
0.0
  0
LINE
  5
6B9
  8
0
 10
587.99999300000002
 20
229.71133
 30
0.0
 11
587.99999300000002
 21
215.28867
 31
0.0
  0
ARC
  5
6BA
  8
0
 10
581.00000299999999
 20
214.0
 30
0.0
 40
1.0
 50
90.0
 51
180.0
  0
ARC
  5
6BB
  8
0
 10
559.00000299999988
 20
214.0
 30
0.0
 40
1.0
 50
0.0
 51
90.0
  0
LINE
  5
6BC
  8
0
 10
552.50000199999999
 20
230.0
 30
0.0
 11
587.50000199999988
 21
230.0
 31
0.0
  0
LINE
  5
6BD
  8
0
 10
579.99999500000001
 20
142.5
 30
0.0
 11
559.9999949999999
 21
142.5
 31
0.0
  0
LINE
  5
6BE
  8
0
 10
562.49999500000001
 20
140.0
 30
0.0
 11
559.9999949999999
 21
142.5
 31
0.0
  0
LINE
  5
6BF
  8
0
 10
579.99999500000001
 20
142.5
 30
0.0
 11
577.49999500000001
 21
140.0
 31
0.0
  0
LINE
  5
6C0
  8
0
 10
579.99999400000002
 20
214.0
 30
0.0
 11
579.99999400000002
 21
196.99998500000001
 31
0.0
  0
LINE
  5
6C1
  8
3
 10
578.64699499999995
 20
205.0
 30
0.0
 11
578.64699499999995
 21
196.99998500000001
 31
0.0
  0
LINE
  5
6C2
  8
3
 10
561.35299499999985
 20
205.0
 30
0.0
 11
561.35299499999985
 21
196.99998500000001
 31
0.0
  0
LINE
  5
6C3
  8
0
 10
559.99999400000002
 20
214.0
 30
0.0
 11
559.99999400000002
 21
196.99998500000001
 31
0.0
  0
LINE
  5
6C4
  8
0
 10
577.49999500000001
 20
140.0
 30
0.0
 11
562.49999500000001
 21
140.0
 31
0.0
  0
LINE
  5
6C5
  8
3
 10
561.35299999999995
 20
205.0
 30
0.0
 11
560.0
 21
207.34346500000001
 31
0.0
  0
LINE
  5
6C6
  8
3
 10
578.64700000000005
 20
205.0
 30
0.0
 11
580.0
 21
207.34346500000001
 31
0.0
  0
LINE
  5
6C7
  8
0
 10
560.0
 20
205.0
 30
0.0
 11
580.0
 21
205.0
 31
0.0
  0
LINE
  5
6C8
  8
0
 10
560.00000199999999
 20
230.40000000000001
 30
0.0
 11
560.00000199999999
 21
233.5
 31
0.0
  0
LINE
  5
6C9
  8
0
 10
560.50000199999999
 20
234.0
 30
0.0
 11
579.50000199999988
 21
234.0
 31
0.0
  0
LINE
  5
6CA
  8
0
 10
580.00000199999988
 20
233.5
 30
0.0
 11
580.00000199999988
 21
230.40000000000001
 31
0.0
  0
LINE
  5
6CB
  8
0
 10
579.50000199999988
 20
234.0
 30
0.0
 11
580.00000199999988
 21
233.5
 31
0.0
  0
LINE
  5
6CC
  8
0
 10
560.50000199999999
 20
234.0
 30
0.0
 11
560.00000199999999
 21
233.5
 31
0.0
  0
LINE
  5
6CD
  8
0
 10
578.42676099999994
 20
229.19999999999999
 30
0.0
 11
578.42676099999994
 21
215.80000000000001
 31
0.0
  0
LINE
  5
6CE
  8
0
 10
576.082764
 20
229.19999999999999
 30
0.0
 11
576.082764
 21
215.80000000000001
 31
0.0
  0
ARC
  5
6CF
  8
0
 10
580.40000199999997
 20
230.40000000000001
 30
0.0
 40
0.4
 50
180.0
 51
270.0
  0
ARC
  5
6D0
  8
0
 10
559.6000019999999
 20
230.40000000000001
 30
0.0
 40
0.4
 50
270.0
 51
0.0
  0
LINE
  5
6D1
  8
0
 10
587.50000199999988
 20
230.0
 30
0.0
 11
587.99999300000002
 21
229.71133
 31
0.0
  0
ARC
  5
6D2
  8
0
 10
583.21337700000004
 20
207.11253300000001
 30
0.0
 40
22.600175
 50
77.772403999997792
 51
102.22759600000219
  0
LINE
  5
6D3
  8
0
 10
578.42676099999994
 20
215.80000000000001
 30
0.0
 11
576.082764
 21
215.80000000000001
 31
0.0
  0
LINE
  5
6D4
  8
0
 10
587.50000199999988
 20
215.0
 30
0.0
 11
587.99999300000002
 21
215.28867
 31
0.0
  0
ARC
  5
6D5
  8
0
 10
583.21337700000004
 20
237.88746699999999
 30
0.0
 40
22.600175
 50
257.77240399999778
 51
282.22759600000222
  0
ARC
  5
6D6
  8
0
 10
570.0
 20
193.27511699999999
 30
0.0
 40
36.436207000000003
 50
80.389882000002316
 51
99.610117999997684
  0
ARC
  5
6D7
  8
0
 10
570.0
 20
251.72488300000001
 30
0.0
 40
36.436207000000003
 50
260.38988200000227
 51
279.61011799999773
  0
LINE
  5
6D8
  8
0
 10
578.42676099999994
 20
229.19999999999999
 30
0.0
 11
576.082764
 21
229.19999999999999
 31
0.0
  0
LINE
  5
6D9
  8
0
 10
561.57324300000005
 20
229.19999999999999
 30
0.0
 11
563.91723899999988
 21
229.19999999999999
 31
0.0
  0
ARC
  5
6DA
  8
0
 10
556.78662599999996
 20
237.88746699999999
 30
0.0
 40
22.600175
 50
257.77240399999778
 51
282.22759600000222
  0
LINE
  5
6DB
  8
0
 10
552.50000199999999
 20
215.0
 30
0.0
 11
552.00000999999986
 21
215.28867
 31
0.0
  0
LINE
  5
6DC
  8
0
 10
561.57324300000005
 20
215.80000000000001
 30
0.0
 11
563.91723899999988
 21
215.80000000000001
 31
0.0
  0
ARC
  5
6DD
  8
0
 10
556.78662599999996
 20
207.11253300000001
 30
0.0
 40
22.600175
 50
77.772403999997792
 51
102.22759600000219
  0
LINE
  5
6DE
  8
0
 10
552.50000199999999
 20
230.0
 30
0.0
 11
552.00000999999986
 21
229.71133
 31
0.0
  0
LINE
  5
6DF
  8
0
 10
563.91723899999988
 20
229.19999999999999
 30
0.0
 11
563.91723899999988
 21
215.80000000000001
 31
0.0
  0
LINE
  5
6E0
  8
0
 10
561.57324300000005
 20
229.19999999999999
 30
0.0
 11
561.57324300000005
 21
215.80000000000001
 31
0.0
  0
LINE
  5
6E1
  8
0
 10
552.00000999999986
 20
229.71133
 30
0.0
 11
552.00000999999986
 21
215.28867
 31
0.0
  0
LINE
  5
6E2
  8
1
 10
569.99999450746577
 20
127.6823501418889
 30
0.0
 11
569.99999450746577
 21
318.99952200000001
 31
0.0
  0
LINE
  5
6E3
  8
0
 10
545.0
 20
231.0
 30
0.0
 11
545.0
 21
254.0
 31
0.0
  0
LINE
  5
6E4
  8
0
 10
546.0
 20
255.0
 30
0.0
 11
594.0
 21
255.0
 31
0.0
  0
LINE
  5
6E5
  8
0
 10
595.0
 20
254.0
 30
0.0
 11
595.0
 21
231.0
 31
0.0
  0
LINE
  5
6E6
  8
0
 10
594.0
 20
230.0
 30
0.0
 11
546.0
 21
230.0
 31
0.0
  0
LINE
  5
6E8
  8
0
 10
570.0
 20
235.0
 30
0.0
 11
559.49999999999989
 21
235.0
 31
0.0
  0
LINE
  5
6E9
  8
0
 10
559.49999999999989
 20
235.0
 30
0.0
 11
559.49999999999989
 21
230.0
 31
0.0
  0
LINE
  5
6EA
  8
0
 10
580.49999999999989
 20
235.0
 30
0.0
 11
580.49999999999989
 21
230.0
 31
0.0
  0
LINE
  5
6EB
  8
0
 10
563.0
 20
235.0
 30
0.0
 11
580.49999999999989
 21
235.0
 31
0.0
  0
LINE
  5
6EC
  8
0
 10
594.0
 20
255.0
 30
0.0
 11
595.0
 21
254.0
 31
0.0
  0
LINE
  5
6ED
  8
0
 10
546.0
 20
255.0
 30
0.0
 11
545.0
 21
254.0
 31
0.0
  0
LINE
  5
6EE
  8
0
 10
545.0
 20
231.0
 30
0.0
 11
546.0
 21
230.0
 31
0.0
  0
LINE
  5
6EF
  8
0
 10
594.0
 20
230.0
 30
0.0
 11
595.0
 21
231.0
 31
0.0
  0
ARC
  5
6F0
  8
0
 10
382.78750000000002
 20
282.594402
 30
0.0
 40
6.9063259999999991
 50
51.888937999999882
 51
128.11106200000009
  0
LINE
  5
6F1
  8
0
 10
378.52499999999998
 20
288.02840900000001
 30
0.0
 11
378.52499999999998
 21
267.000652
 31
0.0
  0
ARC
  5
6F2
  8
0
 10
370.0
 20
264.08259399999997
 30
0.0
 40
25.418057999999998
 50
70.403654999998835
 51
90.0
  0
LINE
  5
6F3
  8
0
 10
352.94999999999999
 20
288.02840900000001
 30
0.0
 11
355.5
 21
289.500652
 31
0.0
  0
LINE
  5
6F4
  8
0
 10
387.05000000000001
 20
288.02840900000001
 30
0.0
 11
384.5
 21
289.500652
 31
0.0
  0
ARC
  5
6F5
  8
0
 10
357.21249999999998
 20
282.594402
 30
0.0
 40
6.9063259999999991
 50
51.888937999999882
 51
128.11106200000009
  0
LINE
  5
6F6
  8
0
 10
355.5
 20
289.500652
 30
0.0
 11
384.5
 21
289.500652
 31
0.0
  0
ARC
  5
6F7
  8
0
 10
370.0
 20
264.08259399999997
 30
0.0
 40
25.418057999999998
 50
90.0
 51
109.59634500000109
  0
LINE
  5
6F8
  8
0
 10
387.05000000000001
 20
288.02840900000001
 30
0.0
 11
387.05000000000001
 21
267.40065199999998
 31
0.0
  0
LINE
  5
6F9
  8
0
 10
390.0
 20
266.500652
 30
0.0
 11
390.0
 21
263.20065199999999
 31
0.0
  0
LINE
  5
6FB
  8
0
 10
390.0
 20
266.500652
 30
0.0
 11
389.5
 21
267.000652
 31
0.0
  0
ARC
  5
6FC
  8
0
 10
387.44999999999999
 20
267.40065199999998
 30
0.0
 40
0.4
 50
180.0
 51
270.0
  0
ARC
  5
6FD
  8
0
 10
352.55000000000001
 20
267.40065199999998
 30
0.0
 40
0.4
 50
270.0
 51
0.0
  0
LINE
  5
6FE
  8
0
 10
350.0
 20
266.500652
 30
0.0
 11
350.5
 21
267.000652
 31
0.0
  0
LINE
  5
6FF
  8
0
 10
350.0
 20
266.500652
 30
0.0
 11
350.0
 21
263.20065199999999
 31
0.0
  0
LINE
  5
700
  8
0
 10
389.5
 20
267.000652
 30
0.0
 11
350.5
 21
267.000652
 31
0.0
  0
LINE
  5
701
  8
0
 10
352.94999999999999
 20
288.02840900000001
 30
0.0
 11
352.94999999999999
 21
267.40065199999998
 31
0.0
  0
LINE
  5
702
  8
0
 10
361.47500000000002
 20
288.02840900000001
 30
0.0
 11
361.47500000000002
 21
267.000652
 31
0.0
  0
LINE
  5
704
  8
0
 10
390.0
 20
263.20065199999999
 30
0.0
 11
350.0
 21
263.20065199999999
 31
0.0
  0
ARC
  5
705
  8
0
 10
370.0
 20
297.84166800000003
 30
0.0
 40
40.0
 50
239.99999999999949
 51
243.64254793350869
  0
ARC
  5
706
  8
0
 10
370.0
 20
297.84166800000003
 30
0.0
 40
40.0
 50
296.35745206649131
 51
300.00000000000051
  0
LINE
  5
710
  8
0
 10
350.0
 20
261.5
 30
0.0
 11
350.5
 21
262.0
 31
0.0
  0
LINE
  5
711
  8
0
 10
350.5
 20
255.0
 30
0.0
 11
350.0
 21
255.5
 31
0.0
  0
LINE
  5
712
  8
0
 10
390.0
 20
261.5
 30
0.0
 11
389.5
 21
262.0
 31
0.0
  0
LINE
  5
713
  8
0
 10
389.5
 20
255.0
 30
0.0
 11
390.0
 21
255.5
 31
0.0
  0
LINE
  5
714
  8
0
 10
350.0
 20
261.5
 30
0.0
 11
350.0
 21
255.5
 31
0.0
  0
LINE
  5
715
  8
0
 10
390.0
 20
255.5
 30
0.0
 11
390.0
 21
261.5
 31
0.0
  0
LINE
  5
716
  8
0
 10
350.5
 20
255.0
 30
0.0
 11
389.5
 21
255.0
 31
0.0
  0
LINE
  5
717
  8
0
 10
389.5
 20
262.0
 30
0.0
 11
350.5
 21
262.0
 31
0.0
  0
ARC
  5
720
  8
0
 10
450.0
 20
380.0
 30
0.0
 40
10.0
 50
323.13010235415601
 51
36.86989764584402
  0
LINE
  5
770
  8
3
 10
561.35299499999985
 20
184.99998500000001
 30
0.0
 11
561.35299499999985
 21
141.14699999999999
 31
0.0
  0
LINE
  5
771
  8
0
 10
559.99999400000002
 20
184.99998500000001
 30
0.0
 11
559.99999400000002
 21
142.5
 31
0.0
  0
LINE
  5
772
  8
0
 10
579.99999400000002
 20
184.99998500000001
 30
0.0
 11
579.99999400000002
 21
142.5
 31
0.0
  0
LINE
  5
773
  8
3
 10
578.64699499999995
 20
184.99998500000001
 30
0.0
 11
578.64699499999995
 21
141.14699999999999
 31
0.0
  0
LINE
  5
774
  8
3
 10
441.35299400000002
 20
184.99998500000001
 30
0.0
 11
441.35299400000002
 21
141.14699999999999
 31
0.0
  0
LINE
  5
775
  8
0
 10
439.9999929999999
 20
184.99998500000001
 30
0.0
 11
439.9999929999999
 21
142.5
 31
0.0
  0
LINE
  5
776
  8
0
 10
459.99999300000002
 20
184.99998500000001
 30
0.0
 11
459.99999300000002
 21
142.5
 31
0.0
  0
LINE
  5
777
  8
3
 10
458.64699399999989
 20
184.99998500000001
 30
0.0
 11
458.64699399999989
 21
141.14699999999999
 31
0.0
  0
LINE
  5
778
  8
0
 10
380.0
 20
184.99998500000001
 30
0.0
 11
380.0
 21
151.5
 31
0.0
  0
LINE
  5
779
  8
3
 10
378.75
 20
196.99998500000001
 30
0.0
 11
378.75
 21
199.0
 31
0.0
  0
LINE
  5
77A
  8
3
 10
361.25
 20
196.99998500000001
 30
0.0
 11
361.25
 21
199.0
 31
0.0
  0
LINE
  5
77B
  8
0
 10
360.0
 20
196.99998500000001
 30
0.0
 11
360.0
 21
230.0
 31
0.0
  0
LINE
  5
77C
  8
3
 10
151.25
 20
196.99998500000001
 30
0.0
 11
151.25
 21
199.0
 31
0.0
  0
LINE
  5
77D
  8
0
 10
150.0
 20
196.99998500000001
 30
0.0
 11
150.0
 21
230.0
 31
0.0
  0
LINE
  5
77E
  8
0
 10
170.0
 20
184.99998500000001
 30
0.0
 11
170.0
 21
151.5
 31
0.0
  0
LINE
  5
77F
  8
3
 10
168.75
 20
196.99998500000001
 30
0.0
 11
168.75
 21
199.0
 31
0.0
  0
LINE
  5
781
  8
0
 10
360.0
 20
289.500652
 30
0.0
 11
360.0
 21
306.5
 31
0.0
  0
LINE
  5
782
  8
0
 10
380.0
 20
230.0
 30
0.0
 11
380.0
 21
196.99998500000001
 31
0.0
  0
LINE
  5
783
  8
0
 10
560.0
 20
289.500652
 30
0.0
 11
560.0
 21
306.5
 31
0.0
  0
LINE
  5
784
  8
0
 10
562.5
 20
309.0
 30
0.0
 11
577.5
 21
309.0
 31
0.0
  0
LINE
  5
785
  8
0
 10
580.0
 20
306.5
 30
0.0
 11
580.0
 21
289.500652
 31
0.0
  0
LINE
  5
786
  8
0
 10
560.0
 20
306.5
 30
0.0
 11
562.5
 21
309.0
 31
0.0
  0
LINE
  5
787
  8
0
 10
577.5
 20
309.0
 30
0.0
 11
580.0
 21
306.5
 31
0.0
  0
LINE
  5
788
  8
3
 10
578.75
 20
307.75
 30
0.0
 11
578.75
 21
289.500652
 31
0.0
  0
LINE
  5
789
  8
3
 10
561.24999999999989
 20
307.75
 30
0.0
 11
561.24999999999989
 21
289.500652
 31
0.0
  0
LINE
  5
78A
  8
0
 10
560.0
 20
306.5
 30
0.0
 11
580.0
 21
306.5
 31
0.0
  0
LINE
  5
78B
  8
0
 10
570.0
 20
287.872231
 30
0.0
 11
570.0
 21
267.000652
 31
0.0
  0
ARC
  5
78C
  8
0
 10
554.60000000000002
 20
267.40065199999998
 30
0.0
 40
0.4
 50
270.0
 51
0.0
  0
LINE
  5
78D
  8
0
 10
555.0
 20
288.70065199999999
 30
0.0
 11
555.0
 21
267.40065199999998
 31
0.0
  0
LINE
  5
78E
  8
0
 10
584.20000000000005
 20
289.500652
 30
0.0
 11
555.79999999999995
 21
289.500652
 31
0.0
  0
LINE
  5
78F
  8
0
 10
584.20000000000005
 20
289.500652
 30
0.0
 11
585.0
 21
288.70065199999999
 31
0.0
  0
LINE
  5
790
  8
0
 10
555.79999999999995
 20
289.500652
 30
0.0
 11
555.0
 21
288.70065199999999
 31
0.0
  0
ARC
  5
791
  8
0
 10
562.5
 20
271.41511000000003
 30
0.0
 40
18.085542
 50
65.49983299999775
 51
114.50016700000219
  0
ARC
  5
792
  8
0
 10
577.5
 20
271.41511000000003
 30
0.0
 40
18.085542
 50
65.49983299999775
 51
114.50016700000219
  0
ARC
  5
793
  8
0
 10
585.40001600000005
 20
267.40065199999998
 30
0.0
 40
0.4
 50
180.0
 51
270.0
  0
LINE
  5
794
  8
0
 10
585.00001599999985
 20
288.70065199999999
 30
0.0
 11
585.00001599999985
 21
267.40065199999998
 31
0.0
  0
ARC
  5
796
  8
0
 10
570.0
 20
297.84166800000003
 30
0.0
 40
40.0
 50
296.35745206649119
 51
300.00000000000051
  0
ARC
  5
797
  8
0
 10
570.0
 20
297.84166800000003
 30
0.0
 40
40.0
 50
239.99999999999949
 51
243.64254793350881
  0
LINE
  5
798
  8
0
 10
590.0
 20
263.20065199999999
 30
0.0
 11
550.0
 21
263.20065199999999
 31
0.0
  0
LINE
  5
799
  8
0
 10
589.5
 20
267.000652
 30
0.0
 11
550.49999999999989
 21
267.000652
 31
0.0
  0
LINE
  5
79A
  8
0
 10
550.0
 20
266.500652
 30
0.0
 11
550.0
 21
263.20065199999999
 31
0.0
  0
LINE
  5
79B
  8
0
 10
550.0
 20
266.500652
 30
0.0
 11
550.49999999999989
 21
267.000652
 31
0.0
  0
LINE
  5
79C
  8
0
 10
590.0
 20
266.500652
 30
0.0
 11
589.5
 21
267.000652
 31
0.0
  0
LINE
  5
79E
  8
0
 10
590.0
 20
266.500652
 30
0.0
 11
590.0
 21
263.20065199999999
 31
0.0
  0
LINE
  5
7A8
  8
0
 10
550.0
 20
261.5
 30
0.0
 11
550.49999999999989
 21
262.0
 31
0.0
  0
LINE
  5
7A9
  8
0
 10
550.49999999999989
 20
255.0
 30
0.0
 11
550.0
 21
255.5
 31
0.0
  0
LINE
  5
7AA
  8
0
 10
590.0
 20
261.5
 30
0.0
 11
589.5
 21
262.0
 31
0.0
  0
LINE
  5
7AB
  8
0
 10
589.5
 20
255.0
 30
0.0
 11
590.0
 21
255.5
 31
0.0
  0
LINE
  5
7AC
  8
0
 10
550.0
 20
261.5
 30
0.0
 11
550.0
 21
255.5
 31
0.0
  0
LINE
  5
7AD
  8
0
 10
590.0
 20
255.5
 30
0.0
 11
590.0
 21
261.5
 31
0.0
  0
LINE
  5
7AE
  8
0
 10
550.49999999999989
 20
255.0
 30
0.0
 11
589.5
 21
255.0
 31
0.0
  0
LINE
  5
7AF
  8
0
 10
589.5
 20
262.0
 30
0.0
 11
550.49999999999989
 21
262.0
 31
0.0
  0
LINE
  5
7B2
  8
0
 10
170.0
 20
142.5
 30
0.0
 11
150.0
 21
142.5
 31
0.0
  0
LINE
  5
7B3
  8
0
 10
152.5
 20
140.0
 30
0.0
 11
150.0
 21
142.5
 31
0.0
  0
LINE
  5
7B4
  8
0
 10
170.0
 20
142.5
 30
0.0
 11
167.5
 21
140.0
 31
0.0
  0
LINE
  5
7B5
  8
0
 10
169.999999
 20
151.499999
 30
0.0
 11
169.999999
 21
142.5
 31
0.0
  0
LINE
  5
7B6
  8
3
 10
168.64699999999991
 20
150.14699999999991
 30
0.0
 11
168.64699999999991
 21
141.14699999999999
 31
0.0
  0
LINE
  5
7B7
  8
3
 10
151.35300000000001
 20
150.14699999999999
 30
0.0
 11
151.35299999999989
 21
141.14699999999999
 31
0.0
  0
LINE
  5
7B8
  8
0
 10
149.999999
 20
151.5
 30
0.0
 11
149.999999
 21
142.5
 31
0.0
  0
LINE
  5
7B9
  8
0
 10
167.5
 20
140.0
 30
0.0
 11
152.5
 21
140.0
 31
0.0
  0
LINE
  5
7BB
  8
0
 10
177.5
 20
215.0
 30
0.0
 11
170.0
 21
215.0
 31
0.0
  0
LINE
  5
7BC
  8
0
 10
177.99999099999999
 20
229.71133
 30
0.0
 11
177.99999099999999
 21
215.28867
 31
0.0
  0
LINE
  5
7C0
  8
0
 10
177.5
 20
230.0
 30
0.0
 11
177.99999099999999
 21
229.71133
 31
0.0
  0
ARC
  5
7C1
  8
0
 10
173.21337500000001
 20
207.11253300000001
 30
0.0
 40
22.600175
 50
77.772403999997749
 51
98.174223472415349
  0
LINE
  5
7C3
  8
0
 10
177.5
 20
215.0
 30
0.0
 11
177.99999099999999
 21
215.28867
 31
0.0
  0
ARC
  5
7C4
  8
0
 10
173.21337500000001
 20
237.88746699999999
 30
0.0
 40
22.600175
 50
261.82577652758459
 51
282.22759600000228
  0
ARC
  5
7C9
  8
0
 10
146.7866239999999
 20
237.88746699999999
 30
0.0
 40
22.600175
 50
257.77240399999772
 51
278.17422603362837
  0
LINE
  5
7CA
  8
0
 10
142.5
 20
215.0
 30
0.0
 11
142.00000800000001
 21
215.28867
 31
0.0
  0
ARC
  5
7CC
  8
0
 10
146.7866239999999
 20
207.11253300000001
 30
0.0
 40
22.600175
 50
81.825773966371614
 51
102.22759600000219
  0
LINE
  5
7CD
  8
0
 10
142.5
 20
230.0
 30
0.0
 11
142.00000800000001
 21
229.71133
 31
0.0
  0
LINE
  5
7D0
  8
0
 10
142.00000800000001
 20
229.71133
 30
0.0
 11
142.00000800000001
 21
215.28867
 31
0.0
  0
LINE
  5
7D1
  8
0
 10
160.0
 20
287.872231
 30
0.0
 11
160.0
 21
267.000652
 31
0.0
  0
ARC
  5
7D2
  8
0
 10
144.59999999999999
 20
267.40065199999998
 30
0.0
 40
0.4
 50
270.0
 51
0.0
  0
LINE
  5
7D3
  8
0
 10
145.0
 20
288.70065199999999
 30
0.0
 11
145.0
 21
267.40065199999998
 31
0.0
  0
LINE
  5
7D4
  8
0
 10
174.19999999999999
 20
289.500652
 30
0.0
 11
145.80000000000001
 21
289.500652
 31
0.0
  0
LINE
  5
7D5
  8
0
 10
174.19999999999999
 20
289.500652
 30
0.0
 11
175.0
 21
288.70065199999999
 31
0.0
  0
LINE
  5
7D6
  8
0
 10
145.80000000000001
 20
289.500652
 30
0.0
 11
145.0
 21
288.70065199999999
 31
0.0
  0
ARC
  5
7D7
  8
0
 10
152.5
 20
271.41511000000003
 30
0.0
 40
18.085542
 50
65.499833000000706
 51
114.50016699999919
  0
ARC
  5
7D8
  8
0
 10
167.5
 20
271.41511000000003
 30
0.0
 40
18.085542
 50
65.499833000000706
 51
114.50016699999919
  0
ARC
  5
7D9
  8
0
 10
175.40001599999999
 20
267.40065199999998
 30
0.0
 40
0.4
 50
180.0
 51
270.0
  0
LINE
  5
7DA
  8
0
 10
175.00001599999999
 20
288.70065199999999
 30
0.0
 11
175.00001599999999
 21
267.40065199999998
 31
0.0
  0
ARC
  5
7DC
  8
0
 10
160.0
 20
297.84166800000003
 30
0.0
 40
40.0
 50
296.35745206649119
 51
300.00000000000051
  0
ARC
  5
7DD
  8
0
 10
160.0
 20
297.84166800000003
 30
0.0
 40
40.0
 50
239.99999999999949
 51
243.64254793350869
  0
LINE
  5
7DE
  8
0
 10
180.0
 20
263.20065199999999
 30
0.0
 11
140.0
 21
263.20065199999999
 31
0.0
  0
LINE
  5
7DF
  8
0
 10
179.5
 20
267.000652
 30
0.0
 11
140.5
 21
267.000652
 31
0.0
  0
LINE
  5
7E0
  8
0
 10
140.0
 20
266.500652
 30
0.0
 11
140.0
 21
263.20065199999999
 31
0.0
  0
LINE
  5
7E1
  8
0
 10
140.0
 20
266.500652
 30
0.0
 11
140.5
 21
267.000652
 31
0.0
  0
LINE
  5
7E2
  8
0
 10
180.0
 20
266.500652
 30
0.0
 11
179.5
 21
267.000652
 31
0.0
  0
LINE
  5
7E4
  8
0
 10
180.0
 20
266.500652
 30
0.0
 11
180.0
 21
263.20065199999999
 31
0.0
  0
LINE
  5
7EE
  8
0
 10
140.0
 20
261.5
 30
0.0
 11
140.5
 21
262.0
 31
0.0
  0
LINE
  5
7EF
  8
0
 10
140.5
 20
255.0
 30
0.0
 11
140.0
 21
255.5
 31
0.0
  0
LINE
  5
7F0
  8
0
 10
180.0
 20
261.5
 30
0.0
 11
179.5
 21
262.0
 31
0.0
  0
LINE
  5
7F1
  8
0
 10
179.5
 20
255.0
 30
0.0
 11
180.0
 21
255.5
 31
0.0
  0
LINE
  5
7F2
  8
0
 10
140.0
 20
261.5
 30
0.0
 11
140.0
 21
255.5
 31
0.0
  0
LINE
  5
7F3
  8
0
 10
180.0
 20
255.5
 30
0.0
 11
180.0
 21
261.5
 31
0.0
  0
LINE
  5
7F4
  8
0
 10
140.5
 20
255.0
 30
0.0
 11
179.5
 21
255.0
 31
0.0
  0
LINE
  5
7F5
  8
0
 10
179.5
 20
262.0
 30
0.0
 11
140.5
 21
262.0
 31
0.0
  0
LINE
  5
7F6
  8
0
 10
170.0
 20
230.0
 30
0.0
 11
170.0
 21
196.99998500000001
 31
0.0
  0
LINE
  5
7F7
  8
0
 10
150.0
 20
289.500652
 30
0.0
 11
150.0
 21
306.5
 31
0.0
  0
LINE
  5
7F8
  8
0
 10
150.0
 20
215.0
 30
0.0
 11
142.5
 21
215.0
 31
0.0
  0
TEXT
  5
89B
  8
0
 62
     3
 10
0.0
 20
0.0
 30
0.0
 40
10.0
  1
BJ153-20200A1
  7
STANDARD1
  0
ENDSEC
  0
EOF
