  0
SECTION
  2
HEADER
  9
$ACADVER
  1
AC1009
  9
$INSBASE
 10
82.638099999999994
 20
103.82319099999999
 30
0.0
  9
$EXTMIN
 10
0.0
 20
-2.960436562073669
 30
0.0
  9
$EXTMAX
 10
477.58205731434282
 20
335.30907476814019
 30
0.0
  9
$LIMMIN
 10
0.0
 20
0.0
  9
$LIMMAX
 10
750.0
 20
540.0
  9
$ORTHOMODE
 70
     1
  9
$REGENMODE
 70
     1
  9
$FILLMODE
 70
     1
  9
$QTEXTMODE
 70
     0
  9
$MIRRTEXT
 70
     0
  9
$DRAGMODE
 70
     2
  9
$LTSCALE
 40
20.0
  9
$OSMODE
 70
  3071
  9
$ATTMODE
 70
     1
  9
$TEXTSIZE
 40
0.06
  9
$TRACEWID
 40
0.05
  9
$TEXTSTYLE
  7
STANDARD
  9
$CLAYER
  8
0
  9
$CELTYPE
  6
BYLAYER
  9
$CECOLOR
 62
   256
  9
$DIMSCALE
 40
2.0
  9
$DIMASZ
 40
3.0
  9
$DIMEXO
 40
2.0
  9
$DIMDLI
 40
10.0
  9
$DIMRND
 40
0.0
  9
$DIMDLE
 40
0.0
  9
$DIMEXE
 40
2.0
  9
$DIMTP
 40
0.0
  9
$DIMTM
 40
0.0
  9
$DIMTXT
 40
3.0
  9
$DIMCEN
 40
0.0
  9
$DIMTSZ
 40
0.0
  9
$DIMTOL
 70
     0
  9
$DIMLIM
 70
     0
  9
$DIMTIH
 70
     0
  9
$DIMTOH
 70
     0
  9
$DIMSE1
 70
     0
  9
$DIMSE2
 70
     0
  9
$DIMTAD
 70
     1
  9
$DIMZIN
 70
     0
  9
$DIMBLK
  1

  9
$DIMASO
 70
     0
  9
$DIMSHO
 70
     0
  9
$DIMPOST
  1

  9
$DIMAPOST
  1

  9
$DIMALT
 70
     0
  9
$DIMALTD
 70
     2
  9
$DIMALTF
 40
25.399999999999999
  9
$DIMLFAC
 40
1.0
  9
$DIMTOFL
 70
     1
  9
$DIMTVP
 40
1.6000000000000001
  9
$DIMTIX
 70
     1
  9
$DIMSOXD
 70
     0
  9
$DIMSAH
 70
     0
  9
$DIMBLK1
  1

  9
$DIMBLK2
  1

  9
$DIMSTYLE
  2
STANDARD
  9
$DIMCLRD
 70
     0
  9
$DIMCLRE
 70
     0
  9
$DIMCLRT
 70
     0
  9
$DIMTFAC
 40
1.0
  9
$DIMGAP
 40
0.09
  9
$LUNITS
 70
     2
  9
$LUPREC
 70
     4
  9
$SKETCHINC
 40
0.1
  9
$FILLETRAD
 40
0.0
  9
$AUNITS
 70
     0
  9
$AUPREC
 70
     4
  9
$MENU
  1
E:\r13\win\SUPPORT\ACAD
  9
$ELEVATION
 40
0.0
  9
$PELEVATION
 40
0.0
  9
$THICKNESS
 40
0.0
  9
$LIMCHECK
 70
     0
  9
$BLIPMODE
 70
     0
  9
$CHAMFERA
 40
0.0
  9
$CHAMFERB
 40
0.0
  9
$SKPOLY
 70
     0
  9
$TDCREATE
 40
2449840.3477314808
  9
$TDUPDATE
 40
2456597.6400577198
  9
$TDINDWG
 40
0.016619294
  9
$TDUSRTIMER
 40
0.016619294
  9
$USRTIMER
 70
     1
  9
$ANGBASE
 50
0.0
  9
$ANGDIR
 70
     0
  9
$PDMODE
 70
     1
  9
$PDSIZE
 40
0.0
  9
$PLINEWID
 40
0.0
  9
$COORDS
 70
     1
  9
$SPLFRAME
 70
     0
  9
$SPLINETYPE
 70
     6
  9
$SPLINESEGS
 70
     8
  9
$ATTDIA
 70
     0
  9
$ATTREQ
 70
     1
  9
$HANDLING
 70
     1
  9
$HANDSEED
  5
5F3
  9
$SURFTAB1
 70
     6
  9
$SURFTAB2
 70
     6
  9
$SURFTYPE
 70
     6
  9
$SURFU
 70
     6
  9
$SURFV
 70
     6
  9
$UCSNAME
  2

  9
$UCSORG
 10
0.0
 20
0.0
 30
0.0
  9
$UCSXDIR
 10
1.0
 20
0.0
 30
0.0
  9
$UCSYDIR
 10
0.0
 20
1.0
 30
0.0
  9
$PUCSNAME
  2

  9
$PUCSORG
 10
0.0
 20
0.0
 30
0.0
  9
$PUCSXDIR
 10
1.0
 20
0.0
 30
0.0
  9
$PUCSYDIR
 10
0.0
 20
1.0
 30
0.0
  9
$USERI1
 70
     3
  9
$USERI2
 70
     1
  9
$USERI3
 70
     0
  9
$USERI4
 70
     0
  9
$USERI5
 70
     0
  9
$USERR1
 40
2.0
  9
$USERR2
 40
3.0
  9
$USERR3
 40
3.0
  9
$USERR4
 40
3.0
  9
$USERR5
 40
10.0
  9
$WORLDVIEW
 70
     1
  9
$SHADEDGE
 70
     3
  9
$SHADEDIF
 70
    70
  9
$TILEMODE
 70
     1
  9
$MAXACTVP
 70
    16
  9
$PLIMCHECK
 70
     0
  9
$PEXTMIN
 10
1.0000000000000000E+020
 20
1.0000000000000000E+020
 30
1.0000000000000000E+020
  9
$PEXTMAX
 10
-1.0000000000000000E+020
 20
-1.0000000000000000E+020
 30
-1.0000000000000000E+020
  9
$PLIMMIN
 10
0.0
 20
0.0
  9
$PLIMMAX
 10
12.0
 20
9.0
  9
$UNITMODE
 70
     0
  9
$VISRETAIN
 70
     0
  9
$PLINEGEN
 70
     0
  9
$PSLTSCALE
 70
     0
  0
ENDSEC
  0
SECTION
  2
TABLES
  0
TABLE
  2
VPORT
 70
     1
  0
VPORT
  2
*ACTIVE
 70
     0
 10
0.0
 20
0.0
 11
1.0
 21
1.0
 12
390.03402345615979
 22
268.50860658393782
 13
0.0
 23
0.0
 14
10.0
 24
10.0
 15
10.0
 25
10.0
 16
0.0
 26
0.0
 36
1.0
 17
0.0
 27
0.0
 37
0.0
 40
547.85258761088789
 41
1.831871345029239
 42
50.0
 43
0.0
 44
0.0
 50
0.0
 51
0.0
 71
     0
 72
   100
 73
     1
 74
     0
 75
     0
 76
     0
 77
     0
 78
     0
  0
ENDTAB
  0
TABLE
  2
LTYPE
 70
     4
  0
LTYPE
  2
CONTINUOUS
 70
     0
  3
Solid Line
 72
    65
 73
     0
 40
0.0
  0
LTYPE
  2
CENTER
 70
     0
  3
____ _ ____ _ ____ _ ____ _ ____ _ ____ _ ____
 72
    65
 73
     4
 40
2.0
 49
1.25
 49
-0.25
 49
0.25
 49
-0.25
  0
LTYPE
  2
HIDDEN
 70
     0
  3
__ __ __ __ __ __ __ __ __ __ __ __ __ __ __ __
 72
    65
 73
     2
 40
0.375
 49
0.25
 49
-0.125
  0
LTYPE
  2
PHANTOM2
 70
     0
  3
___ _ _ ___ _ _ ___ _ _ ___ _ _
 72
    65
 73
     6
 40
1.25
 49
0.625
 49
-0.125
 49
0.125
 49
-0.125
 49
0.125
 49
-0.125
  0
ENDTAB
  0
TABLE
  2
LAYER
 70
     4
  0
LAYER
  2
0
 70
     0
 62
     7
  6
CONTINUOUS
  0
LAYER
  2
1
 70
     0
 62
     1
  6
CENTER
  0
LAYER
  2
2
 70
     0
 62
     2
  6
HIDDEN
  0
LAYER
  2
3
 70
     0
 62
     3
  6
CONTINUOUS
  0
ENDTAB
  0
TABLE
  2
STYLE
 70
     2
  0
STYLE
  2
STANDARD
 70
     0
 40
0.0
 41
1.0
 50
0.0
 71
     0
 42
0.06
  3
TXT
  4
BIGFONT
  0
STYLE
  2
STANDARD1
 70
     0
 40
0.0
 41
1.0
 50
0.0
 71
     0
 42
3.0
  3
txt
  4

  0
ENDTAB
  0
TABLE
  2
VIEW
 70
     0
  0
ENDTAB
  0
TABLE
  2
UCS
 70
     0
  0
ENDTAB
  0
TABLE
  2
APPID
 70
     4
  0
APPID
  2
ACAD
 70
     0
  0
APPID
  2
ACAD_MLEADERVER
 70
     0
  0
APPID
  2
ACAD_EXEMPT_FROM_CAD_STANDARDS
 70
     0
  0
APPID
  2
ACAD_NAV_VCDISPLAY
 70
     0
  0
ENDTAB
  0
TABLE
  2
DIMSTYLE
 70
     1
  0
DIMSTYLE
  2
STANDARD
 70
     0
  3

  4

  5

  6

  7

 40
1.0
 41
0.18
 42
0.0625
 43
0.38
 44
0.18
 45
0.0
 46
0.0
 47
0.0
 48
0.0
140
0.18
141
0.09
142
0.0
143
25.399999999999999
144
1.0
145
0.0
146
1.0
147
0.09
 71
     0
 72
     0
 73
     1
 74
     1
 75
     0
 76
     0
 77
     0
 78
     0
170
     0
171
     2
172
     0
173
     0
174
     0
175
     0
176
     0
177
     0
178
     0
  0
ENDTAB
  0
ENDSEC
  0
SECTION
  2
BLOCKS
  0
BLOCK
  8
0
  2
$MODEL_SPACE
 70
     0
 10
0.0
 20
0.0
 30
0.0
  3
$MODEL_SPACE
  1

  0
ENDBLK
  5
20E
  8
0
  0
BLOCK
 67
     1
  8
0
  2
$PAPER_SPACE
 70
     0
 10
0.0
 20
0.0
 30
0.0
  3
$PAPER_SPACE
  1

  0
ENDBLK
  5
20C
 67
     1
  8
0
  0
BLOCK
  8
0
  2
STDGX5
 70
     0
 10
0.0
 20
0.0
 30
0.0
  3
STDGX5
  1

  0
ENDBLK
  5
3F
  8
0
  0
BLOCK
  8
0
  2
B153418C
 70
     0
 10
0.0
 20
0.0
 30
0.0
  3
B153418C
  1

  0
LINE
  5
4C
  8
0
 10
-25.0
 20
1.0
 30
0.0
 11
-25.0
 21
24.0
 31
0.0
  0
LINE
  5
4D
  8
0
 10
-24.0
 20
25.0
 30
0.0
 11
24.0
 21
25.0
 31
0.0
  0
LINE
  5
4E
  8
0
 10
25.0
 20
24.0
 30
0.0
 11
25.0
 21
1.0
 31
0.0
  0
LINE
  5
4F
  8
0
 10
24.0
 20
0.0
 30
0.0
 11
-24.0
 21
0.0
 31
0.0
  0
LINE
  5
50
  8
1
 10
0.0
 20
-5.0
 30
0.0
 11
0.0
 21
30.0
 31
0.0
  0
LINE
  5
51
  8
0
 10
0.0
 20
5.0
 30
0.0
 11
-10.5
 21
5.0
 31
0.0
  0
LINE
  5
52
  8
0
 10
-10.5
 20
5.0
 30
0.0
 11
-10.5
 21
0.0
 31
0.0
  0
LINE
  5
53
  8
0
 10
10.5
 20
5.0
 30
0.0
 11
10.5
 21
0.0
 31
0.0
  0
LINE
  5
54
  8
0
 10
-7.0
 20
5.0
 30
0.0
 11
10.604766
 21
5.0
 31
0.0
  0
LINE
  5
55
  8
0
 10
24.0
 20
25.0
 30
0.0
 11
25.0
 21
24.0
 31
0.0
  0
LINE
  5
56
  8
0
 10
-24.0
 20
25.0
 30
0.0
 11
-25.0
 21
24.0
 31
0.0
  0
LINE
  5
57
  8
0
 10
-25.0
 20
1.0
 30
0.0
 11
-24.0
 21
0.0
 31
0.0
  0
LINE
  5
58
  8
0
 10
24.0
 20
0.0
 30
0.0
 11
25.0
 21
1.0
 31
0.0
  0
ENDBLK
  5
59
  8
0
  0
BLOCK
  8
0
  2
B153418D
 70
     0
 10
0.0
 20
0.0
 30
0.0
  3
B153418D
  1

  0
LINE
  5
5B
  8
0
 10
18.0
 20
20.0
 30
0.0
 11
23.0
 21
25.0
 31
0.0
  0
LINE
  5
5C
  8
0
 10
-23.0
 20
25.0
 30
0.0
 11
-18.0
 21
20.0
 31
0.0
  0
LINE
  5
5D
  8
0
 10
18.0
 20
20.0
 30
0.0
 11
18.0
 21
0.0
 31
0.0
  0
LINE
  5
5E
  8
0
 10
-18.0
 20
20.0
 30
0.0
 11
-18.0
 21
0.0
 31
0.0
  0
LINE
  5
5F
  8
0
 10
-24.0
 20
25.0
 30
0.0
 11
-25.0
 21
24.0
 31
0.0
  0
LINE
  5
60
  8
0
 10
25.0
 20
24.0
 30
0.0
 11
24.0
 21
25.0
 31
0.0
  0
LINE
  5
61
  8
0
 10
24.0
 20
0.0
 30
0.0
 11
25.0
 21
1.0
 31
0.0
  0
LINE
  5
62
  8
0
 10
-24.0
 20
0.0
 30
0.0
 11
-25.0
 21
1.0
 31
0.0
  0
LINE
  5
63
  8
0
 10
18.0
 20
20.0
 30
0.0
 11
-18.0
 21
20.0
 31
0.0
  0
LINE
  5
64
  8
1
 10
0.0
 20
30.0
 30
0.0
 11
0.0
 21
-5.0
 31
0.0
  0
LINE
  5
65
  8
0
 10
-24.0
 20
25.0
 30
0.0
 11
24.0
 21
25.0
 31
0.0
  0
LINE
  5
66
  8
0
 10
-25.0
 20
1.0
 30
0.0
 11
-25.0
 21
24.0
 31
0.0
  0
LINE
  5
67
  8
0
 10
24.0
 20
0.0
 30
0.0
 11
-24.0
 21
0.0
 31
0.0
  0
LINE
  5
68
  8
0
 10
25.0
 20
24.0
 30
0.0
 11
25.0
 21
1.0
 31
0.0
  0
ENDBLK
  5
69
  8
0
  0
BLOCK
  8
0
  2
B740418A
 70
     0
 10
0.0
 20
0.0
 30
0.0
  3
B740418A
  1

  0
CIRCLE
  5
6B
  8
0
 10
0.0
 20
0.0
 30
0.0
 40
14.5
  0
CIRCLE
  5
6C
  8
0
 10
0.0
 20
0.0
 30
0.0
 40
20.0
  0
LINE
  5
6D
  8
1
 10
24.0
 20
0.0
 30
0.0
 11
-24.0
 21
0.0
 31
0.0
  0
LINE
  5
6E
  8
1
 10
0.0
 20
-24.0
 30
0.0
 11
0.0
 21
24.0
 31
0.0
  0
LINE
  5
6F
  8
0
 10
-8.1057079999999981
 20
-15.0
 30
0.0
 11
8.1057079999999981
 21
-15.0
 31
0.0
  0
ARC
  5
70
  8
0
 10
0.0
 20
0.0
 30
0.0
 40
17.050000000000001
 50
298.3859240000001
 51
301.6140759999999
  0
LINE
  5
71
  8
0
 10
-17.043234999999999
 20
-0.4802510000000001
 30
0.0
 11
-8.9375270000000011
 21
-14.519748999999999
 31
0.0
  0
ARC
  5
72
  8
0
 10
0.0
 20
0.0
 30
0.0
 40
17.050000000000001
 50
238.38592399999999
 51
241.61407600000001
  0
LINE
  5
73
  8
0
 10
-8.9375270000000011
 20
14.519748999999999
 30
0.0
 11
-17.043234999999999
 21
0.4802510000000001
 31
0.0
  0
ARC
  5
74
  8
0
 10
0.0
 20
0.0
 30
0.0
 40
17.050000000000001
 50
178.38592399999999
 51
181.61407600000001
  0
LINE
  5
75
  8
0
 10
8.1057079999999981
 20
15.0
 30
0.0
 11
-8.1057079999999981
 21
15.0
 31
0.0
  0
ARC
  5
76
  8
0
 10
0.0
 20
0.0
 30
0.0
 40
17.050000000000001
 50
118.385924
 51
121.614076
  0
LINE
  5
77
  8
0
 10
17.043234999999999
 20
0.4802510000000001
 30
0.0
 11
8.9375270000000011
 21
14.519748999999999
 31
0.0
  0
ARC
  5
78
  8
0
 10
0.0
 20
0.0
 30
0.0
 40
17.050000000000001
 50
58.385923999999989
 51
61.614075999999997
  0
ARC
  5
79
  8
0
 10
0.0
 20
0.0
 30
0.0
 40
17.050000000000001
 50
358.3859240000001
 51
1.6140760000000001
  0
LINE
  5
7A
  8
0
 10
8.9375270000000011
 20
-14.519748999999999
 30
0.0
 11
17.043234999999999
 21
-0.4802510000000001
 31
0.0
  0
CIRCLE
  5
7B
  8
3
 10
0.0
 20
0.0
 30
0.0
 40
10.0
  0
CIRCLE
  5
7C
  8
0
 10
0.0
 20
0.0
 30
0.0
 40
8.75
  0
ENDBLK
  5
7D
  8
0
  0
BLOCK
  8
0
  2
B739418B
 70
     0
 10
0.0
 20
0.0
 30
0.0
  3
B739418B
  1

  0
INSERT
  5
7F
  8
0
  2
742E01B2
 10
0.0
 20
0.0
 30
0.0
  0
INSERT
  5
80
  8
0
  2
B741418B
 10
0.0
 20
4.5006519999999988
 30
0.0
  0
ENDBLK
  5
81
  8
0
  0
BLOCK
  8
0
  2
742E01B2
 70
     0
 10
90.0
 20
70.0
 30
0.0
  3
742E01B2
  1

  0
LINE
  5
83
  8
1
 10
90.0
 20
82.0
 30
0.0
 11
90.0
 21
65.0
 31
0.0
  0
LINE
  5
84
  8
2
 10
78.5
 20
70.5
 30
0.0
 11
101.5
 21
70.5
 31
0.0
  0
LINE
  5
85
  8
2
 10
78.5
 20
74.452207999999999
 30
0.0
 11
101.5
 21
74.452207999999999
 31
0.0
  0
LINE
  5
86
  8
2
 10
78.5
 20
70.5
 30
0.0
 11
78.0
 21
70.0
 31
0.0
  0
LINE
  5
87
  8
2
 10
78.5
 20
74.452207999999999
 30
0.0
 11
78.5
 21
70.5
 31
0.0
  0
LINE
  5
88
  8
2
 10
71.5
 20
77.0
 30
0.0
 11
78.5
 21
74.452207999999999
 31
0.0
  0
LINE
  5
89
  8
2
 10
101.5
 20
70.5
 30
0.0
 11
102.0
 21
70.0
 31
0.0
  0
LINE
  5
8A
  8
2
 10
101.5
 20
74.452207999999999
 30
0.0
 11
101.5
 21
70.5
 31
0.0
  0
LINE
  5
8B
  8
2
 10
108.5
 20
77.0
 30
0.0
 11
101.5
 21
74.452207999999999
 31
0.0
  0
LINE
  5
8C
  8
0
 10
70.0
 20
76.5
 30
0.0
 11
70.5
 21
77.0
 31
0.0
  0
LINE
  5
8D
  8
0
 10
70.5
 20
70.0
 30
0.0
 11
70.0
 21
70.5
 31
0.0
  0
LINE
  5
8E
  8
0
 10
110.0
 20
76.5
 30
0.0
 11
109.5
 21
77.0
 31
0.0
  0
LINE
  5
8F
  8
0
 10
109.5
 20
70.0
 30
0.0
 11
110.0
 21
70.5
 31
0.0
  0
LINE
  5
90
  8
0
 10
70.0
 20
76.5
 30
0.0
 11
70.0
 21
70.5
 31
0.0
  0
LINE
  5
91
  8
0
 10
110.0
 20
70.5
 30
0.0
 11
110.0
 21
76.5
 31
0.0
  0
LINE
  5
92
  8
0
 10
70.5
 20
70.0
 30
0.0
 11
109.5
 21
70.0
 31
0.0
  0
LINE
  5
93
  8
0
 10
109.5
 20
77.0
 30
0.0
 11
70.5
 21
77.0
 31
0.0
  0
ENDBLK
  5
94
  8
0
  0
BLOCK
  8
0
  2
B741418B
 70
     0
 10
0.0
 20
0.0
 30
0.0
  3
B741418B
  1

  0
ARC
  5
96
  8
0
 10
12.7875
 20
23.09375
 30
0.0
 40
6.9063259999999991
 50
51.888938000000003
 51
128.111062
  0
LINE
  5
97
  8
0
 10
8.5250000000000004
 20
28.527757000000001
 30
0.0
 11
8.5250000000000004
 21
7.5
 31
0.0
  0
ARC
  5
98
  8
0
 10
0.0
 20
4.5819419999999988
 30
0.0
 40
25.418057999999998
 50
70.403655000000001
 51
90.0
  0
LINE
  5
99
  8
0
 10
-17.050000000000001
 20
28.527757000000001
 30
0.0
 11
-14.5
 21
30.0
 31
0.0
  0
LINE
  5
9A
  8
0
 10
17.050000000000001
 20
28.527757000000001
 30
0.0
 11
14.5
 21
30.0
 31
0.0
  0
ARC
  5
9B
  8
0
 10
-12.7875
 20
23.09375
 30
0.0
 40
6.9063259999999991
 50
51.888938000000003
 51
128.111062
  0
LINE
  5
9C
  8
0
 10
-14.5
 20
30.0
 30
0.0
 11
14.5
 21
30.0
 31
0.0
  0
ARC
  5
9D
  8
0
 10
0.0
 20
4.5819419999999988
 30
0.0
 40
25.418057999999998
 50
90.0
 51
109.596345
  0
LINE
  5
9E
  8
0
 10
17.050000000000001
 20
28.527757000000001
 30
0.0
 11
17.050000000000001
 21
7.9000000000000004
 31
0.0
  0
LINE
  5
9F
  8
0
 10
20.0
 20
7.0
 30
0.0
 11
20.0
 21
3.7000000000000002
 31
0.0
  0
LINE
  5
A0
  8
0
 10
11.400283999999999
 20
0.0
 30
0.0
 11
-11.400283999999999
 21
0.0
 31
0.0
  0
LINE
  5
A1
  8
0
 10
20.0
 20
7.0
 30
0.0
 11
19.5
 21
7.5
 31
0.0
  0
ARC
  5
A2
  8
0
 10
17.449999999999999
 20
7.9000000000000004
 30
0.0
 40
0.4
 50
180.0
 51
270.0
  0
ARC
  5
A3
  8
0
 10
-17.449999999999999
 20
7.9000000000000004
 30
0.0
 40
0.4
 50
270.0
 51
360.0
  0
LINE
  5
A4
  8
0
 10
-20.0
 20
7.0
 30
0.0
 11
-19.5
 21
7.5
 31
0.0
  0
LINE
  5
A5
  8
0
 10
-20.0
 20
7.0
 30
0.0
 11
-20.0
 21
3.7000000000000002
 31
0.0
  0
LINE
  5
A6
  8
0
 10
19.5
 20
7.5
 30
0.0
 11
-19.5
 21
7.5
 31
0.0
  0
LINE
  5
A7
  8
0
 10
-17.050000000000001
 20
28.527757000000001
 30
0.0
 11
-17.050000000000001
 21
7.9000000000000004
 31
0.0
  0
LINE
  5
A8
  8
0
 10
-8.5250000000000004
 20
28.527757000000001
 30
0.0
 11
-8.5250000000000004
 21
7.5
 31
0.0
  0
LINE
  5
A9
  8
1
 10
0.0
 20
40.0
 30
0.0
 11
0.0
 21
-10.0
 31
0.0
  0
LINE
  5
AA
  8
0
 10
20.0
 20
3.7000000000000002
 30
0.0
 11
-20.0
 21
3.7000000000000002
 31
0.0
  0
ARC
  5
AB
  8
0
 10
0.0
 20
38.341016000000003
 30
0.0
 40
40.0
 50
240.0
 51
253.44072700000001
  0
ARC
  5
AC
  8
0
 10
0.0
 20
38.341016000000003
 30
0.0
 40
40.0
 50
286.55927300000002
 51
300.0
  0
ENDBLK
  5
AD
  8
0
  0
BLOCK
  8
0
  2
B739418C
 70
     0
 10
0.0
 20
0.0
 30
0.0
  3
B739418C
  1

  0
INSERT
  5
AF
  8
0
  2
742E01B2
 10
0.0
 20
0.0
 30
0.0
  0
INSERT
  5
B0
  8
0
  2
B741418C
 10
0.0
 20
4.5006519999999988
 30
0.0
  0
ENDBLK
  5
B1
  8
0
  0
BLOCK
  8
0
  2
B741418C
 70
     0
 10
0.0
 20
0.0
 30
0.0
  3
B741418C
  1

  0
LINE
  5
B3
  8
0
 10
0.0
 20
28.371579000000001
 30
0.0
 11
0.0
 21
7.5
 31
0.0
  0
ARC
  5
B4
  8
0
 10
-15.4
 20
7.9000000000000004
 30
0.0
 40
0.4
 50
270.0
 51
360.0
  0
LINE
  5
B5
  8
0
 10
-15.0
 20
29.199999999999999
 30
0.0
 11
-15.0
 21
7.9000000000000004
 31
0.0
  0
LINE
  5
B6
  8
0
 10
14.199999999999999
 20
30.0
 30
0.0
 11
-14.199999999999999
 21
30.0
 31
0.0
  0
LINE
  5
B7
  8
0
 10
14.199999999999999
 20
30.0
 30
0.0
 11
15.0
 21
29.199999999999999
 31
0.0
  0
LINE
  5
B8
  8
0
 10
-14.199999999999999
 20
30.0
 30
0.0
 11
-15.0
 21
29.199999999999999
 31
0.0
  0
ARC
  5
B9
  8
0
 10
-7.5
 20
11.914458
 30
0.0
 40
18.085542
 50
65.499832999999995
 51
114.500167
  0
ARC
  5
BA
  8
0
 10
7.5
 20
11.914458
 30
0.0
 40
18.085542
 50
65.499832999999995
 51
114.500167
  0
ARC
  5
BB
  8
0
 10
15.400016000000001
 20
7.9000000000000004
 30
0.0
 40
0.4
 50
180.0
 51
270.0
  0
LINE
  5
BC
  8
0
 10
15.000016
 20
29.199999999999999
 30
0.0
 11
15.000016
 21
7.9000000000000004
 31
0.0
  0
LINE
  5
BD
  8
1
 10
0.0
 20
35.0
 30
0.0
 11
0.0
 21
-5.0
 31
0.0
  0
ARC
  5
BE
  8
0
 10
0.0
 20
38.341016000000003
 30
0.0
 40
40.0
 50
286.55927300000002
 51
300.0
  0
ARC
  5
BF
  8
0
 10
0.0
 20
38.341016000000003
 30
0.0
 40
40.0
 50
240.0
 51
253.44072700000001
  0
LINE
  5
C0
  8
0
 10
20.0
 20
3.7000000000000002
 30
0.0
 11
-20.0
 21
3.7000000000000002
 31
0.0
  0
LINE
  5
C1
  8
0
 10
19.5
 20
7.5
 30
0.0
 11
-19.5
 21
7.5
 31
0.0
  0
LINE
  5
C2
  8
0
 10
-20.0
 20
7.0
 30
0.0
 11
-20.0
 21
3.7000000000000002
 31
0.0
  0
LINE
  5
C3
  8
0
 10
-20.0
 20
7.0
 30
0.0
 11
-19.5
 21
7.5
 31
0.0
  0
LINE
  5
C4
  8
0
 10
20.0
 20
7.0
 30
0.0
 11
19.5
 21
7.5
 31
0.0
  0
LINE
  5
C5
  8
0
 10
11.400283999999999
 20
0.0
 30
0.0
 11
-11.400283999999999
 21
0.0
 31
0.0
  0
LINE
  5
C6
  8
0
 10
20.0
 20
7.0
 30
0.0
 11
20.0
 21
3.7000000000000002
 31
0.0
  0
ENDBLK
  5
C7
  8
0
  0
BLOCK
  8
0
  2
B746418B
 70
     0
 10
0.0
 20
0.0
 30
0.0
  3
B746418B
  1

  0
LINE
  5
C9
  8
0
 10
-19.0
 20
0.0
 30
0.0
 11
19.0
 21
0.0
 31
0.0
  0
LINE
  5
CA
  8
0
 10
20.0
 20
1.0
 30
0.0
 11
20.0
 21
8.0
 31
0.0
  0
LINE
  5
CB
  8
0
 10
19.0
 20
9.0
 30
0.0
 11
-19.0
 21
9.0
 31
0.0
  0
LINE
  5
CC
  8
0
 10
-20.0
 20
8.0
 30
0.0
 11
-20.0
 21
1.0
 31
0.0
  0
LINE
  5
CD
  8
0
 10
19.0
 20
0.0
 30
0.0
 11
20.0
 21
1.0
 31
0.0
  0
LINE
  5
CE
  8
0
 10
20.0
 20
8.0
 30
0.0
 11
19.0
 21
9.0
 31
0.0
  0
LINE
  5
CF
  8
0
 10
-19.0
 20
9.0
 30
0.0
 11
-20.0
 21
8.0
 31
0.0
  0
LINE
  5
D0
  8
0
 10
-20.0
 20
1.0
 30
0.0
 11
-19.0
 21
0.0
 31
0.0
  0
LINE
  5
D1
  8
0
 10
-14.0
 20
12.0
 30
0.0
 11
-14.0
 21
15.0
 31
0.0
  0
LINE
  5
D2
  8
0
 10
-13.0
 20
16.0
 30
0.0
 11
13.0
 21
16.0
 31
0.0
  0
LINE
  5
D3
  8
0
 10
14.0
 20
15.0
 30
0.0
 11
14.0
 21
12.0
 31
0.0
  0
ARC
  5
D4
  8
0
 10
17.0
 20
12.0
 30
0.0
 40
3.0
 50
180.0
 51
270.0
  0
ARC
  5
D5
  8
0
 10
-17.0
 20
12.0
 30
0.0
 40
3.0
 50
270.0
 51
360.0
  0
LINE
  5
D6
  8
0
 10
14.0
 20
15.0
 30
0.0
 11
13.0
 21
16.0
 31
0.0
  0
LINE
  5
D7
  8
0
 10
-13.0
 20
16.0
 30
0.0
 11
-14.0
 21
15.0
 31
0.0
  0
LINE
  5
D8
  8
0
 10
7.1835269999999998
 20
17.772561
 30
0.0
 11
9.9835270000000005
 21
19.389142
 31
0.0
  0
LINE
  5
D9
  8
0
 10
-7.2164729999999988
 20
17.772561
 30
0.0
 11
7.1835269999999998
 21
17.772561
 31
0.0
  0
LINE
  5
DA
  8
0
 10
-10.016473
 20
19.389142
 30
0.0
 11
-7.2164729999999988
 21
17.772561
 31
0.0
  0
LINE
  5
DB
  8
0
 10
-10.016473
 20
19.389142
 30
0.0
 11
-10.016473
 21
102.90000000000001
 31
0.0
  0
LINE
  5
DC
  8
0
 10
9.9835270000000005
 20
19.389142
 30
0.0
 11
9.9835270000000005
 21
102.90000000000001
 31
0.0
  0
LINE
  5
DD
  8
0
 10
-10.016473
 20
19.389142
 30
0.0
 11
9.9835270000000005
 21
19.389142
 31
0.0
  0
LINE
  5
DE
  8
0
 10
7.1835269999999998
 20
16.0
 30
0.0
 11
7.1835269999999998
 21
17.772561
 31
0.0
  0
LINE
  5
DF
  8
0
 10
-7.2164729999999988
 20
16.0
 30
0.0
 11
-7.2164729999999988
 21
17.772561
 31
0.0
  0
LINE
  5
E0
  8
0
 10
7.4835269999999996
 20
105.40000000000001
 30
0.0
 11
-7.5164729999999986
 21
105.40000000000001
 31
0.0
  0
LINE
  5
E1
  8
0
 10
-10.016473
 20
102.90000000000001
 30
0.0
 11
-7.5164729999999986
 21
105.40000000000001
 31
0.0
  0
LINE
  5
E2
  8
0
 10
7.4835269999999996
 20
105.40000000000001
 30
0.0
 11
9.9835270000000005
 21
102.90000000000001
 31
0.0
  0
LINE
  5
E3
  8
0
 10
9.9835270000000005
 20
102.90000000000001
 30
0.0
 11
-10.016473
 21
102.90000000000001
 31
0.0
  0
LINE
  5
E4
  8
3
 10
-8.7664729999999995
 20
104.15000000000001
 30
0.0
 11
-8.7664729999999995
 21
18.667453999999999
 31
0.0
  0
LINE
  5
E5
  8
3
 10
8.7664729999999995
 20
104.15000000000001
 30
0.0
 11
8.7664729999999995
 21
18.686475000000002
 31
0.0
  0
LINE
  5
E6
  8
1
 10
0.0
 20
110.7153
 30
0.0
 11
0.0
 21
-6.3497579999999996
 31
0.0
  0
ENDBLK
  5
E7
  8
0
  0
BLOCK
  8
0
  2
B745548B
 70
     0
 10
0.0
 20
0.0
 30
0.0
  3
B745548B
  1

  0
LINE
  5
E9
  8
1
 10
0.0
 20
169.99952200000001
 30
0.0
 11
0.0
 21
-9.9998939999999994
 31
0.0
  0
LINE
  5
EA
  8
0
 10
7.5
 20
0.0
 30
0.0
 11
-7.5
 21
0.0
 31
0.0
  0
LINE
  5
EB
  8
0
 10
-10.0
 20
2.5
 30
0.0
 11
-10.0
 21
157.5
 31
0.0
  0
LINE
  5
EC
  8
0
 10
-7.5
 20
160.0
 30
0.0
 11
7.5
 21
160.0
 31
0.0
  0
LINE
  5
ED
  8
0
 10
10.0
 20
157.5
 30
0.0
 11
10.0
 21
2.5
 31
0.0
  0
LINE
  5
EE
  8
0
 10
-7.5
 20
0.0
 30
0.0
 11
-10.0
 21
2.5
 31
0.0
  0
LINE
  5
EF
  8
0
 10
7.5
 20
0.0
 30
0.0
 11
10.0
 21
2.5
 31
0.0
  0
LINE
  5
F0
  8
0
 10
-10.0
 20
2.5
 30
0.0
 11
10.0
 21
2.5
 31
0.0
  0
LINE
  5
F1
  8
3
 10
-8.75
 20
1.25
 30
0.0
 11
-8.75
 21
50.0
 31
0.0
  0
LINE
  5
F2
  8
3
 10
-8.75
 20
50.0
 30
0.0
 11
-10.0
 21
52.165064000000001
 31
0.0
  0
LINE
  5
F3
  8
0
 10
-10.0
 20
50.0
 30
0.0
 11
10.0
 21
50.0
 31
0.0
  0
LINE
  5
F4
  8
0
 10
-10.0
 20
157.5
 30
0.0
 11
-7.5
 21
160.0
 31
0.0
  0
LINE
  5
F5
  8
0
 10
7.5
 20
160.0
 30
0.0
 11
10.0
 21
157.5
 31
0.0
  0
LINE
  5
F6
  8
3
 10
8.75
 20
1.25
 30
0.0
 11
8.75
 21
50.0
 31
0.0
  0
LINE
  5
F7
  8
3
 10
8.75
 20
50.0
 30
0.0
 11
10.0
 21
52.165064000000001
 31
0.0
  0
LINE
  5
F8
  8
3
 10
8.75
 20
110.0
 30
0.0
 11
10.0
 21
107.834936
 31
0.0
  0
LINE
  5
F9
  8
3
 10
8.75
 20
158.75
 30
0.0
 11
8.75
 21
110.0
 31
0.0
  0
LINE
  5
FA
  8
0
 10
-10.0
 20
110.0
 30
0.0
 11
10.0
 21
110.0
 31
0.0
  0
LINE
  5
FB
  8
3
 10
-8.75
 20
158.75
 30
0.0
 11
-8.75
 21
110.0
 31
0.0
  0
LINE
  5
FC
  8
3
 10
-8.75
 20
110.0
 30
0.0
 11
-10.0
 21
107.834936
 31
0.0
  0
LINE
  5
FD
  8
0
 10
-10.0
 20
157.5
 30
0.0
 11
10.0
 21
157.5
 31
0.0
  0
ENDBLK
  5
FE
  8
0
  0
BLOCK
  8
0
  2
NM20B
 70
     0
 10
0.0
 20
0.0
 30
0.0
  3
NM20B
  1

  0
LINE
  5
100
  8
0
 10
-12.0
 20
-14.5
 30
0.0
 11
-10.371579000000001
 21
-17.320508
 31
0.0
  0
ARC
  5
101
  8
0
 10
-4.043857
 20
-12.990380999999999
 30
0.0
 40
7.6674679999999986
 50
145.61575300000001
 51
205.61575300000001
  0
ARC
  5
102
  8
0
 10
-4.043857
 20
-12.990380999999999
 30
0.0
 40
7.6674679999999986
 50
214.38424699999999
 51
214.38424699999999
  0
ARC
  5
103
  8
0
 10
16.948929
 20
0.0
 30
0.0
 40
28.660253999999998
 50
162.412046
 51
197.587954
  0
ARC
  5
104
  8
0
 10
-7.9561429999999991
 20
-12.990380999999999
 30
0.0
 40
7.6674679999999986
 50
325.61575299999998
 51
325.61575299999998
  0
ARC
  5
105
  8
0
 10
-7.9561429999999991
 20
-12.990380999999999
 30
0.0
 40
7.6674679999999986
 50
334.38424700000002
 51
34.384247000000002
  0
LINE
  5
106
  8
0
 10
0.0
 20
-14.5
 30
0.0
 11
-1.628420999999999
 21
-17.320508
 31
0.0
  0
LINE
  5
107
  8
0
 10
-10.371579000000001
 20
-17.320508
 30
0.0
 11
-1.628420999999999
 21
-17.320508
 31
0.0
  0
LINE
  5
108
  8
0
 10
-1.628420999999999
 20
-8.6602540000000001
 30
0.0
 11
-10.371579000000001
 21
-8.6602540000000001
 31
0.0
  0
ARC
  5
109
  8
0
 10
-28.948929
 20
0.0
 30
0.0
 40
28.660253999999998
 50
342.41204599999998
 51
17.587954
  0
LINE
  5
10A
  8
0
 10
-1.628420999999999
 20
8.6602540000000001
 30
0.0
 11
-10.371579000000001
 21
8.6602540000000001
 31
0.0
  0
LINE
  5
10B
  8
0
 10
-10.371579000000001
 20
17.320508
 30
0.0
 11
-1.628420999999999
 21
17.320508
 31
0.0
  0
LINE
  5
10C
  8
0
 10
0.0
 20
14.5
 30
0.0
 11
-1.628420999999999
 21
17.320508
 31
0.0
  0
ARC
  5
10D
  8
0
 10
-7.9561429999999991
 20
12.990380999999999
 30
0.0
 40
7.6674679999999986
 50
325.61575299999998
 51
25.615753000000002
  0
ARC
  5
10E
  8
0
 10
-7.9561429999999991
 20
12.990380999999999
 30
0.0
 40
7.6674679999999986
 50
34.384247000000002
 51
34.384247000000002
  0
ARC
  5
10F
  8
0
 10
-4.043857
 20
12.990380999999999
 30
0.0
 40
7.6674679999999986
 50
145.61575300000001
 51
145.61575300000001
  0
ARC
  5
110
  8
0
 10
-4.043857
 20
12.990380999999999
 30
0.0
 40
7.6674679999999986
 50
154.38424699999999
 51
214.38424699999999
  0
LINE
  5
111
  8
0
 10
-12.0
 20
14.5
 30
0.0
 11
-10.371579000000001
 21
17.320508
 31
0.0
  0
LINE
  5
112
  8
0
 10
-12.0
 20
-14.5
 30
0.0
 11
-12.0
 21
14.5
 31
0.0
  0
LINE
  5
113
  8
0
 10
0.0
 20
14.5
 30
0.0
 11
0.0
 21
-14.5
 31
0.0
  0
ENDBLK
  5
114
  8
0
  0
BLOCK
  8
0
  2
B746418A
 70
     0
 10
0.0
 20
0.0
 30
0.0
  3
B746418A
  1

  0
LINE
  5
116
  8
0
 10
-2.886750999999999
 20
-5.0
 30
0.0
 11
2.886750999999999
 21
-5.0
 31
0.0
  0
LINE
  5
117
  8
0
 10
2.886750999999999
 20
-5.0
 30
0.0
 11
5.7735029999999989
 21
0.0
 31
0.0
  0
LINE
  5
118
  8
0
 10
5.7735029999999989
 20
0.0
 30
0.0
 11
2.886750999999999
 21
5.0
 31
0.0
  0
LINE
  5
119
  8
0
 10
2.886750999999999
 20
5.0
 30
0.0
 11
-2.886750999999999
 21
5.0
 31
0.0
  0
LINE
  5
11A
  8
0
 10
-2.886750999999999
 20
5.0
 30
0.0
 11
-5.7735029999999989
 21
0.0
 31
0.0
  0
LINE
  5
11B
  8
0
 10
-5.7735029999999989
 20
0.0
 30
0.0
 11
-2.886750999999999
 21
-5.0
 31
0.0
  0
CIRCLE
  5
11C
  8
3
 10
0.0
 20
0.0
 30
0.0
 40
9.1879999999999988
  0
CIRCLE
  5
11D
  8
0
 10
0.0
 20
0.0
 30
0.0
 40
10.0
  0
LINE
  5
11E
  8
1
 10
0.0
 20
25.0
 30
0.0
 11
0.0
 21
-25.0
 31
0.0
  0
LINE
  5
11F
  8
1
 10
25.0
 20
0.0
 30
0.0
 11
-25.0
 21
0.0
 31
0.0
  0
CIRCLE
  5
120
  8
0
 10
0.0
 20
0.0
 30
0.0
 40
14.0
  0
CIRCLE
  5
121
  8
0
 10
0.0
 20
0.0
 30
0.0
 40
20.0
  0
ENDBLK
  5
122
  8
0
  0
BLOCK
  8
0
  2
NM20C
 70
     0
 10
0.0
 20
0.0
 30
0.0
  3
NM20C
  1

  0
LINE
  5
124
  8
0
 10
0.0
 20
10.371579000000001
 30
0.0
 11
0.0
 21
1.628420999999999
 31
0.0
  0
LINE
  5
125
  8
0
 10
14.5
 20
0.0
 30
0.0
 11
-14.5
 21
0.0
 31
0.0
  0
LINE
  5
126
  8
0
 10
-14.5
 20
12.0
 30
0.0
 11
14.5
 21
12.0
 31
0.0
  0
ARC
  5
127
  8
0
 10
-7.5
 20
-9.9513339999999992
 30
0.0
 40
21.662659000000001
 50
69.743842000000001
 51
110.256158
  0
LINE
  5
128
  8
0
 10
-14.5
 20
12.0
 30
0.0
 11
-15.0
 21
11.711325
 31
0.0
  0
LINE
  5
129
  8
0
 10
-14.5
 20
0.0
 30
0.0
 11
-15.0
 21
0.288675
 31
0.0
  0
ARC
  5
12A
  8
0
 10
-7.5
 20
21.951333999999999
 30
0.0
 40
21.662659000000001
 50
249.743842
 51
290.25615800000003
  0
LINE
  5
12B
  8
0
 10
-15.0
 20
11.711325
 30
0.0
 11
-15.0
 21
0.288675
 31
0.0
  0
LINE
  5
12C
  8
0
 10
15.0
 20
11.711325
 30
0.0
 11
15.0
 21
0.288675
 31
0.0
  0
ARC
  5
12D
  8
0
 10
7.5
 20
21.951333999999999
 30
0.0
 40
21.662659000000001
 50
249.743842
 51
290.25615800000003
  0
LINE
  5
12E
  8
0
 10
14.5
 20
0.0
 30
0.0
 11
15.0
 21
0.288675
 31
0.0
  0
LINE
  5
12F
  8
0
 10
14.5
 20
12.0
 30
0.0
 11
15.0
 21
11.711325
 31
0.0
  0
ARC
  5
130
  8
0
 10
7.5
 20
-9.9513339999999992
 30
0.0
 40
21.662659000000001
 50
69.743842000000001
 51
110.256158
  0
ENDBLK
  5
131
  8
0
  0
BLOCK
  8
0
  2
B153428A
 70
     0
 10
0.0
 20
0.0
 30
0.0
  3
B153428A
  1

  0
LINE
  5
133
  8
0
 10
86.0
 20
-25.0
 30
0.0
 11
-99.875643999999994
 21
-25.0
 31
0.0
  0
LINE
  5
134
  8
0
 10
-112.0
 20
-18.0
 30
0.0
 11
-112.0
 21
18.0
 31
0.0
  0
LINE
  5
135
  8
0
 10
-99.875643999999994
 20
25.0
 30
0.0
 11
86.0
 21
25.0
 31
0.0
  0
LINE
  5
136
  8
0
 10
88.0
 20
23.0
 30
0.0
 11
88.0
 21
-23.0
 31
0.0
  0
LINE
  5
137
  8
0
 10
-112.0
 20
-18.0
 30
0.0
 11
-99.875643999999994
 21
-25.0
 31
0.0
  0
LINE
  5
138
  8
1
 10
72.0
 20
-19.72522
 30
0.0
 11
72.0
 21
20.285371999999999
 31
0.0
  0
LINE
  5
139
  8
1
 10
0.0
 20
-19.72522
 30
0.0
 11
0.0
 21
20.285371999999999
 31
0.0
  0
LINE
  5
13A
  8
1
 10
-80.0
 20
-19.72522
 30
0.0
 11
-80.0
 21
20.285371999999999
 31
0.0
  0
LINE
  5
13B
  8
1
 10
98.0
 20
0.0
 30
0.0
 11
-122.0
 21
0.0
 31
0.0
  0
ARC
  5
13C
  8
0
 10
0.0
 20
0.0
 30
0.0
 40
10.5
 50
270.0
 51
90.0
  0
ARC
  5
13D
  8
0
 10
-80.0
 20
0.0
 30
0.0
 40
10.5
 50
90.0
 51
270.0
  0
CIRCLE
  5
13E
  8
3
 10
72.064416000000008
 20
0.00005
 30
0.0
 40
10.0
  0
LINE
  5
13F
  8
0
 10
0.0
 20
-10.5
 30
0.0
 11
-80.0
 21
-10.5
 31
0.0
  0
LINE
  5
140
  8
0
 10
0.0
 20
10.5
 30
0.0
 11
-80.0
 21
10.5
 31
0.0
  0
LINE
  5
141
  8
0
 10
-112.0
 20
18.0
 30
0.0
 11
-99.875643999999994
 21
25.0
 31
0.0
  0
LINE
  5
142
  8
2
 10
0.0
 20
-10.5
 30
0.0
 11
88.0
 21
-10.5
 31
0.0
  0
LINE
  5
143
  8
2
 10
0.0
 20
10.5
 30
0.0
 11
88.0
 21
10.5
 31
0.0
  0
LINE
  5
144
  8
0
 10
88.0
 20
-23.0
 30
0.0
 11
86.0
 21
-25.0
 31
0.0
  0
LINE
  5
145
  8
0
 10
88.0
 20
23.0
 30
0.0
 11
86.0
 21
25.0
 31
0.0
  0
LINE
  5
146
  8
0
 10
-103.807146
 20
22.730146000000001
 30
0.0
 11
-103.807146
 21
-22.730146000000001
 31
0.0
  0
CIRCLE
  5
147
  8
0
 10
72.0
 20
0.0
 30
0.0
 40
8.6470000000000002
  0
ENDBLK
  5
148
  8
0
  0
BLOCK
  8
0
  2
B153428B
 70
     0
 10
0.0
 20
0.0
 30
0.0
  3
B153428B
  1

  0
LINE
  5
14A
  8
0
 10
87.0
 20
0.0
 30
0.0
 11
-111.0
 21
0.0
 31
0.0
  0
LINE
  5
14B
  8
0
 10
-112.0
 20
1.0
 30
0.0
 11
-112.0
 21
20.0
 31
0.0
  0
LINE
  5
14C
  8
0
 10
-103.33974600000001
 20
25.0
 30
0.0
 11
87.0
 21
25.0
 31
0.0
  0
LINE
  5
14D
  8
0
 10
88.0
 20
24.0
 30
0.0
 11
88.0
 21
1.0
 31
0.0
  0
LINE
  5
14E
  8
2
 10
88.0
 20
5.0
 30
0.0
 11
0.0
 21
5.0
 31
0.0
  0
LINE
  5
14F
  8
0
 10
-112.0
 20
20.0
 30
0.0
 11
-103.33974600000001
 21
25.0
 31
0.0
  0
LINE
  5
150
  8
1
 10
72.0
 20
-5.0
 30
0.0
 11
72.0
 21
29.882894
 31
0.0
  0
LINE
  5
151
  8
1
 10
0.0
 20
-5.0
 30
0.0
 11
0.0
 21
30.018785000000001
 31
0.0
  0
LINE
  5
152
  8
1
 10
-80.0
 20
-5.0
 30
0.0
 11
-80.0
 21
30.018785000000001
 31
0.0
  0
LINE
  5
153
  8
2
 10
-88.499999999999986
 20
0.0
 30
0.0
 11
-88.499999999999986
 21
25.0
 31
0.0
  0
LINE
  5
154
  8
2
 10
8.5
 20
5.0
 30
0.0
 11
8.5
 21
25.0
 31
0.0
  0
LINE
  5
155
  8
2
 10
62.0
 20
5.0
 30
0.0
 11
62.0
 21
25.0
 31
0.0
  0
LINE
  5
156
  8
2
 10
63.353000000000002
 20
5.0
 30
0.0
 11
63.353000000000002
 21
25.0
 31
0.0
  0
LINE
  5
157
  8
2
 10
80.647000000000006
 20
5.0
 30
0.0
 11
80.647000000000006
 21
25.0
 31
0.0
  0
LINE
  5
158
  8
2
 10
82.0
 20
5.0
 30
0.0
 11
82.0
 21
25.0
 31
0.0
  0
LINE
  5
159
  8
0
 10
87.0
 20
25.0
 30
0.0
 11
88.0
 21
24.0
 31
0.0
  0
LINE
  5
15A
  8
0
 10
88.0
 20
1.0
 30
0.0
 11
87.0
 21
0.0
 31
0.0
  0
LINE
  5
15B
  8
0
 10
-111.0
 20
0.0
 30
0.0
 11
-112.0
 21
1.0
 31
0.0
  0
LINE
  5
15C
  8
0
 10
-100.49601699999999
 20
24.0
 30
0.0
 11
-100.49601699999999
 21
1.0
 31
0.0
  0
ENDBLK
  5
15D
  8
0
  0
BLOCK
  8
0
  2
153BE04A1
 70
     0
 10
0.0
 20
0.0
 30
0.0
  3
153BE04A1
  1

  0
INSERT
  5
15F
  8
0
  2
B153428A
 10
0.0
 20
0.0
 30
0.0
  0
INSERT
  5
160
  8
2
  2
B746418A
 10
72.0
 20
0.0
 30
0.0
  0
ENDBLK
  5
161
  8
0
  0
BLOCK
  8
0
  2
153BE04C1
 70
     0
 10
0.0
 20
0.0
 30
0.0
  3
153BE04C1
  1

  0
INSERT
  5
163
  8
0
  2
B153418C
 10
0.0
 20
0.0
 30
0.0
  0
INSERT
  5
164
  8
0
  2
B739418C
 10
0.0
 20
25.0
 30
0.0
  0
ENDBLK
  5
165
  8
0
  0
BLOCK
  8
0
  2
153BE04D1
 70
     0
 10
0.0
 20
0.0
 30
0.0
  3
153BE04D1
  1

  0
INSERT
  5
167
  8
0
  2
B153418D
 10
0.0
 20
0.0
 30
0.0
  0
INSERT
  5
168
  8
0
  2
B739418C
 10
0.0
 20
25.0
 30
0.0
  0
ENDBLK
  5
169
  8
0
  0
ENDSEC
  0
SECTION
  2
ENTITIES
  0
INSERT
  5
16A
  8
0
  2
STDGX5
 10
0.0
 20
0.0
 30
0.0
  0
INSERT
  5
174
  8
0
  2
STDGX5
 10
0.0
 20
0.0
 30
0.0
  0
INSERT
  5
175
  8
0
  2
STDGX5
 10
0.0
 20
0.0
 30
0.0
  0
INSERT
  5
176
  8
0
  2
STDGX5
 10
0.0
 20
0.0
 30
0.0
  0
INSERT
  5
177
  8
0
  2
STDGX5
 10
0.0
 20
0.0
 30
0.0
  0
INSERT
  5
178
  8
0
  2
STDGX5
 10
0.0
 20
0.0
 30
0.0
  0
INSERT
  5
179
  8
0
  2
STDGX5
 10
0.0
 20
0.0
 30
0.0
  0
INSERT
  5
17A
  8
0
  2
STDGX5
 10
0.0
 20
0.0
 30
0.0
  0
LINE
  5
27C
  8
0
 10
349.58205731434282
 20
152.0136854382344
 30
0.0
 11
151.58205731434279
 21
152.0136854382344
 31
0.0
  0
LINE
  5
27D
  8
0
 10
150.58205731434279
 20
153.0136854382344
 30
0.0
 11
150.58205731434279
 21
172.0136854382344
 31
0.0
  0
LINE
  5
27E
  8
0
 10
159.2423113143428
 20
177.0136854382344
 30
0.0
 11
349.58205731434282
 21
177.0136854382344
 31
0.0
  0
LINE
  5
27F
  8
0
 10
350.58205731434282
 20
176.0136854382344
 30
0.0
 11
350.58205731434282
 21
153.0136854382344
 31
0.0
  0
LINE
  5
280
  8
2
 10
350.58205731434282
 20
157.0136854382344
 30
0.0
 11
262.58205731434282
 21
157.0136854382344
 31
0.0
  0
LINE
  5
281
  8
0
 10
150.58205731434279
 20
172.0136854382344
 30
0.0
 11
159.2423113143428
 21
177.0136854382344
 31
0.0
  0
LINE
  5
284
  8
1
 10
182.58205731434279
 20
147.0136854382344
 30
0.0
 11
182.58205731434279
 21
182.03247043823441
 31
0.0
  0
LINE
  5
285
  8
2
 10
174.08205731434279
 20
152.0136854382344
 30
0.0
 11
174.08205731434279
 21
177.0136854382344
 31
0.0
  0
LINE
  5
286
  8
2
 10
271.08205731434282
 20
157.0136854382344
 30
0.0
 11
271.08205731434282
 21
177.0136854382344
 31
0.0
  0
LINE
  5
287
  8
2
 10
324.58205731434282
 20
157.0136854382344
 30
0.0
 11
324.58205731434282
 21
177.0136854382344
 31
0.0
  0
LINE
  5
288
  8
2
 10
325.93505731434283
 20
157.0136854382344
 30
0.0
 11
325.93505731434283
 21
177.0136854382344
 31
0.0
  0
LINE
  5
289
  8
2
 10
343.22905731434281
 20
157.0136854382344
 30
0.0
 11
343.22905731434281
 21
177.0136854382344
 31
0.0
  0
LINE
  5
28A
  8
2
 10
344.58205731434282
 20
157.0136854382344
 30
0.0
 11
344.58205731434282
 21
177.0136854382344
 31
0.0
  0
LINE
  5
28B
  8
0
 10
349.58205731434282
 20
177.0136854382344
 30
0.0
 11
350.58205731434282
 21
176.0136854382344
 31
0.0
  0
LINE
  5
28C
  8
0
 10
350.58205731434282
 20
153.0136854382344
 30
0.0
 11
349.58205731434282
 21
152.0136854382344
 31
0.0
  0
LINE
  5
28D
  8
0
 10
151.58205731434279
 20
152.0136854382344
 30
0.0
 11
150.58205731434279
 21
153.0136854382344
 31
0.0
  0
LINE
  5
28E
  8
0
 10
162.0860403143428
 20
176.0136854382344
 30
0.0
 11
162.0860403143428
 21
153.0136854382344
 31
0.0
  0
LINE
  5
28F
  8
0
 10
62.582057314342819
 20
112.3852644382344
 30
0.0
 11
62.582057314342819
 21
103.64210643823441
 31
0.0
  0
LINE
  5
290
  8
0
 10
77.082057314342819
 20
102.0136854382344
 30
0.0
 11
48.082057314342819
 21
102.0136854382344
 31
0.0
  0
LINE
  5
291
  8
0
 10
48.082057314342819
 20
114.0136854382344
 30
0.0
 11
77.082057314342819
 21
114.0136854382344
 31
0.0
  0
ARC
  5
292
  8
0
 10
55.082057314342819
 20
92.062351438234458
 30
0.0
 40
21.662659000000001
 50
69.743841999999773
 51
110.2561580000002
  0
LINE
  5
293
  8
0
 10
48.082057314342819
 20
114.0136854382344
 30
0.0
 11
47.582057314342819
 21
113.72501043823441
 31
0.0
  0
LINE
  5
294
  8
0
 10
48.082057314342819
 20
102.0136854382344
 30
0.0
 11
47.582057314342819
 21
102.3023604382345
 31
0.0
  0
ARC
  5
295
  8
0
 10
55.082057314342819
 20
123.96501943823441
 30
0.0
 40
21.662659000000001
 50
249.7438419999998
 51
290.2561580000002
  0
LINE
  5
296
  8
0
 10
47.582057314342819
 20
113.72501043823441
 30
0.0
 11
47.582057314342819
 21
102.3023604382345
 31
0.0
  0
LINE
  5
297
  8
0
 10
77.582057314342819
 20
113.72501043823441
 30
0.0
 11
77.582057314342819
 21
102.3023604382345
 31
0.0
  0
ARC
  5
298
  8
0
 10
70.082057314342819
 20
123.96501943823441
 30
0.0
 40
21.662659000000001
 50
249.7438419999998
 51
290.2561580000002
  0
LINE
  5
299
  8
0
 10
77.082057314342819
 20
102.0136854382344
 30
0.0
 11
77.582057314342819
 21
102.3023604382345
 31
0.0
  0
LINE
  5
29A
  8
0
 10
77.082057314342819
 20
114.0136854382344
 30
0.0
 11
77.582057314342819
 21
113.72501043823441
 31
0.0
  0
ARC
  5
29B
  8
0
 10
70.082057314342819
 20
92.062351438234458
 30
0.0
 40
21.662659000000001
 50
69.743841999999773
 51
110.2561580000002
  0
LINE
  5
29C
  8
1
 10
62.582057314342819
 20
242.01320743823439
 30
0.0
 11
62.582057314342819
 21
62.013791438234442
 31
0.0
  0
LINE
  5
29D
  8
0
 10
70.082057314342819
 20
72.013685438234461
 30
0.0
 11
55.082057314342819
 21
72.013685438234461
 31
0.0
  0
LINE
  5
29E
  8
0
 10
52.582057314342819
 20
74.513685438234461
 30
0.0
 11
52.582057314342819
 21
102.0136854382344
 31
0.0
  0
LINE
  5
29F
  8
0
 10
55.082057314342819
 20
232.01368543823449
 30
0.0
 11
70.082057314342819
 21
232.01368543823449
 31
0.0
  0
LINE
  5
2A0
  8
0
 10
72.582057314342819
 20
229.51368543823449
 30
0.0
 11
72.582057314342819
 21
211.51433743823441
 31
0.0
  0
LINE
  5
2A1
  8
0
 10
55.082057314342819
 20
72.013685438234461
 30
0.0
 11
52.582057314342819
 21
74.513685438234461
 31
0.0
  0
LINE
  5
2A2
  8
0
 10
70.082057314342819
 20
72.013685438234461
 30
0.0
 11
72.582057314342819
 21
74.513685438234461
 31
0.0
  0
LINE
  5
2A3
  8
0
 10
52.582057314342819
 20
74.513685438234461
 30
0.0
 11
72.582057314342819
 21
74.513685438234461
 31
0.0
  0
LINE
  5
2A4
  8
3
 10
53.832057314342819
 20
73.263685438234461
 30
0.0
 11
53.832057314342819
 21
102.0136854382344
 31
0.0
  0
LINE
  5
2A5
  8
3
 10
53.832057314342819
 20
122.0136854382344
 30
0.0
 11
52.582057314342819
 21
124.17874943823441
 31
0.0
  0
LINE
  5
2A6
  8
0
 10
52.582057314342819
 20
122.0136854382344
 30
0.0
 11
72.582057314342819
 21
122.0136854382344
 31
0.0
  0
LINE
  5
2A7
  8
0
 10
52.582057314342819
 20
229.51368543823449
 30
0.0
 11
55.082057314342819
 21
232.01368543823449
 31
0.0
  0
LINE
  5
2A8
  8
0
 10
70.082057314342819
 20
232.01368543823449
 30
0.0
 11
72.582057314342819
 21
229.51368543823449
 31
0.0
  0
LINE
  5
2A9
  8
3
 10
71.332057314342819
 20
73.263685438234461
 30
0.0
 11
71.332057314342819
 21
102.0136854382344
 31
0.0
  0
LINE
  5
2AA
  8
3
 10
71.332057314342819
 20
122.0136854382344
 30
0.0
 11
72.582057314342819
 21
124.17874943823441
 31
0.0
  0
LINE
  5
2AC
  8
3
 10
71.332057314342819
 20
230.7636854382344
 30
0.0
 11
71.332057314342819
 21
211.51433743823441
 31
0.0
  0
LINE
  5
2AE
  8
3
 10
53.832057314342819
 20
230.7636854382344
 30
0.0
 11
53.832057314342819
 21
211.51433743823441
 31
0.0
  0
LINE
  5
2B0
  8
0
 10
52.582057314342819
 20
229.51368543823449
 30
0.0
 11
72.582057314342819
 21
229.51368543823449
 31
0.0
  0
LINE
  5
2B1
  8
0
 10
433.58205731434282
 20
102.0136854382344
 30
0.0
 11
471.58205731434282
 21
102.0136854382344
 31
0.0
  0
LINE
  5
2B2
  8
0
 10
472.58205731434282
 20
103.0136854382344
 30
0.0
 11
472.58205731434282
 21
110.0136854382344
 31
0.0
  0
LINE
  5
2B3
  8
0
 10
471.58205731434282
 20
111.0136854382344
 30
0.0
 11
433.58205731434282
 21
111.0136854382344
 31
0.0
  0
LINE
  5
2B4
  8
0
 10
432.58205731434282
 20
110.0136854382344
 30
0.0
 11
432.58205731434282
 21
103.0136854382344
 31
0.0
  0
LINE
  5
2B5
  8
0
 10
471.58205731434282
 20
102.0136854382344
 30
0.0
 11
472.58205731434282
 21
103.0136854382344
 31
0.0
  0
LINE
  5
2B6
  8
0
 10
472.58205731434282
 20
110.0136854382344
 30
0.0
 11
471.58205731434282
 21
111.0136854382344
 31
0.0
  0
LINE
  5
2B7
  8
0
 10
433.58205731434282
 20
111.0136854382344
 30
0.0
 11
432.58205731434282
 21
110.0136854382344
 31
0.0
  0
LINE
  5
2B8
  8
0
 10
432.58205731434282
 20
103.0136854382344
 30
0.0
 11
433.58205731434282
 21
102.0136854382344
 31
0.0
  0
LINE
  5
2B9
  8
0
 10
438.58205731434282
 20
114.0136854382344
 30
0.0
 11
438.58205731434282
 21
117.0136854382344
 31
0.0
  0
LINE
  5
2BA
  8
0
 10
439.58205731434282
 20
118.0136854382344
 30
0.0
 11
465.58205731434282
 21
118.0136854382344
 31
0.0
  0
LINE
  5
2BB
  8
0
 10
466.58205731434271
 20
117.0136854382344
 30
0.0
 11
466.58205731434271
 21
114.0136854382344
 31
0.0
  0
ARC
  5
2BC
  8
0
 10
469.58205731434282
 20
114.0136854382344
 30
0.0
 40
3.0
 50
180.0
 51
270.0
  0
ARC
  5
2BD
  8
0
 10
435.58205731434282
 20
114.0136854382344
 30
0.0
 40
3.0
 50
270.0
 51
0.0
  0
LINE
  5
2BE
  8
0
 10
466.58205731434271
 20
117.0136854382344
 30
0.0
 11
465.58205731434282
 21
118.0136854382344
 31
0.0
  0
LINE
  5
2BF
  8
0
 10
439.58205731434282
 20
118.0136854382344
 30
0.0
 11
438.58205731434282
 21
117.0136854382344
 31
0.0
  0
LINE
  5
2C0
  8
0
 10
459.78205731434269
 20
119.7862464382344
 30
0.0
 11
462.58205731434259
 21
121.4028274382344
 31
0.0
  0
LINE
  5
2C1
  8
0
 10
445.38205731434277
 20
119.7862464382344
 30
0.0
 11
459.78205731434269
 21
119.7862464382344
 31
0.0
  0
LINE
  5
2C2
  8
0
 10
442.58205731434259
 20
121.4028274382344
 30
0.0
 11
445.38205731434277
 21
119.7862464382344
 31
0.0
  0
LINE
  5
2C5
  8
0
 10
442.58205731434259
 20
121.4028274382344
 30
0.0
 11
462.58205731434259
 21
121.4028274382344
 31
0.0
  0
LINE
  5
2C6
  8
0
 10
459.78205731434269
 20
118.0136854382344
 30
0.0
 11
459.78205731434269
 21
119.7862464382344
 31
0.0
  0
LINE
  5
2C7
  8
0
 10
445.38205731434277
 20
118.0136854382344
 30
0.0
 11
445.38205731434277
 21
119.7862464382344
 31
0.0
  0
LINE
  5
2C8
  8
0
 10
460.08205731434271
 20
207.41368543823449
 30
0.0
 11
445.08205731434271
 21
207.41368543823449
 31
0.0
  0
LINE
  5
2C9
  8
0
 10
442.58205731434259
 20
204.91368543823441
 30
0.0
 11
445.08205731434271
 21
207.41368543823449
 31
0.0
  0
LINE
  5
2CA
  8
0
 10
460.08205731434271
 20
207.41368543823449
 30
0.0
 11
462.58205731434259
 21
204.91368543823441
 31
0.0
  0
LINE
  5
2CB
  8
0
 10
462.58205731434259
 20
204.91368543823441
 30
0.0
 11
442.58205731434259
 21
204.91368543823441
 31
0.0
  0
LINE
  5
2CC
  8
3
 10
443.83205731434259
 20
206.16368543823441
 30
0.0
 11
443.83205731434259
 21
177.0136854382344
 31
0.0
  0
LINE
  5
2CD
  8
3
 10
461.36500331434269
 20
206.16368543823441
 30
0.0
 11
461.36500331434269
 21
177.01368543823449
 31
0.0
  0
LINE
  5
2CF
  8
1
 10
452.58205731434282
 20
242.01320743823439
 30
0.0
 11
452.58205731434282
 21
62.013791438234442
 31
0.0
  0
LINE
  5
2D0
  8
0
 10
460.08205731434282
 20
72.013685438234461
 30
0.0
 11
445.08205731434282
 21
72.013685438234461
 31
0.0
  0
LINE
  5
2D1
  8
0
 10
442.58205731434282
 20
74.513685438234461
 30
0.0
 11
442.58205731434282
 21
102.0136854382344
 31
0.0
  0
LINE
  5
2D2
  8
0
 10
445.08205731434282
 20
232.01368543823449
 30
0.0
 11
460.08205731434282
 21
232.01368543823449
 31
0.0
  0
LINE
  5
2D3
  8
0
 10
462.58205731434271
 20
229.51368543823449
 30
0.0
 11
462.58205731434271
 21
211.51433743823441
 31
0.0
  0
LINE
  5
2D4
  8
0
 10
445.08205731434282
 20
72.013685438234461
 30
0.0
 11
442.58205731434282
 21
74.513685438234461
 31
0.0
  0
LINE
  5
2D5
  8
0
 10
460.08205731434282
 20
72.013685438234461
 30
0.0
 11
462.58205731434271
 21
74.513685438234461
 31
0.0
  0
LINE
  5
2D6
  8
0
 10
442.58205731434282
 20
74.513685438234461
 30
0.0
 11
462.58205731434271
 21
74.513685438234461
 31
0.0
  0
LINE
  5
2D7
  8
3
 10
443.83205731434271
 20
73.263685438234461
 30
0.0
 11
443.83205731434271
 21
102.0136854382344
 31
0.0
  0
LINE
  5
2DA
  8
0
 10
442.58205731434282
 20
229.51368543823449
 30
0.0
 11
445.08205731434282
 21
232.01368543823449
 31
0.0
  0
LINE
  5
2DB
  8
0
 10
460.08205731434282
 20
232.01368543823449
 30
0.0
 11
462.58205731434271
 21
229.51368543823449
 31
0.0
  0
LINE
  5
2DC
  8
3
 10
461.33205731434282
 20
73.263685438234461
 30
0.0
 11
461.33205731434282
 21
102.0136854382344
 31
0.0
  0
LINE
  5
2DF
  8
3
 10
461.33205731434282
 20
230.7636854382344
 30
0.0
 11
461.33205731434259
 21
211.51433743823441
 31
0.0
  0
LINE
  5
2E1
  8
3
 10
443.83205731434271
 20
230.7636854382344
 30
0.0
 11
443.83205731434271
 21
211.51433743823441
 31
0.0
  0
LINE
  5
2E3
  8
0
 10
442.58205731434282
 20
229.51368543823449
 30
0.0
 11
462.58205731434271
 21
229.51368543823449
 31
0.0
  0
LINE
  5
2E4
  8
0
 10
248.08205731434279
 20
114.0136854382344
 30
0.0
 11
245.2615493143428
 21
112.3852644382344
 31
0.0
  0
ARC
  5
2E5
  8
0
 10
249.59167631434281
 20
106.05754243823441
 30
0.0
 40
7.6674679999999986
 50
55.615752999999778
 51
115.6157529999999
  0
ARC
  5
2E6
  8
0
 10
249.59167631434281
 20
106.05754243823441
 30
0.0
 40
7.6674679999999986
 50
124.3842470000003
 51
124.3842470000003
  0
ARC
  5
2E7
  8
0
 10
262.58205731434282
 20
85.064756438234468
 30
0.0
 40
28.660253999999998
 50
72.41204600000097
 51
107.587953999999
  0
ARC
  5
2E8
  8
0
 10
249.59167631434281
 20
109.9698284382344
 30
0.0
 40
7.6674679999999986
 50
235.6157529999997
 51
235.6157529999997
  0
ARC
  5
2E9
  8
0
 10
249.59167631434281
 20
109.9698284382344
 30
0.0
 40
7.6674679999999986
 50
244.38424699999999
 51
304.3842470000003
  0
LINE
  5
2EA
  8
0
 10
248.08205731434279
 20
102.0136854382344
 30
0.0
 11
245.2615493143428
 21
103.64210643823441
 31
0.0
  0
LINE
  5
2EB
  8
0
 10
245.2615493143428
 20
112.3852644382344
 30
0.0
 11
245.2615493143428
 21
103.64210643823441
 31
0.0
  0
LINE
  5
2EC
  8
0
 10
253.92180331434281
 20
103.64210643823441
 30
0.0
 11
253.92180331434281
 21
112.3852644382344
 31
0.0
  0
ARC
  5
2ED
  8
0
 10
262.58205731434282
 20
130.9626144382344
 30
0.0
 40
28.660253999999998
 50
252.412046000001
 51
287.58795399999912
  0
LINE
  5
2EE
  8
0
 10
271.24231131434283
 20
103.64210643823441
 30
0.0
 11
271.24231131434283
 21
112.3852644382344
 31
0.0
  0
LINE
  5
2EF
  8
0
 10
279.90256531434278
 20
112.3852644382344
 30
0.0
 11
279.90256531434278
 21
103.64210643823441
 31
0.0
  0
LINE
  5
2F0
  8
0
 10
277.08205731434282
 20
102.0136854382344
 30
0.0
 11
279.90256531434278
 21
103.64210643823441
 31
0.0
  0
ARC
  5
2F1
  8
0
 10
275.57243831434278
 20
109.9698284382344
 30
0.0
 40
7.6674679999999986
 50
235.6157529999997
 51
295.61575299999993
  0
ARC
  5
2F2
  8
0
 10
275.57243831434278
 20
109.9698284382344
 30
0.0
 40
7.6674679999999986
 50
304.3842470000003
 51
304.3842470000003
  0
ARC
  5
2F3
  8
0
 10
275.57243831434278
 20
106.05754243823441
 30
0.0
 40
7.6674679999999986
 50
55.615752999999778
 51
55.615752999999778
  0
ARC
  5
2F4
  8
0
 10
275.57243831434278
 20
106.05754243823441
 30
0.0
 40
7.6674679999999986
 50
64.384247000000045
 51
124.3842470000003
  0
LINE
  5
2F5
  8
0
 10
277.08205731434282
 20
114.0136854382344
 30
0.0
 11
279.90256531434278
 21
112.3852644382344
 31
0.0
  0
LINE
  5
2F6
  8
0
 10
248.08205731434279
 20
114.0136854382344
 30
0.0
 11
277.08205731434282
 21
114.0136854382344
 31
0.0
  0
LINE
  5
2F7
  8
0
 10
277.08205731434282
 20
102.0136854382344
 30
0.0
 11
248.08205731434279
 21
102.0136854382344
 31
0.0
  0
LINE
  5
2F8
  8
1
 10
262.58205731434282
 20
242.01320743823439
 30
0.0
 11
262.58205731434282
 21
62.013791438234442
 31
0.0
  0
LINE
  5
2F9
  8
0
 10
270.08205731434282
 20
72.013685438234461
 30
0.0
 11
255.08205731434279
 21
72.013685438234461
 31
0.0
  0
LINE
  5
2FA
  8
0
 10
252.58205731434279
 20
74.513685438234461
 30
0.0
 11
252.58205731434279
 21
102.0136854382344
 31
0.0
  0
LINE
  5
2FB
  8
0
 10
255.08205731434279
 20
232.01368543823449
 30
0.0
 11
270.08205731434282
 21
232.01368543823449
 31
0.0
  0
LINE
  5
2FC
  8
0
 10
272.58205731434282
 20
229.51368543823449
 30
0.0
 11
272.58205731434282
 21
211.51433743823441
 31
0.0
  0
LINE
  5
2FD
  8
0
 10
255.08205731434279
 20
72.013685438234461
 30
0.0
 11
252.58205731434279
 21
74.513685438234461
 31
0.0
  0
LINE
  5
2FE
  8
0
 10
270.08205731434282
 20
72.013685438234461
 30
0.0
 11
272.58205731434282
 21
74.513685438234461
 31
0.0
  0
LINE
  5
2FF
  8
0
 10
252.58205731434279
 20
74.513685438234461
 30
0.0
 11
272.58205731434282
 21
74.513685438234461
 31
0.0
  0
LINE
  5
300
  8
3
 10
253.83205731434279
 20
73.263685438234461
 30
0.0
 11
253.83205731434279
 21
102.0136854382344
 31
0.0
  0
LINE
  5
301
  8
3
 10
253.83205731434279
 20
122.0136854382344
 30
0.0
 11
252.58205731434279
 21
124.17874943823441
 31
0.0
  0
LINE
  5
302
  8
0
 10
252.58205731434279
 20
122.0136854382344
 30
0.0
 11
272.58205731434282
 21
122.0136854382344
 31
0.0
  0
LINE
  5
303
  8
0
 10
252.58205731434279
 20
229.51368543823449
 30
0.0
 11
255.08205731434279
 21
232.01368543823449
 31
0.0
  0
LINE
  5
304
  8
0
 10
270.08205731434282
 20
232.01368543823449
 30
0.0
 11
272.58205731434282
 21
229.51368543823449
 31
0.0
  0
LINE
  5
305
  8
3
 10
271.33205731434282
 20
73.263685438234461
 30
0.0
 11
271.33205731434282
 21
102.0136854382344
 31
0.0
  0
LINE
  5
306
  8
3
 10
271.33205731434282
 20
122.0136854382344
 30
0.0
 11
272.58205731434282
 21
124.17874943823441
 31
0.0
  0
LINE
  5
308
  8
3
 10
271.33205731434282
 20
230.7636854382344
 30
0.0
 11
271.33205731434282
 21
211.51433743823441
 31
0.0
  0
LINE
  5
30A
  8
3
 10
253.83205731434279
 20
230.7636854382344
 30
0.0
 11
253.83205731434279
 21
211.51433743823441
 31
0.0
  0
LINE
  5
30C
  8
0
 10
252.58205731434279
 20
229.51368543823449
 30
0.0
 11
272.58205731434282
 21
229.51368543823449
 31
0.0
  0
LINE
  5
30D
  8
0
 10
315.58205731434282
 20
102.0136854382344
 30
0.0
 11
353.58205731434282
 21
102.0136854382344
 31
0.0
  0
LINE
  5
30E
  8
0
 10
354.58205731434282
 20
103.0136854382344
 30
0.0
 11
354.58205731434282
 21
110.0136854382344
 31
0.0
  0
LINE
  5
30F
  8
0
 10
353.58205731434282
 20
111.0136854382344
 30
0.0
 11
315.58205731434282
 21
111.0136854382344
 31
0.0
  0
LINE
  5
310
  8
0
 10
314.58205731434282
 20
110.0136854382344
 30
0.0
 11
314.58205731434282
 21
103.0136854382344
 31
0.0
  0
LINE
  5
311
  8
0
 10
353.58205731434282
 20
102.0136854382344
 30
0.0
 11
354.58205731434282
 21
103.0136854382344
 31
0.0
  0
LINE
  5
312
  8
0
 10
354.58205731434282
 20
110.0136854382344
 30
0.0
 11
353.58205731434282
 21
111.0136854382344
 31
0.0
  0
LINE
  5
313
  8
0
 10
315.58205731434282
 20
111.0136854382344
 30
0.0
 11
314.58205731434282
 21
110.0136854382344
 31
0.0
  0
LINE
  5
314
  8
0
 10
314.58205731434282
 20
103.0136854382344
 30
0.0
 11
315.58205731434282
 21
102.0136854382344
 31
0.0
  0
LINE
  5
315
  8
0
 10
320.58205731434282
 20
114.0136854382344
 30
0.0
 11
320.58205731434282
 21
117.0136854382344
 31
0.0
  0
LINE
  5
316
  8
0
 10
321.58205731434282
 20
118.0136854382344
 30
0.0
 11
347.58205731434282
 21
118.0136854382344
 31
0.0
  0
LINE
  5
317
  8
0
 10
348.58205731434282
 20
117.0136854382344
 30
0.0
 11
348.58205731434282
 21
114.0136854382344
 31
0.0
  0
ARC
  5
318
  8
0
 10
351.58205731434282
 20
114.0136854382344
 30
0.0
 40
3.0
 50
180.0
 51
270.0
  0
ARC
  5
319
  8
0
 10
317.58205731434282
 20
114.0136854382344
 30
0.0
 40
3.0
 50
270.0
 51
0.0
  0
LINE
  5
31A
  8
0
 10
348.58205731434282
 20
117.0136854382344
 30
0.0
 11
347.58205731434282
 21
118.0136854382344
 31
0.0
  0
LINE
  5
31B
  8
0
 10
321.58205731434282
 20
118.0136854382344
 30
0.0
 11
320.58205731434282
 21
117.0136854382344
 31
0.0
  0
LINE
  5
31C
  8
0
 10
341.7655843143429
 20
119.7862464382344
 30
0.0
 11
344.5655843143428
 21
121.4028274382344
 31
0.0
  0
LINE
  5
31D
  8
0
 10
327.36558431434281
 20
119.7862464382344
 30
0.0
 11
341.7655843143429
 21
119.7862464382344
 31
0.0
  0
LINE
  5
31E
  8
0
 10
324.5655843143428
 20
121.4028274382344
 30
0.0
 11
327.36558431434281
 21
119.7862464382344
 31
0.0
  0
LINE
  5
31F
  8
0
 10
324.5655843143428
 20
121.4028274382344
 30
0.0
 11
324.56558431434269
 21
152.0136854382344
 31
0.0
  0
LINE
  5
320
  8
0
 10
344.5655843143428
 20
121.4028274382344
 30
0.0
 11
344.56558431434269
 21
152.0136854382344
 31
0.0
  0
LINE
  5
321
  8
0
 10
324.5655843143428
 20
121.4028274382344
 30
0.0
 11
344.5655843143428
 21
121.4028274382344
 31
0.0
  0
LINE
  5
322
  8
0
 10
341.7655843143429
 20
118.0136854382344
 30
0.0
 11
341.7655843143429
 21
119.7862464382344
 31
0.0
  0
LINE
  5
323
  8
0
 10
327.36558431434281
 20
118.0136854382344
 30
0.0
 11
327.36558431434281
 21
119.7862464382344
 31
0.0
  0
LINE
  5
324
  8
0
 10
342.0655843143428
 20
207.41368543823449
 30
0.0
 11
327.0655843143428
 21
207.41368543823449
 31
0.0
  0
LINE
  5
325
  8
0
 10
324.5655843143428
 20
204.91368543823441
 30
0.0
 11
327.0655843143428
 21
207.41368543823449
 31
0.0
  0
LINE
  5
326
  8
0
 10
342.0655843143428
 20
207.41368543823449
 30
0.0
 11
344.5655843143428
 21
204.91368543823441
 31
0.0
  0
LINE
  5
327
  8
0
 10
344.5655843143428
 20
204.91368543823441
 30
0.0
 11
324.5655843143428
 21
204.91368543823441
 31
0.0
  0
LINE
  5
328
  8
3
 10
325.8155843143428
 20
206.16368543823441
 30
0.0
 11
325.81558431434269
 21
177.0136854382344
 31
0.0
  0
LINE
  5
329
  8
3
 10
343.34853031434278
 20
206.16368543823441
 30
0.0
 11
343.34853031434278
 21
177.01368543823449
 31
0.0
  0
LINE
  5
32A
  8
1
 10
334.58205731434282
 20
212.7289854382345
 30
0.0
 11
334.58205731434282
 21
95.663927438234452
 31
0.0
  0
CIRCLE
  5
32D
  8
0
 10
262.58205731434282
 20
302.01368543823452
 30
0.0
 40
14.5
  0
CIRCLE
  5
32E
  8
0
 10
262.58205731434282
 20
302.01368543823452
 30
0.0
 40
20.0
  0
LINE
  5
330
  8
1
 10
262.58205731434282
 20
268.71829610832879
 30
0.0
 11
262.58205731434282
 21
335.30907476814019
 31
0.0
  0
LINE
  5
331
  8
0
 10
254.4763493143428
 20
287.0136854382344
 30
0.0
 11
270.68776531434281
 21
287.0136854382344
 31
0.0
  0
ARC
  5
332
  8
0
 10
262.58205731434282
 20
302.01368543823452
 30
0.0
 40
17.050000000000001
 50
298.38592399999919
 51
301.61407599999927
  0
LINE
  5
333
  8
0
 10
245.53882231434281
 20
301.53343443823451
 30
0.0
 11
253.6445303143428
 21
287.49393643823453
 31
0.0
  0
ARC
  5
334
  8
0
 10
262.58205731434282
 20
302.01368543823452
 30
0.0
 40
17.050000000000001
 50
238.3859240000007
 51
241.6140759999999
  0
LINE
  5
335
  8
0
 10
253.6445303143428
 20
316.53343443823439
 30
0.0
 11
245.53882231434281
 21
302.49393643823453
 31
0.0
  0
ARC
  5
336
  8
0
 10
262.58205731434282
 20
302.01368543823452
 30
0.0
 40
17.050000000000001
 50
178.3859240000013
 51
181.61407599999859
  0
LINE
  5
337
  8
0
 10
270.68776531434281
 20
317.01368543823452
 30
0.0
 11
254.4763493143428
 21
317.01368543823452
 31
0.0
  0
ARC
  5
338
  8
0
 10
262.58205731434282
 20
302.01368543823452
 30
0.0
 40
17.050000000000001
 50
118.385924
 51
121.6140759999993
  0
LINE
  5
339
  8
0
 10
279.6252923143428
 20
302.49393643823453
 30
0.0
 11
271.51958431434281
 21
316.53343443823439
 31
0.0
  0
ARC
  5
33A
  8
0
 10
262.58205731434282
 20
302.01368543823452
 30
0.0
 40
17.050000000000001
 50
58.385924000000571
 51
61.614075999999898
  0
ARC
  5
33B
  8
0
 10
262.58205731434282
 20
302.01368543823452
 30
0.0
 40
17.050000000000001
 50
358.3859240000013
 51
1.614075999998648
  0
LINE
  5
33C
  8
0
 10
271.51958431434281
 20
287.49393643823453
 30
0.0
 11
279.6252923143428
 21
301.53343443823451
 31
0.0
  0
CIRCLE
  5
33D
  8
0
 10
262.58205731434282
 20
302.01368543823452
 30
0.0
 40
10.0
  0
CIRCLE
  5
33E
  8
3
 10
262.58205731434282
 20
302.01368543823452
 30
0.0
 40
8.75
  0
LINE
  5
341
  8
0
 10
80.582057314342819
 20
172.0136854382344
 30
0.0
 11
85.582057314342819
 21
177.0136854382344
 31
0.0
  0
LINE
  5
342
  8
0
 10
39.582057314342819
 20
177.0136854382344
 30
0.0
 11
44.582057314342819
 21
172.0136854382344
 31
0.0
  0
LINE
  5
343
  8
0
 10
80.582057314342819
 20
172.0136854382344
 30
0.0
 11
80.582057314342819
 21
152.0136854382344
 31
0.0
  0
LINE
  5
344
  8
0
 10
44.582057314342819
 20
172.0136854382344
 30
0.0
 11
44.582057314342819
 21
152.0136854382344
 31
0.0
  0
LINE
  5
345
  8
0
 10
38.582057314342819
 20
177.0136854382344
 30
0.0
 11
37.582057314342819
 21
176.0136854382344
 31
0.0
  0
LINE
  5
346
  8
0
 10
87.582057314342819
 20
176.0136854382344
 30
0.0
 11
86.582057314342819
 21
177.0136854382344
 31
0.0
  0
LINE
  5
347
  8
0
 10
86.582057314342819
 20
152.0136854382344
 30
0.0
 11
87.582057314342819
 21
153.0136854382344
 31
0.0
  0
LINE
  5
348
  8
0
 10
38.582057314342819
 20
152.0136854382344
 30
0.0
 11
37.582057314342819
 21
153.0136854382344
 31
0.0
  0
LINE
  5
349
  8
0
 10
80.582057314342819
 20
172.0136854382344
 30
0.0
 11
44.582057314342819
 21
172.0136854382344
 31
0.0
  0
LINE
  5
34B
  8
0
 10
38.582057314342819
 20
177.0136854382344
 30
0.0
 11
86.582057314342819
 21
177.0136854382344
 31
0.0
  0
LINE
  5
34C
  8
0
 10
37.582057314342819
 20
153.0136854382344
 30
0.0
 11
37.582057314342819
 21
176.0136854382344
 31
0.0
  0
LINE
  5
34D
  8
0
 10
86.582057314342819
 20
152.0136854382344
 30
0.0
 11
38.582057314342819
 21
152.0136854382344
 31
0.0
  0
LINE
  5
34E
  8
0
 10
87.582057314342819
 20
176.0136854382344
 30
0.0
 11
87.582057314342819
 21
153.0136854382344
 31
0.0
  0
LINE
  5
351
  8
0
 10
427.58205731434282
 20
153.0136854382344
 30
0.0
 11
427.58205731434282
 21
176.0136854382344
 31
0.0
  0
LINE
  5
352
  8
0
 10
428.58205731434282
 20
177.0136854382344
 30
0.0
 11
476.58205731434282
 21
177.0136854382344
 31
0.0
  0
LINE
  5
353
  8
0
 10
477.58205731434282
 20
176.0136854382344
 30
0.0
 11
477.58205731434282
 21
153.0136854382344
 31
0.0
  0
LINE
  5
354
  8
0
 10
476.58205731434282
 20
152.0136854382344
 30
0.0
 11
428.58205731434282
 21
152.0136854382344
 31
0.0
  0
LINE
  5
356
  8
0
 10
463.08205731434282
 20
157.0136854382344
 30
0.0
 11
442.08205731434282
 21
157.0136854382344
 31
0.0
  0
LINE
  5
357
  8
0
 10
442.08205731434282
 20
157.0136854382344
 30
0.0
 11
442.08205731434282
 21
152.0136854382344
 31
0.0
  0
LINE
  5
358
  8
0
 10
463.08205731434282
 20
157.0136854382344
 30
0.0
 11
463.08205731434282
 21
152.0136854382344
 31
0.0
  0
LINE
  5
35A
  8
0
 10
476.58205731434282
 20
177.0136854382344
 30
0.0
 11
477.58205731434282
 21
176.0136854382344
 31
0.0
  0
LINE
  5
35B
  8
0
 10
428.58205731434282
 20
177.0136854382344
 30
0.0
 11
427.58205731434282
 21
176.0136854382344
 31
0.0
  0
LINE
  5
35C
  8
0
 10
427.58205731434282
 20
153.0136854382344
 30
0.0
 11
428.58205731434282
 21
152.0136854382344
 31
0.0
  0
LINE
  5
35D
  8
0
 10
476.58205731434282
 20
152.0136854382344
 30
0.0
 11
477.58205731434282
 21
153.0136854382344
 31
0.0
  0
LINE
  5
35E
  8
0
 10
331.69530631434282
 20
297.0136854382344
 30
0.0
 11
337.46880831434282
 21
297.0136854382344
 31
0.0
  0
LINE
  5
35F
  8
0
 10
337.46880831434282
 20
297.0136854382344
 30
0.0
 11
340.35556031434282
 21
302.01368543823452
 31
0.0
  0
LINE
  5
360
  8
0
 10
340.35556031434282
 20
302.01368543823452
 30
0.0
 11
337.46880831434282
 21
307.01368543823452
 31
0.0
  0
LINE
  5
361
  8
0
 10
337.46880831434282
 20
307.01368543823452
 30
0.0
 11
331.69530631434282
 21
307.01368543823452
 31
0.0
  0
LINE
  5
362
  8
0
 10
331.69530631434282
 20
307.01368543823452
 30
0.0
 11
328.80855431434281
 21
302.01368543823452
 31
0.0
  0
LINE
  5
363
  8
0
 10
328.80855431434281
 20
302.01368543823452
 30
0.0
 11
331.69530631434282
 21
297.0136854382344
 31
0.0
  0
CIRCLE
  5
364
  8
3
 10
334.58205731434282
 20
302.01368543823452
 30
0.0
 40
8.7664730000000191
  0
CIRCLE
  5
365
  8
0
 10
334.58205731434282
 20
302.01368543823452
 30
0.0
 40
9.9835269999999792
  0
LINE
  5
366
  8
1
 10
334.58205731434282
 20
325.40857358380123
 30
0.0
 11
334.58205731434282
 21
278.61879729266769
 31
0.0
  0
CIRCLE
  5
368
  8
2
 10
334.58205731434282
 20
302.01368543823452
 30
0.0
 40
14.0
  0
ARC
  5
369
  8
2
 10
334.58205731434282
 20
302.01368543823452
 30
0.0
 40
20.0
 50
36.869897645843949
 51
323.13010235415601
  0
LINE
  5
36A
  8
0
 10
348.58205731434282
 20
277.01368543823452
 30
0.0
 11
162.7064133143428
 21
277.01368543823452
 31
0.0
  0
LINE
  5
36B
  8
0
 10
150.58205731434279
 20
284.01368543823452
 30
0.0
 11
150.58205731434279
 21
320.0136854382344
 31
0.0
  0
LINE
  5
36C
  8
0
 10
162.7064133143428
 20
327.01368543823452
 30
0.0
 11
348.58205731434282
 21
327.01368543823452
 31
0.0
  0
LINE
  5
36D
  8
0
 10
350.58205731434282
 20
325.01368543823452
 30
0.0
 11
350.58205731434282
 21
279.01368543823452
 31
0.0
  0
LINE
  5
36E
  8
0
 10
150.58205731434279
 20
284.01368543823452
 30
0.0
 11
162.7064133143428
 21
277.01368543823452
 31
0.0
  0
LINE
  5
371
  8
1
 10
182.58205731434279
 20
282.28846543823448
 30
0.0
 11
182.58205731434279
 21
322.29905743823451
 31
0.0
  0
LINE
  5
372
  8
1
 10
360.58205731434282
 20
302.01368543823452
 30
0.0
 11
140.58205731434279
 21
302.01368543823452
 31
0.0
  0
ARC
  5
373
  8
2
 10
262.58205731434282
 20
302.01368543823452
 30
0.0
 40
10.5
 50
270.0
 51
90.0
  0
ARC
  5
374
  8
0
 10
182.58205731434279
 20
302.01368543823452
 30
0.0
 40
10.5
 50
90.0
 51
270.0
  0
LINE
  5
376
  8
0
 10
262.58205731434282
 20
291.51368543823452
 30
0.0
 11
182.58205731434279
 21
291.51368543823452
 31
0.0
  0
LINE
  5
377
  8
0
 10
262.58205731434282
 20
312.51368543823452
 30
0.0
 11
182.58205731434279
 21
312.51368543823452
 31
0.0
  0
LINE
  5
378
  8
0
 10
150.58205731434279
 20
320.0136854382344
 30
0.0
 11
162.7064133143428
 21
327.01368543823452
 31
0.0
  0
LINE
  5
379
  8
2
 10
262.58205731434282
 20
291.51368543823452
 30
0.0
 11
350.58205731434282
 21
291.51368543823452
 31
0.0
  0
LINE
  5
37A
  8
2
 10
262.58205731434282
 20
312.51368543823452
 30
0.0
 11
350.58205731434282
 21
312.51368543823452
 31
0.0
  0
LINE
  5
37B
  8
0
 10
350.58205731434282
 20
279.01368543823452
 30
0.0
 11
348.58205731434282
 21
277.01368543823452
 31
0.0
  0
LINE
  5
37C
  8
0
 10
350.58205731434282
 20
325.01368543823452
 30
0.0
 11
348.58205731434282
 21
327.01368543823452
 31
0.0
  0
LINE
  5
37D
  8
0
 10
158.7749113143428
 20
324.74383143823439
 30
0.0
 11
158.7749113143428
 21
279.28353943823453
 31
0.0
  0
ARC
  5
37F
  8
0
 10
275.36955731434279
 20
204.60808743823449
 30
0.0
 40
6.9063259999999991
 50
51.888937999999897
 51
128.111062
  0
LINE
  5
380
  8
0
 10
271.1070573143428
 20
210.0420944382345
 30
0.0
 11
271.1070573143428
 21
189.01433743823441
 31
0.0
  0
ARC
  5
381
  8
0
 10
262.58205731434282
 20
186.09627943823449
 30
0.0
 40
25.418057999999998
 50
70.403654999999048
 51
90.0
  0
LINE
  5
382
  8
0
 10
245.53205731434281
 20
210.0420944382345
 30
0.0
 11
248.08205731434279
 21
211.51433743823441
 31
0.0
  0
LINE
  5
383
  8
0
 10
279.63205731434277
 20
210.0420944382345
 30
0.0
 11
277.08205731434282
 21
211.51433743823441
 31
0.0
  0
ARC
  5
384
  8
0
 10
249.7945573143428
 20
204.60808743823449
 30
0.0
 40
6.9063259999999991
 50
51.888937999999897
 51
128.111062
  0
LINE
  5
385
  8
0
 10
248.08205731434279
 20
211.51433743823441
 30
0.0
 11
277.08205731434282
 21
211.51433743823441
 31
0.0
  0
ARC
  5
386
  8
0
 10
262.58205731434282
 20
186.09627943823449
 30
0.0
 40
25.418057999999998
 50
90.0
 51
109.59634500000089
  0
LINE
  5
387
  8
0
 10
279.63205731434277
 20
210.0420944382345
 30
0.0
 11
279.63205731434277
 21
189.41433743823441
 31
0.0
  0
LINE
  5
388
  8
0
 10
282.58205731434282
 20
188.51433743823441
 30
0.0
 11
282.58205731434282
 21
185.21433743823439
 31
0.0
  0
LINE
  5
38A
  8
0
 10
282.58205731434282
 20
188.51433743823441
 30
0.0
 11
282.08205731434282
 21
189.01433743823441
 31
0.0
  0
ARC
  5
38B
  8
0
 10
280.03205731434281
 20
189.41433743823441
 30
0.0
 40
0.4
 50
180.0
 51
270.0
  0
ARC
  5
38C
  8
0
 10
245.1320573143428
 20
189.41433743823441
 30
0.0
 40
0.4
 50
270.0
 51
0.0
  0
LINE
  5
38D
  8
0
 10
242.58205731434279
 20
188.51433743823441
 30
0.0
 11
243.08205731434279
 21
189.01433743823441
 31
0.0
  0
LINE
  5
38E
  8
0
 10
242.58205731434279
 20
188.51433743823441
 30
0.0
 11
242.58205731434279
 21
185.21433743823439
 31
0.0
  0
LINE
  5
38F
  8
0
 10
282.08205731434282
 20
189.01433743823441
 30
0.0
 11
243.08205731434279
 21
189.01433743823441
 31
0.0
  0
LINE
  5
390
  8
0
 10
245.53205731434281
 20
210.0420944382345
 30
0.0
 11
245.53205731434281
 21
189.41433743823441
 31
0.0
  0
LINE
  5
391
  8
0
 10
254.05705731434281
 20
210.0420944382345
 30
0.0
 11
254.05705731434281
 21
189.01433743823441
 31
0.0
  0
LINE
  5
393
  8
0
 10
282.58205731434282
 20
185.21433743823439
 30
0.0
 11
242.58205731434279
 21
185.21433743823439
 31
0.0
  0
ARC
  5
394
  8
0
 10
262.58205731434282
 20
219.85535343823449
 30
0.0
 40
40.0
 50
239.99999999999909
 51
243.64254793350861
  0
ARC
  5
395
  8
0
 10
262.58205731434282
 20
219.85535343823449
 30
0.0
 40
40.0
 50
296.35745206649142
 51
300.0000000000008
  0
LINE
  5
397
  8
2
 10
251.08205731434279
 20
177.5136854382344
 30
0.0
 11
274.08205731434282
 21
177.5136854382344
 31
0.0
  0
LINE
  5
398
  8
2
 10
251.08205731434279
 20
181.46589343823439
 30
0.0
 11
274.08205731434282
 21
181.46589343823439
 31
0.0
  0
LINE
  5
399
  8
2
 10
251.08205731434279
 20
177.5136854382344
 30
0.0
 11
250.58205731434279
 21
177.0136854382344
 31
0.0
  0
LINE
  5
39A
  8
2
 10
251.08205731434279
 20
181.46589343823439
 30
0.0
 11
251.08205731434279
 21
177.5136854382344
 31
0.0
  0
LINE
  5
39B
  8
2
 10
244.08205731434279
 20
184.0136854382344
 30
0.0
 11
251.08205731434279
 21
181.46589343823439
 31
0.0
  0
LINE
  5
39C
  8
2
 10
274.08205731434282
 20
177.5136854382344
 30
0.0
 11
274.58205731434282
 21
177.0136854382344
 31
0.0
  0
LINE
  5
39D
  8
2
 10
274.08205731434282
 20
181.46589343823439
 30
0.0
 11
274.08205731434282
 21
177.5136854382344
 31
0.0
  0
LINE
  5
39E
  8
2
 10
281.08205731434282
 20
184.0136854382344
 30
0.0
 11
274.08205731434282
 21
181.46589343823439
 31
0.0
  0
LINE
  5
39F
  8
0
 10
242.58205731434279
 20
183.5136854382344
 30
0.0
 11
243.08205731434279
 21
184.0136854382344
 31
0.0
  0
LINE
  5
3A0
  8
0
 10
243.08205731434279
 20
177.0136854382344
 30
0.0
 11
242.58205731434279
 21
177.5136854382344
 31
0.0
  0
LINE
  5
3A1
  8
0
 10
282.58205731434282
 20
183.5136854382344
 30
0.0
 11
282.08205731434282
 21
184.0136854382344
 31
0.0
  0
LINE
  5
3A2
  8
0
 10
282.08205731434282
 20
177.0136854382344
 30
0.0
 11
282.58205731434282
 21
177.5136854382344
 31
0.0
  0
LINE
  5
3A3
  8
0
 10
242.58205731434279
 20
183.5136854382344
 30
0.0
 11
242.58205731434279
 21
177.5136854382344
 31
0.0
  0
LINE
  5
3A4
  8
0
 10
282.58205731434282
 20
177.5136854382344
 30
0.0
 11
282.58205731434282
 21
183.5136854382344
 31
0.0
  0
LINE
  5
3A5
  8
0
 10
243.08205731434279
 20
177.0136854382344
 30
0.0
 11
282.08205731434282
 21
177.0136854382344
 31
0.0
  0
LINE
  5
3A6
  8
0
 10
282.08205731434282
 20
184.0136854382344
 30
0.0
 11
243.08205731434279
 21
184.0136854382344
 31
0.0
  0
LINE
  5
3A7
  8
0
 10
62.582057314342819
 20
209.88591643823449
 30
0.0
 11
62.582057314342819
 21
189.01433743823441
 31
0.0
  0
ARC
  5
3A8
  8
0
 10
47.182057314342813
 20
189.41433743823441
 30
0.0
 40
0.4
 50
270.0
 51
0.0
  0
LINE
  5
3A9
  8
0
 10
47.582057314342819
 20
210.71433743823439
 30
0.0
 11
47.582057314342819
 21
189.41433743823441
 31
0.0
  0
LINE
  5
3AA
  8
0
 10
76.782057314342808
 20
211.51433743823441
 30
0.0
 11
48.382057314342831
 21
211.51433743823441
 31
0.0
  0
LINE
  5
3AB
  8
0
 10
76.782057314342808
 20
211.51433743823441
 30
0.0
 11
77.582057314342819
 21
210.71433743823439
 31
0.0
  0
LINE
  5
3AC
  8
0
 10
48.382057314342831
 20
211.51433743823441
 30
0.0
 11
47.582057314342819
 21
210.71433743823439
 31
0.0
  0
ARC
  5
3AD
  8
0
 10
55.082057314342819
 20
193.42879543823449
 30
0.0
 40
18.085542
 50
65.499833000000365
 51
114.50016699999961
  0
ARC
  5
3AE
  8
0
 10
70.082057314342819
 20
193.42879543823449
 30
0.0
 40
18.085542
 50
65.499833000000365
 51
114.50016699999961
  0
ARC
  5
3AF
  8
0
 10
77.982073314342813
 20
189.41433743823441
 30
0.0
 40
0.4
 50
180.0
 51
270.0
  0
LINE
  5
3B0
  8
0
 10
77.582073314342807
 20
210.71433743823439
 30
0.0
 11
77.582073314342807
 21
189.41433743823441
 31
0.0
  0
ARC
  5
3B2
  8
0
 10
62.582057314342819
 20
219.85535343823449
 30
0.0
 40
40.0
 50
286.55927299999951
 51
300.0000000000008
  0
ARC
  5
3B3
  8
0
 10
62.582057314342819
 20
219.85535343823449
 30
0.0
 40
40.0
 50
239.99999999999909
 51
253.44072700000041
  0
LINE
  5
3B4
  8
0
 10
82.582057314342819
 20
185.21433743823439
 30
0.0
 11
42.582057314342819
 21
185.21433743823439
 31
0.0
  0
LINE
  5
3B5
  8
0
 10
82.082057314342805
 20
189.01433743823441
 30
0.0
 11
43.082057314342819
 21
189.01433743823441
 31
0.0
  0
LINE
  5
3B6
  8
0
 10
42.582057314342819
 20
188.51433743823441
 30
0.0
 11
42.582057314342819
 21
185.21433743823439
 31
0.0
  0
LINE
  5
3B7
  8
0
 10
42.582057314342819
 20
188.51433743823441
 30
0.0
 11
43.082057314342819
 21
189.01433743823441
 31
0.0
  0
LINE
  5
3B8
  8
0
 10
82.582057314342819
 20
188.51433743823441
 30
0.0
 11
82.082057314342805
 21
189.01433743823441
 31
0.0
  0
LINE
  5
3B9
  8
0
 10
73.982341314342818
 20
181.51433743823441
 30
0.0
 11
51.181773314342813
 21
181.51433743823441
 31
0.0
  0
LINE
  5
3BA
  8
0
 10
82.582057314342819
 20
188.51433743823441
 30
0.0
 11
82.582057314342819
 21
185.21433743823439
 31
0.0
  0
LINE
  5
3BC
  8
2
 10
51.082057314342812
 20
177.5136854382344
 30
0.0
 11
74.082057314342819
 21
177.5136854382344
 31
0.0
  0
LINE
  5
3BD
  8
2
 10
51.082057314342812
 20
181.46589343823439
 30
0.0
 11
74.082057314342819
 21
181.46589343823439
 31
0.0
  0
LINE
  5
3BE
  8
2
 10
51.082057314342812
 20
177.5136854382344
 30
0.0
 11
50.582057314342819
 21
177.0136854382344
 31
0.0
  0
LINE
  5
3BF
  8
2
 10
51.082057314342812
 20
181.46589343823439
 30
0.0
 11
51.082057314342812
 21
177.5136854382344
 31
0.0
  0
LINE
  5
3C0
  8
2
 10
44.082057314342812
 20
184.0136854382344
 30
0.0
 11
51.082057314342812
 21
181.46589343823439
 31
0.0
  0
LINE
  5
3C1
  8
2
 10
74.082057314342819
 20
177.5136854382344
 30
0.0
 11
74.582057314342819
 21
177.0136854382344
 31
0.0
  0
LINE
  5
3C2
  8
2
 10
74.082057314342819
 20
181.46589343823439
 30
0.0
 11
74.082057314342819
 21
177.5136854382344
 31
0.0
  0
LINE
  5
3C3
  8
2
 10
81.082057314342805
 20
184.0136854382344
 30
0.0
 11
74.082057314342819
 21
181.46589343823439
 31
0.0
  0
LINE
  5
3C4
  8
0
 10
42.582057314342819
 20
183.5136854382344
 30
0.0
 11
43.082057314342819
 21
184.0136854382344
 31
0.0
  0
LINE
  5
3C5
  8
0
 10
43.082057314342819
 20
177.0136854382344
 30
0.0
 11
42.582057314342819
 21
177.5136854382344
 31
0.0
  0
LINE
  5
3C6
  8
0
 10
82.582057314342819
 20
183.5136854382344
 30
0.0
 11
82.082057314342805
 21
184.0136854382344
 31
0.0
  0
LINE
  5
3C7
  8
0
 10
82.082057314342805
 20
177.0136854382344
 30
0.0
 11
82.582057314342819
 21
177.5136854382344
 31
0.0
  0
LINE
  5
3C8
  8
0
 10
42.582057314342819
 20
183.5136854382344
 30
0.0
 11
42.582057314342819
 21
177.5136854382344
 31
0.0
  0
LINE
  5
3C9
  8
0
 10
82.582057314342819
 20
177.5136854382344
 30
0.0
 11
82.582057314342819
 21
183.5136854382344
 31
0.0
  0
LINE
  5
3CB
  8
0
 10
82.082057314342805
 20
184.0136854382344
 30
0.0
 11
43.082057314342819
 21
184.0136854382344
 31
0.0
  0
LINE
  5
3CC
  8
0
 10
452.58205731434282
 20
209.88591643823449
 30
0.0
 11
452.58205731434282
 21
207.41368543823449
 31
0.0
  0
ARC
  5
3CD
  8
0
 10
437.18205731434279
 20
189.41433743823441
 30
0.0
 40
0.4
 50
270.0
 51
0.0
  0
LINE
  5
3CE
  8
0
 10
437.58205731434271
 20
210.71433743823439
 30
0.0
 11
437.58205731434271
 21
189.41433743823441
 31
0.0
  0
LINE
  5
3CF
  8
0
 10
466.78205731434281
 20
211.51433743823441
 30
0.0
 11
438.38205731434272
 21
211.51433743823441
 31
0.0
  0
LINE
  5
3D0
  8
0
 10
466.78205731434281
 20
211.51433743823441
 30
0.0
 11
467.58205731434282
 21
210.71433743823439
 31
0.0
  0
LINE
  5
3D1
  8
0
 10
438.38205731434272
 20
211.51433743823441
 30
0.0
 11
437.58205731434271
 21
210.71433743823439
 31
0.0
  0
ARC
  5
3D2
  8
0
 10
445.08205731434282
 20
193.42879543823449
 30
0.0
 40
18.085542
 50
65.499832999997679
 51
114.50016700000231
  0
ARC
  5
3D3
  8
0
 10
460.08205731434282
 20
193.42879543823449
 30
0.0
 40
18.085542
 50
65.499832999997679
 51
114.50016700000231
  0
ARC
  5
3D4
  8
0
 10
467.98207331434281
 20
189.41433743823441
 30
0.0
 40
0.4
 50
180.0
 51
270.0
  0
LINE
  5
3D5
  8
0
 10
467.58207331434272
 20
210.71433743823439
 30
0.0
 11
467.58207331434272
 21
189.41433743823441
 31
0.0
  0
ARC
  5
3D7
  8
0
 10
452.58205731434282
 20
219.85535343823449
 30
0.0
 40
40.0
 50
296.35745206649142
 51
300.0000000000008
  0
ARC
  5
3D8
  8
0
 10
452.58205731434282
 20
219.85535343823449
 30
0.0
 40
40.0
 50
239.99999999999909
 51
243.64254793350861
  0
LINE
  5
3D9
  8
0
 10
472.58205731434282
 20
185.21433743823439
 30
0.0
 11
462.58205731434259
 21
185.21433743823439
 31
0.0
  0
LINE
  5
3DA
  8
0
 10
472.08205731434282
 20
189.01433743823441
 30
0.0
 11
462.58205731434259
 21
189.01433743823449
 31
0.0
  0
LINE
  5
3DB
  8
0
 10
432.58205731434282
 20
188.51433743823441
 30
0.0
 11
432.58205731434282
 21
185.21433743823439
 31
0.0
  0
LINE
  5
3DC
  8
0
 10
432.58205731434282
 20
188.51433743823441
 30
0.0
 11
433.08205731434271
 21
189.01433743823441
 31
0.0
  0
LINE
  5
3DD
  8
0
 10
472.58205731434282
 20
188.51433743823441
 30
0.0
 11
472.08205731434282
 21
189.01433743823441
 31
0.0
  0
LINE
  5
3DF
  8
0
 10
472.58205731434282
 20
188.51433743823441
 30
0.0
 11
472.58205731434282
 21
185.21433743823439
 31
0.0
  0
LINE
  5
3E9
  8
0
 10
432.58205731434282
 20
183.5136854382344
 30
0.0
 11
433.08205731434271
 21
184.0136854382344
 31
0.0
  0
LINE
  5
3EA
  8
0
 10
433.08205731434271
 20
177.0136854382344
 30
0.0
 11
432.58205731434282
 21
177.5136854382344
 31
0.0
  0
LINE
  5
3EB
  8
0
 10
472.58205731434282
 20
183.5136854382344
 30
0.0
 11
472.08205731434282
 21
184.0136854382344
 31
0.0
  0
LINE
  5
3EC
  8
0
 10
472.08205731434282
 20
177.0136854382344
 30
0.0
 11
472.58205731434282
 21
177.5136854382344
 31
0.0
  0
LINE
  5
3ED
  8
0
 10
432.58205731434282
 20
183.5136854382344
 30
0.0
 11
432.58205731434282
 21
177.5136854382344
 31
0.0
  0
LINE
  5
3EE
  8
0
 10
472.58205731434282
 20
177.5136854382344
 30
0.0
 11
472.58205731434282
 21
183.5136854382344
 31
0.0
  0
LINE
  5
3F0
  8
0
 10
472.08205731434282
 20
184.0136854382344
 30
0.0
 11
462.58205731434259
 21
184.01368543823449
 31
0.0
  0
ARC
  5
3F1
  8
0
 10
334.58205731434282
 20
302.01368543823452
 30
0.0
 40
20.0
 50
323.13010235415601
 51
36.869897645843949
  0
LINE
  5
44B
  8
0
 10
72.582057314342819
 20
152.0136854382344
 30
0.0
 11
72.582057314342819
 21
114.0136854382344
 31
0.0
  0
LINE
  5
44C
  8
0
 10
52.58205731434284
 20
211.51433743823441
 30
0.0
 11
52.582057314342819
 21
229.51368543823449
 31
0.0
  0
LINE
  5
44D
  8
0
 10
72.582057314342819
 20
102.0136854382344
 30
0.0
 11
72.582057314342819
 21
74.513685438234461
 31
0.0
  0
LINE
  5
44E
  8
3
 10
71.332057314342819
 20
114.0136854382344
 30
0.0
 11
71.332057314342819
 21
122.0136854382344
 31
0.0
  0
LINE
  5
44F
  8
3
 10
53.832057314342819
 20
114.0136854382344
 30
0.0
 11
53.832057314342819
 21
122.0136854382344
 31
0.0
  0
LINE
  5
450
  8
0
 10
52.582057314342819
 20
114.0136854382344
 30
0.0
 11
52.582057314342819
 21
152.0136854382344
 31
0.0
  0
LINE
  5
451
  8
3
 10
325.81558431434269
 20
152.0136854382344
 30
0.0
 11
325.8155843143428
 21
120.6811394382344
 31
0.0
  0
LINE
  5
452
  8
0
 10
324.5655843143428
 20
177.0136854382344
 30
0.0
 11
324.5655843143428
 21
204.91368543823441
 31
0.0
  0
LINE
  5
453
  8
0
 10
344.56558431434269
 20
177.0136854382344
 30
0.0
 11
344.5655843143428
 21
204.91368543823441
 31
0.0
  0
LINE
  5
454
  8
3
 10
343.34853031434278
 20
152.0136854382344
 30
0.0
 11
343.34853031434278
 21
120.70016043823441
 31
0.0
  0
LINE
  5
455
  8
0
 10
272.58205731434282
 20
152.0136854382344
 30
0.0
 11
272.58205731434282
 21
114.0136854382344
 31
0.0
  0
LINE
  5
456
  8
0
 10
252.58205731434279
 20
211.51433743823441
 30
0.0
 11
252.58205731434279
 21
229.51368543823449
 31
0.0
  0
LINE
  5
457
  8
0
 10
272.58205731434282
 20
102.0136854382344
 30
0.0
 11
272.58205731434282
 21
74.513685438234461
 31
0.0
  0
LINE
  5
458
  8
3
 10
271.33205731434282
 20
114.0136854382344
 30
0.0
 11
271.33205731434282
 21
122.0136854382344
 31
0.0
  0
LINE
  5
459
  8
3
 10
253.83205731434279
 20
114.0136854382344
 30
0.0
 11
253.83205731434279
 21
122.0136854382344
 31
0.0
  0
LINE
  5
45A
  8
0
 10
252.58205731434279
 20
114.0136854382344
 30
0.0
 11
252.58205731434279
 21
152.0136854382344
 31
0.0
  0
LINE
  5
498
  8
0
 10
462.58205731434271
 20
152.0136854382344
 30
0.0
 11
462.58205731434271
 21
118.0136854382344
 31
0.0
  0
LINE
  5
499
  8
0
 10
462.58205731434259
 20
177.0136854382344
 30
0.0
 11
462.58205731434259
 21
204.91368543823441
 31
0.0
  0
LINE
  5
49A
  8
3
 10
461.34853031434278
 20
152.01368543823449
 30
0.0
 11
461.34853031434278
 21
120.70016043823441
 31
0.0
  0
LINE
  5
49B
  8
3
 10
443.83205731434259
 20
152.0136854382344
 30
0.0
 11
443.83205731434259
 21
120.6811394382344
 31
0.0
  0
LINE
  5
49C
  8
0
 10
442.58205731434282
 20
211.51433743823441
 30
0.0
 11
442.58205731434282
 21
229.51368543823449
 31
0.0
  0
LINE
  5
49D
  8
0
 10
442.58205731434259
 20
177.0136854382344
 30
0.0
 11
442.58205731434259
 21
204.91368543823441
 31
0.0
  0
LINE
  5
4A5
  8
0
 10
442.58205731434259
 20
184.0136854382344
 30
0.0
 11
433.08205731434271
 21
184.0136854382344
 31
0.0
  0
LINE
  5
4A6
  8
0
 10
442.58205731434248
 20
185.21433743823439
 30
0.0
 11
432.58205731434282
 21
185.21433743823439
 31
0.0
  0
LINE
  5
4A7
  8
0
 10
442.58205731434259
 20
189.01433743823449
 30
0.0
 11
433.08205731434271
 21
189.01433743823441
 31
0.0
  0
LINE
  5
4A8
  8
3
 10
443.83205731434271
 20
118.0136854382344
 30
0.0
 11
443.83205731434259
 21
120.68113949180589
 31
0.0
  0
LINE
  5
4A9
  8
0
 10
442.58205731434282
 20
118.0136854382344
 30
0.0
 11
442.58205731434282
 21
152.0136854382344
 31
0.0
  0
LINE
  5
4AA
  8
0
 10
462.58205731434271
 20
102.0136854382344
 30
0.0
 11
462.58205731434271
 21
74.513685438234461
 31
0.0
  0
LINE
  5
4AB
  8
3
 10
461.34853031434272
 20
118.0136854382344
 30
0.0
 11
461.34853031434272
 21
120.6906501842391
 31
0.0
  0
TEXT
  5
58E
  8
0
 62
     3
 10
0.0
 20
0.0
 30
0.0
 40
10.0
  1
BJ153-20200B1
  7
STANDARD1
  0
ENDSEC
  0
EOF
