  0
SECTION
  2
HEADER
  9
$ACADVER
  1
AC1009
  9
$INSBASE
 10
82.638099999999994
 20
103.82319099999999
 30
0.0
  9
$EXTMIN
 10
0.0
 20
-2.960436562073669
 30
0.0
  9
$EXTMAX
 10
289.5
 20
216.0
 30
0.0
  9
$LIMMIN
 10
0.0
 20
0.0
  9
$LIMMAX
 10
375.0
 20
270.0
  9
$ORTHOMODE
 70
     1
  9
$REGENMODE
 70
     1
  9
$FILLMODE
 70
     1
  9
$QTEXTMODE
 70
     0
  9
$MIRRTEXT
 70
     0
  9
$DRAGMODE
 70
     2
  9
$LTSCALE
 40
10.0
  9
$OSMODE
 70
  3071
  9
$ATTMODE
 70
     1
  9
$TEXTSIZE
 40
0.06
  9
$TRACEWID
 40
0.05
  9
$TEXTSTYLE
  7
STANDARD
  9
$CLAYER
  8
0
  9
$CELTYPE
  6
BYLAYER
  9
$CECOLOR
 62
   256
  9
$DIMSCALE
 40
1.0
  9
$DIMASZ
 40
3.0
  9
$DIMEXO
 40
2.0
  9
$DIMDLI
 40
10.0
  9
$DIMRND
 40
0.0
  9
$DIMDLE
 40
0.0
  9
$DIMEXE
 40
2.0
  9
$DIMTP
 40
0.0
  9
$DIMTM
 40
0.0
  9
$DIMTXT
 40
3.0
  9
$DIMCEN
 40
0.0
  9
$DIMTSZ
 40
0.0
  9
$DIMTOL
 70
     0
  9
$DIMLIM
 70
     0
  9
$DIMTIH
 70
     0
  9
$DIMTOH
 70
     0
  9
$DIMSE1
 70
     0
  9
$DIMSE2
 70
     0
  9
$DIMTAD
 70
     1
  9
$DIMZIN
 70
     0
  9
$DIMBLK
  1

  9
$DIMASO
 70
     0
  9
$DIMSHO
 70
     0
  9
$DIMPOST
  1

  9
$DIMAPOST
  1

  9
$DIMALT
 70
     0
  9
$DIMALTD
 70
     2
  9
$DIMALTF
 40
25.399999999999999
  9
$DIMLFAC
 40
1.0
  9
$DIMTOFL
 70
     1
  9
$DIMTVP
 40
1.6000000000000001
  9
$DIMTIX
 70
     1
  9
$DIMSOXD
 70
     0
  9
$DIMSAH
 70
     0
  9
$DIMBLK1
  1

  9
$DIMBLK2
  1

  9
$DIMSTYLE
  2
STANDARD
  9
$DIMCLRD
 70
     0
  9
$DIMCLRE
 70
     0
  9
$DIMCLRT
 70
     0
  9
$DIMTFAC
 40
1.0
  9
$DIMGAP
 40
0.09
  9
$LUNITS
 70
     2
  9
$LUPREC
 70
     4
  9
$SKETCHINC
 40
0.1
  9
$FILLETRAD
 40
0.0
  9
$AUNITS
 70
     0
  9
$AUPREC
 70
     4
  9
$MENU
  1
E:\r13\win\SUPPORT\ACAD
  9
$ELEVATION
 40
0.0
  9
$PELEVATION
 40
0.0
  9
$THICKNESS
 40
0.0
  9
$LIMCHECK
 70
     0
  9
$BLIPMODE
 70
     0
  9
$CHAMFERA
 40
0.0
  9
$CHAMFERB
 40
0.0
  9
$SKPOLY
 70
     0
  9
$TDCREATE
 40
2449840.3486342588
  9
$TDUPDATE
 40
2456597.6465597921
  9
$TDINDWG
 40
0.0001063542
  9
$TDUSRTIMER
 40
0.0001063542
  9
$USRTIMER
 70
     1
  9
$ANGBASE
 50
0.0
  9
$ANGDIR
 70
     0
  9
$PDMODE
 70
     1
  9
$PDSIZE
 40
0.0
  9
$PLINEWID
 40
0.0
  9
$COORDS
 70
     1
  9
$SPLFRAME
 70
     0
  9
$SPLINETYPE
 70
     6
  9
$SPLINESEGS
 70
     8
  9
$ATTDIA
 70
     0
  9
$ATTREQ
 70
     1
  9
$HANDLING
 70
     1
  9
$HANDSEED
  5
35E
  9
$SURFTAB1
 70
     6
  9
$SURFTAB2
 70
     6
  9
$SURFTYPE
 70
     6
  9
$SURFU
 70
     6
  9
$SURFV
 70
     6
  9
$UCSNAME
  2

  9
$UCSORG
 10
0.0
 20
0.0
 30
0.0
  9
$UCSXDIR
 10
1.0
 20
0.0
 30
0.0
  9
$UCSYDIR
 10
0.0
 20
1.0
 30
0.0
  9
$PUCSNAME
  2

  9
$PUCSORG
 10
0.0
 20
0.0
 30
0.0
  9
$PUCSXDIR
 10
1.0
 20
0.0
 30
0.0
  9
$PUCSYDIR
 10
0.0
 20
1.0
 30
0.0
  9
$USERI1
 70
     3
  9
$USERI2
 70
     1
  9
$USERI3
 70
     0
  9
$USERI4
 70
     0
  9
$USERI5
 70
     0
  9
$USERR1
 40
1.0
  9
$USERR2
 40
3.0
  9
$USERR3
 40
3.0
  9
$USERR4
 40
3.0
  9
$USERR5
 40
10.0
  9
$WORLDVIEW
 70
     1
  9
$SHADEDGE
 70
     3
  9
$SHADEDIF
 70
    70
  9
$TILEMODE
 70
     1
  9
$MAXACTVP
 70
    16
  9
$PLIMCHECK
 70
     0
  9
$PEXTMIN
 10
1.0000000000000000E+020
 20
1.0000000000000000E+020
 30
1.0000000000000000E+020
  9
$PEXTMAX
 10
-1.0000000000000000E+020
 20
-1.0000000000000000E+020
 30
-1.0000000000000000E+020
  9
$PLIMMIN
 10
0.0
 20
0.0
  9
$PLIMMAX
 10
12.0
 20
9.0
  9
$UNITMODE
 70
     0
  9
$VISRETAIN
 70
     0
  9
$PLINEGEN
 70
     0
  9
$PSLTSCALE
 70
     0
  0
ENDSEC
  0
SECTION
  2
TABLES
  0
TABLE
  2
VPORT
 70
     1
  0
VPORT
  2
*ACTIVE
 70
     0
 10
0.0
 20
0.0
 11
1.0
 21
1.0
 12
195.0581083320873
 22
133.5127261426681
 13
0.0
 23
0.0
 14
5.0
 24
5.0
 15
10.0
 25
10.0
 16
0.0
 26
0.0
 36
1.0
 17
0.0
 27
0.0
 37
0.0
 40
275.42274993631997
 41
1.831871345029239
 42
50.0
 43
0.0
 44
0.0
 50
0.0
 51
0.0
 71
     0
 72
   100
 73
     1
 74
     0
 75
     1
 76
     0
 77
     0
 78
     0
  0
ENDTAB
  0
TABLE
  2
LTYPE
 70
     4
  0
LTYPE
  2
CONTINUOUS
 70
     0
  3
Solid Line
 72
    65
 73
     0
 40
0.0
  0
LTYPE
  2
CENTER
 70
     0
  3
____ _ ____ _ ____ _ ____ _ ____ _ ____ _ ____
 72
    65
 73
     4
 40
2.0
 49
1.25
 49
-0.25
 49
0.25
 49
-0.25
  0
LTYPE
  2
HIDDEN
 70
     0
  3
__ __ __ __ __ __ __ __ __ __ __ __ __ __ __ __
 72
    65
 73
     2
 40
0.375
 49
0.25
 49
-0.125
  0
LTYPE
  2
PHANTOM2
 70
     0
  3
___ _ _ ___ _ _ ___ _ _ ___ _ _
 72
    65
 73
     6
 40
1.25
 49
0.625
 49
-0.125
 49
0.125
 49
-0.125
 49
0.125
 49
-0.125
  0
ENDTAB
  0
TABLE
  2
LAYER
 70
     4
  0
LAYER
  2
0
 70
     0
 62
     7
  6
CONTINUOUS
  0
LAYER
  2
1
 70
     0
 62
     1
  6
CENTER
  0
LAYER
  2
2
 70
     0
 62
     2
  6
HIDDEN
  0
LAYER
  2
3
 70
     0
 62
     3
  6
CONTINUOUS
  0
ENDTAB
  0
TABLE
  2
STYLE
 70
     2
  0
STYLE
  2
STANDARD
 70
     0
 40
0.0
 41
1.0
 50
0.0
 71
     0
 42
0.06
  3
TXT
  4
BIGFONT
  0
STYLE
  2
STANDARD1
 70
     0
 40
0.0
 41
1.0
 50
0.0
 71
     0
 42
3.0
  3
txt
  4

  0
ENDTAB
  0
TABLE
  2
VIEW
 70
     0
  0
ENDTAB
  0
TABLE
  2
UCS
 70
     0
  0
ENDTAB
  0
TABLE
  2
APPID
 70
     3
  0
APPID
  2
ACAD
 70
     0
  0
APPID
  2
ACAD_MLEADERVER
 70
     0
  0
APPID
  2
ACAD_NAV_VCDISPLAY
 70
     0
  0
ENDTAB
  0
TABLE
  2
DIMSTYLE
 70
     1
  0
DIMSTYLE
  2
STANDARD
 70
     0
  3

  4

  5

  6

  7

 40
1.0
 41
0.18
 42
0.0625
 43
0.38
 44
0.18
 45
0.0
 46
0.0
 47
0.0
 48
0.0
140
0.18
141
0.09
142
0.0
143
25.399999999999999
144
1.0
145
0.0
146
1.0
147
0.09
 71
     0
 72
     0
 73
     1
 74
     1
 75
     0
 76
     0
 77
     0
 78
     0
170
     0
171
     2
172
     0
173
     0
174
     0
175
     0
176
     0
177
     0
178
     0
  0
ENDTAB
  0
ENDSEC
  0
SECTION
  2
BLOCKS
  0
BLOCK
  8
0
  2
$MODEL_SPACE
 70
     0
 10
0.0
 20
0.0
 30
0.0
  3
$MODEL_SPACE
  1

  0
ENDBLK
  5
216
  8
0
  0
BLOCK
 67
     1
  8
0
  2
$PAPER_SPACE
 70
     0
 10
0.0
 20
0.0
 30
0.0
  3
$PAPER_SPACE
  1

  0
ENDBLK
  5
214
 67
     1
  8
0
  0
BLOCK
  8
0
  2
STDGX5
 70
     0
 10
0.0
 20
0.0
 30
0.0
  3
STDGX5
  1

  0
ENDBLK
  5
3F
  8
0
  0
BLOCK
  8
0
  2
B741018B
 70
     0
 10
0.0
 20
0.0
 30
0.0
  3
B741018B
  1

  0
ARC
  5
4C
  8
0
 10
5.4375
 20
9.0
 30
0.0
 40
3.0256219999999998
 50
53.198082999999997
 51
53.198082999999997
  0
LINE
  5
4D
  8
0
 10
7.25
 20
11.422650000000001
 30
0.0
 11
6.25
 21
12.0
 31
0.0
  0
LINE
  5
4E
  8
0
 10
-7.25
 20
11.422650000000001
 30
0.0
 11
-6.25
 21
12.0
 31
0.0
  0
ARC
  5
4F
  8
0
 10
-5.4375
 20
9.0
 30
0.0
 40
3.0256219999999998
 50
53.198082999999997
 51
113.198083
  0
ARC
  5
50
  8
0
 10
-5.4375
 20
9.0
 30
0.0
 40
3.0256219999999998
 50
126.801917
 51
126.801917
  0
LINE
  5
51
  8
0
 10
-6.25
 20
12.0
 30
0.0
 11
6.25
 21
12.0
 31
0.0
  0
LINE
  5
52
  8
0
 10
7.25
 20
11.422650000000001
 30
0.0
 11
7.25
 21
3.8999999999999999
 31
0.0
  0
LINE
  5
53
  8
0
 10
9.0
 20
3.0
 30
0.0
 11
9.0
 21
1.7
 31
0.0
  0
LINE
  5
54
  8
0
 10
-3.625
 20
11.422650000000001
 30
0.0
 11
-3.625
 21
3.5
 31
0.0
  0
LINE
  5
55
  8
0
 10
-9.0
 20
3.0
 30
0.0
 11
-9.0
 21
1.7
 31
0.0
  0
LINE
  5
56
  8
0
 10
-8.5
 20
3.5
 30
0.0
 11
8.5
 21
3.5
 31
0.0
  0
ARC
  5
57
  8
0
 10
0.0
 20
0.33121
 30
0.0
 40
11.66879
 50
90.0
 51
108.098873
  0
LINE
  5
58
  8
1
 10
0.0
 20
17.0
 30
0.0
 11
0.0
 21
-5.0
 31
0.0
  0
ARC
  5
59
  8
0
 10
7.6500000000000004
 20
3.8999999999999999
 30
0.0
 40
0.4
 50
180.0
 51
270.0
  0
LINE
  5
5A
  8
0
 10
-7.25
 20
11.422650000000001
 30
0.0
 11
-7.25
 21
3.8999999999999999
 31
0.0
  0
ARC
  5
5B
  8
0
 10
-7.6500000000000004
 20
3.8999999999999999
 30
0.0
 40
0.4
 50
270.0
 51
0.0
  0
LINE
  5
5C
  8
0
 10
9.0
 20
3.0
 30
0.0
 11
8.5
 21
3.5
 31
0.0
  0
LINE
  5
5D
  8
0
 10
-8.5
 20
3.5
 30
0.0
 11
-9.0
 21
3.0
 31
0.0
  0
ARC
  5
5E
  8
0
 10
0.0
 20
21.699999999999999
 30
0.0
 40
21.931712000000001
 50
278.33602300000001
 51
294.22774500000003
  0
LINE
  5
5F
  8
0
 10
3.179622999999999
 20
0.0
 30
0.0
 11
-3.179622999999999
 21
0.0
 31
0.0
  0
ARC
  5
60
  8
0
 10
0.0
 20
21.699999999999999
 30
0.0
 40
21.931712000000001
 50
245.772255
 51
261.66397699999999
  0
LINE
  5
61
  8
0
 10
-9.0
 20
1.7
 30
0.0
 11
9.0
 21
1.7
 31
0.0
  0
ARC
  5
62
  8
0
 10
0.0
 20
0.33121
 30
0.0
 40
11.66879
 50
71.901127000000002
 51
90.0
  0
LINE
  5
63
  8
0
 10
3.625
 20
11.422650000000001
 30
0.0
 11
3.625
 21
3.5
 31
0.0
  0
ARC
  5
64
  8
0
 10
5.4375
 20
9.0
 30
0.0
 40
3.0256219999999998
 50
66.801917000000003
 51
126.801917
  0
ENDBLK
  5
65
  8
0
  0
BLOCK
  8
0
  2
598B
 70
     0
 10
65.0
 20
37.991007000000003
 30
0.0
  3
598B
  1

  0
LINE
  5
67
  8
1
 10
65.0
 20
43.991007000000003
 30
0.0
 11
65.0
 21
34.991007000000003
 31
0.0
  0
LINE
  5
68
  8
2
 10
60.25
 20
38.49100700000001
 30
0.0
 11
69.75
 21
38.49100700000001
 31
0.0
  0
LINE
  5
69
  8
2
 10
60.25
 20
39.717111000000003
 30
0.0
 11
69.75
 21
39.717111000000003
 31
0.0
  0
LINE
  5
6A
  8
2
 10
60.25
 20
38.49100700000001
 30
0.0
 11
59.75
 21
37.991007000000003
 31
0.0
  0
LINE
  5
6B
  8
2
 10
60.25
 20
39.717111000000003
 30
0.0
 11
60.25
 21
38.49100700000001
 31
0.0
  0
LINE
  5
6C
  8
2
 10
56.75
 20
40.991007000000003
 30
0.0
 11
60.25
 21
39.717111000000003
 31
0.0
  0
LINE
  5
6D
  8
2
 10
69.75
 20
38.49100700000001
 30
0.0
 11
70.25
 21
37.991007000000003
 31
0.0
  0
LINE
  5
6E
  8
2
 10
69.75
 20
39.717111000000003
 30
0.0
 11
69.75
 21
38.49100700000001
 31
0.0
  0
LINE
  5
6F
  8
2
 10
73.25
 20
40.991007000000003
 30
0.0
 11
69.75
 21
39.717111000000003
 31
0.0
  0
LINE
  5
70
  8
0
 10
74.0
 20
40.491007000000003
 30
0.0
 11
73.5
 21
40.991007000000003
 31
0.0
  0
LINE
  5
71
  8
0
 10
73.5
 20
37.991007000000003
 30
0.0
 11
74.0
 21
38.49100700000001
 31
0.0
  0
LINE
  5
72
  8
0
 10
56.0
 20
38.49100700000001
 30
0.0
 11
56.5
 21
37.991007000000003
 31
0.0
  0
LINE
  5
73
  8
0
 10
56.5
 20
40.991007000000003
 30
0.0
 11
56.0
 21
40.491007000000003
 31
0.0
  0
LINE
  5
74
  8
0
 10
56.0
 20
38.49100700000001
 30
0.0
 11
56.0
 21
40.491007000000003
 31
0.0
  0
LINE
  5
75
  8
0
 10
73.5
 20
37.991007000000003
 30
0.0
 11
56.5
 21
37.991007000000003
 31
0.0
  0
LINE
  5
76
  8
0
 10
74.0
 20
40.491007000000003
 30
0.0
 11
74.0
 21
38.49100700000001
 31
0.0
  0
LINE
  5
77
  8
0
 10
56.5
 20
40.991007000000003
 30
0.0
 11
73.5
 21
40.991007000000003
 31
0.0
  0
ENDBLK
  5
78
  8
0
  0
BLOCK
  8
0
  2
NM8B
 70
     0
 10
0.0
 20
0.0
 30
0.0
  3
NM8B
  1

  0
LINE
  5
7A
  8
0
 10
-4.2751060000000001
 20
-7.505552999999999
 30
0.0
 11
-0.724894
 21
-7.505552999999999
 31
0.0
  0
LINE
  5
7B
  8
0
 10
0.0
 20
6.25
 30
0.0
 11
0.0
 21
-6.25
 31
0.0
  0
LINE
  5
7C
  8
0
 10
-5.0
 20
-6.25
 30
0.0
 11
-5.0
 21
6.25
 31
0.0
  0
ARC
  5
7D
  8
0
 10
-1.533093
 20
5.6291650000000004
 30
0.0
 40
3.3225699999999989
 50
154.38424699999999
 51
214.38424699999999
  0
LINE
  5
7E
  8
0
 10
-4.2751060000000001
 20
7.505552999999999
 30
0.0
 11
-5.0
 21
6.25
 31
0.0
  0
LINE
  5
7F
  8
0
 10
-0.724894
 20
7.505552999999999
 30
0.0
 11
0.0
 21
6.25
 31
0.0
  0
ARC
  5
80
  8
0
 10
-3.4669069999999991
 20
5.6291650000000004
 30
0.0
 40
3.3225699999999989
 50
325.61575299999998
 51
25.615753000000002
  0
LINE
  5
81
  8
0
 10
-4.2751060000000001
 20
7.505552999999999
 30
0.0
 11
-0.724894
 21
7.505552999999999
 31
0.0
  0
LINE
  5
82
  8
0
 10
-4.2751060000000001
 20
3.7527769999999991
 30
0.0
 11
-0.724894
 21
3.7527769999999991
 31
0.0
  0
LINE
  5
83
  8
0
 10
-4.2751060000000001
 20
-3.7527769999999991
 30
0.0
 11
-0.724894
 21
-3.7527769999999991
 31
0.0
  0
ARC
  5
84
  8
0
 10
-12.563781000000001
 20
0.0
 30
0.0
 40
12.419442999999999
 50
342.41204599999998
 51
17.587954
  0
ARC
  5
85
  8
0
 10
-3.4669069999999991
 20
-5.6291650000000004
 30
0.0
 40
3.3225699999999989
 50
334.38424700000002
 51
34.384247000000002
  0
LINE
  5
86
  8
0
 10
-0.724894
 20
-7.505552999999999
 30
0.0
 11
0.0
 21
-6.25
 31
0.0
  0
LINE
  5
87
  8
0
 10
-4.2751060000000001
 20
-7.505552999999999
 30
0.0
 11
-5.0
 21
-6.25
 31
0.0
  0
ARC
  5
88
  8
0
 10
7.5637809999999988
 20
0.0
 30
0.0
 40
12.419442999999999
 50
162.412046
 51
197.587954
  0
ARC
  5
89
  8
0
 10
-1.533093
 20
-5.6291650000000004
 30
0.0
 40
3.3225699999999989
 50
145.61575300000001
 51
205.61575300000001
  0
ENDBLK
  5
8A
  8
0
  0
BLOCK
  8
0
  2
B740018A
 70
     0
 10
0.0
 20
0.0
 30
0.0
  3
B740018A
  1

  0
LINE
  5
8C
  8
1
 10
0.0
 20
16.0
 30
0.0
 11
0.0
 21
-16.0
 31
0.0
  0
LINE
  5
8D
  8
1
 10
16.0
 20
0.0
 30
0.0
 11
-16.0
 21
0.0
 31
0.0
  0
CIRCLE
  5
8E
  8
0
 10
0.0
 20
0.0
 30
0.0
 40
9.0
  0
CIRCLE
  5
8F
  8
0
 10
0.0
 20
0.0
 30
0.0
 40
3.399999999999999
  0
CIRCLE
  5
90
  8
3
 10
0.0
 20
0.0
 30
0.0
 40
4.0
  0
LINE
  5
91
  8
0
 10
4.0235110000000001
 20
-6.0310739999999994
 30
0.0
 11
7.234818999999999
 21
-0.468926
 31
0.0
  0
LINE
  5
92
  8
0
 10
7.234818999999999
 20
0.468926
 30
0.0
 11
4.0235110000000001
 21
6.0310739999999994
 31
0.0
  0
LINE
  5
93
  8
0
 10
3.2113079999999998
 20
6.5
 30
0.0
 11
-3.2113079999999998
 21
6.5
 31
0.0
  0
LINE
  5
94
  8
0
 10
-4.0235110000000001
 20
6.0310739999999994
 30
0.0
 11
-7.234818999999999
 21
0.468926
 31
0.0
  0
LINE
  5
95
  8
0
 10
-7.234818999999999
 20
-0.468926
 30
0.0
 11
-4.0235110000000001
 21
-6.0310739999999994
 31
0.0
  0
LINE
  5
96
  8
0
 10
-3.2113079999999998
 20
-6.5
 30
0.0
 11
3.2113079999999998
 21
-6.5
 31
0.0
  0
ARC
  5
97
  8
0
 10
0.0
 20
0.0
 30
0.0
 40
7.25
 50
56.291555000000002
 51
63.708444999999998
  0
ARC
  5
98
  8
0
 10
0.0
 20
0.0
 30
0.0
 40
7.25
 50
116.291555
 51
123.708445
  0
ARC
  5
99
  8
0
 10
0.0
 20
0.0
 30
0.0
 40
7.25
 50
176.29155499999999
 51
183.70844500000001
  0
ARC
  5
9A
  8
0
 10
0.0
 20
0.0
 30
0.0
 40
7.25
 50
236.29155499999999
 51
243.70844500000001
  0
ARC
  5
9B
  8
0
 10
0.0
 20
0.0
 30
0.0
 40
7.25
 50
296.2915549999999
 51
303.70844499999998
  0
ARC
  5
9C
  8
0
 10
0.0
 20
0.0
 30
0.0
 40
7.25
 50
356.29155500000002
 51
3.7084450000000002
  0
CIRCLE
  5
9D
  8
0
 10
0.0
 20
0.0
 30
0.0
 40
6.25
  0
ENDBLK
  5
9E
  8
0
  0
BLOCK
  8
0
  2
B741018C
 70
     0
 10
0.0
 20
0.0
 30
0.0
  3
B741018C
  1

  0
ARC
  5
A0
  8
0
 10
6.8999689999999996
 20
3.8999999999999999
 30
0.0
 40
0.4
 50
180.0
 51
270.0
  0
LINE
  5
A1
  8
0
 10
-0.000031
 20
11.275105999999999
 30
0.0
 11
-0.000031
 21
7.724893999999999
 31
0.0
  0
ARC
  5
A2
  8
0
 10
3.2499689999999992
 20
4.3520059999999994
 30
0.0
 40
7.6479939999999997
 50
64.852624000000006
 51
115.14737599999999
  0
ARC
  5
A3
  8
0
 10
-3.2500309999999999
 20
4.3520059999999994
 30
0.0
 40
7.6479939999999997
 50
64.852624000000006
 51
115.14737599999999
  0
LINE
  5
A4
  8
0
 10
6.0999689999999998
 20
12.0
 30
0.0
 11
6.4999690000000001
 21
11.6
 31
0.0
  0
LINE
  5
A5
  8
0
 10
-6.1000309999999986
 20
12.0
 30
0.0
 11
-6.500030999999999
 21
11.6
 31
0.0
  0
LINE
  5
A6
  8
0
 10
6.0999689999999998
 20
12.0
 30
0.0
 11
-6.1000309999999986
 21
12.0
 31
0.0
  0
LINE
  5
A7
  8
0
 10
6.4999690000000001
 20
3.8999999999999999
 30
0.0
 11
6.4999690000000001
 21
11.6
 31
0.0
  0
LINE
  5
A8
  8
0
 10
-0.000031
 20
11.275105999999999
 30
0.0
 11
-0.000031
 21
3.5
 31
0.0
  0
LINE
  5
A9
  8
0
 10
-6.500036999999999
 20
3.8999999999999999
 30
0.0
 11
-6.500036999999999
 21
11.6
 31
0.0
  0
ARC
  5
AA
  8
0
 10
-6.9000369999999993
 20
3.8999999999999999
 30
0.0
 40
0.4
 50
270.0
 51
0.0
  0
LINE
  5
AB
  8
0
 10
9.0
 20
3.0
 30
0.0
 11
9.0
 21
1.7
 31
0.0
  0
LINE
  5
AC
  8
0
 10
-9.0
 20
3.0
 30
0.0
 11
-9.0
 21
1.7
 31
0.0
  0
LINE
  5
AD
  8
0
 10
-8.5
 20
3.5
 30
0.0
 11
8.5
 21
3.5
 31
0.0
  0
LINE
  5
AE
  8
1
 10
0.0
 20
17.0
 30
0.0
 11
0.0
 21
-5.0
 31
0.0
  0
LINE
  5
AF
  8
0
 10
9.0
 20
3.0
 30
0.0
 11
8.5
 21
3.5
 31
0.0
  0
LINE
  5
B0
  8
0
 10
-8.5
 20
3.5
 30
0.0
 11
-9.0
 21
3.0
 31
0.0
  0
ARC
  5
B1
  8
0
 10
0.0
 20
21.699999999999999
 30
0.0
 40
21.931712000000001
 50
278.33602300000001
 51
294.22774500000003
  0
LINE
  5
B2
  8
0
 10
3.179622999999999
 20
0.0
 30
0.0
 11
-3.179622999999999
 21
0.0
 31
0.0
  0
ARC
  5
B3
  8
0
 10
0.0
 20
21.699999999999999
 30
0.0
 40
21.931712000000001
 50
245.772255
 51
261.66397699999999
  0
LINE
  5
B4
  8
0
 10
-9.0
 20
1.7
 30
0.0
 11
9.0
 21
1.7
 31
0.0
  0
ENDBLK
  5
B5
  8
0
  0
BLOCK
  8
0
  2
NM8C
 70
     0
 10
0.0
 20
0.0
 30
0.0
  3
NM8C
  1

  0
LINE
  5
B7
  8
0
 10
6.5
 20
4.8556619999999997
 30
0.0
 11
6.25
 21
5.0
 31
0.0
  0
ARC
  5
B8
  8
0
 10
3.25
 20
-4.5314899999999989
 30
0.0
 40
9.3871520000000004
 50
69.743842000000001
 51
110.256158
  0
ARC
  5
B9
  8
0
 10
3.25
 20
9.5314899999999998
 30
0.0
 40
9.3871520000000004
 50
249.743842
 51
290.25615800000003
  0
LINE
  5
BA
  8
0
 10
6.5
 20
0.144338
 30
0.0
 11
6.25
 21
0.0
 31
0.0
  0
LINE
  5
BB
  8
0
 10
6.5
 20
4.8556619999999997
 30
0.0
 11
6.5
 21
0.144338
 31
0.0
  0
LINE
  5
BC
  8
0
 10
0.0
 20
4.2751060000000001
 30
0.0
 11
0.0
 21
0.724894
 31
0.0
  0
LINE
  5
BD
  8
0
 10
-6.5
 20
4.8556619999999997
 30
0.0
 11
-6.5
 21
0.144338
 31
0.0
  0
LINE
  5
BE
  8
0
 10
-6.5
 20
0.144338
 30
0.0
 11
-6.25
 21
0.0
 31
0.0
  0
ARC
  5
BF
  8
0
 10
-3.25
 20
9.5314899999999998
 30
0.0
 40
9.3871520000000004
 50
249.743842
 51
290.25615800000003
  0
ARC
  5
C0
  8
0
 10
-3.25
 20
-4.5314899999999989
 30
0.0
 40
9.3871520000000004
 50
69.743842000000001
 51
110.256158
  0
LINE
  5
C1
  8
0
 10
-6.5
 20
4.8556619999999997
 30
0.0
 11
-6.25
 21
5.0
 31
0.0
  0
LINE
  5
C2
  8
0
 10
-6.25
 20
5.0
 30
0.0
 11
6.25
 21
5.0
 31
0.0
  0
LINE
  5
C3
  8
0
 10
6.25
 20
0.0
 30
0.0
 11
-6.25
 21
0.0
 31
0.0
  0
ENDBLK
  5
C4
  8
0
  0
BLOCK
  8
0
  2
B739018C
 70
     0
 10
0.0
 20
0.0
 30
0.0
  3
B739018C
  1

  0
INSERT
  5
C6
  8
0
  2
598B
 10
0.0
 20
0.0
 30
0.0
  0
INSERT
  5
C7
  8
0
  2
B741018C
 10
0.0
 20
1.6317479999999991
 30
0.0
  0
ENDBLK
  5
C8
  8
0
  0
BLOCK
  8
0
  2
B739018B
 70
     0
 10
0.0
 20
0.0
 30
0.0
  3
B739018B
  1

  0
INSERT
  5
CA
  8
0
  2
598B
 10
0.0
 20
0.0
 30
0.0
  0
INSERT
  5
CB
  8
0
  2
B741018B
 10
0.0
 20
1.6317479999999991
 30
0.0
  0
ENDBLK
  5
CC
  8
0
  0
BLOCK
  8
0
  2
B746018A
 70
     0
 10
0.0
 20
0.0
 30
0.0
  3
B746018A
  1

  0
LINE
  5
CE
  8
0
 10
-1.1547009999999991
 20
-2.0
 30
0.0
 11
1.1547009999999991
 21
-2.0
 31
0.0
  0
LINE
  5
CF
  8
0
 10
1.1547009999999991
 20
-2.0
 30
0.0
 11
2.3094009999999989
 21
0.0
 31
0.0
  0
LINE
  5
D0
  8
0
 10
2.3094009999999989
 20
0.0
 30
0.0
 11
1.1547009999999991
 21
2.0
 31
0.0
  0
LINE
  5
D1
  8
0
 10
1.1547009999999991
 20
2.0
 30
0.0
 11
-1.1547009999999991
 21
2.0
 31
0.0
  0
LINE
  5
D2
  8
0
 10
-1.1547009999999991
 20
2.0
 30
0.0
 11
-2.3094009999999989
 21
0.0
 31
0.0
  0
LINE
  5
D3
  8
0
 10
-2.3094009999999989
 20
0.0
 30
0.0
 11
-1.1547009999999991
 21
-2.0
 31
0.0
  0
LINE
  5
D4
  8
1
 10
0.0
 20
10.5
 30
0.0
 11
0.0
 21
-10.5
 31
0.0
  0
LINE
  5
D5
  8
1
 10
10.5
 20
0.0
 30
0.0
 11
-10.5
 21
0.0
 31
0.0
  0
CIRCLE
  5
D6
  8
3
 10
0.0
 20
0.0
 30
0.0
 40
3.3235000000000001
  0
CIRCLE
  5
D7
  8
0
 10
0.0
 20
0.0
 30
0.0
 40
4.0
  0
CIRCLE
  5
D8
  8
0
 10
0.0
 20
0.0
 30
0.0
 40
6.0
  0
CIRCLE
  5
D9
  8
0
 10
0.0
 20
0.0
 30
0.0
 40
8.0
  0
ENDBLK
  5
DA
  8
0
  0
BLOCK
  8
0
  2
B745048B
 70
     0
 10
0.0
 20
0.0
 30
0.0
  3
B745048B
  1

  0
LINE
  5
DC
  8
3
 10
-3.399999999999999
 20
32.0
 30
0.0
 11
-3.399999999999999
 21
0.6
 31
0.0
  0
LINE
  5
DD
  8
3
 10
3.399999999999999
 20
32.0
 30
0.0
 11
3.399999999999999
 21
0.6
 31
0.0
  0
LINE
  5
DE
  8
3
 10
4.0
 20
33.039230000000003
 30
0.0
 11
3.399999999999999
 21
32.0
 31
0.0
  0
LINE
  5
DF
  8
0
 10
-4.0
 20
32.0
 30
0.0
 11
4.0
 21
32.0
 31
0.0
  0
LINE
  5
E0
  8
3
 10
-4.0
 20
33.039230000000003
 30
0.0
 11
-3.399999999999999
 21
32.0
 31
0.0
  0
LINE
  5
E1
  8
1
 10
0.0
 20
105.0
 30
0.0
 11
0.0
 21
-5.0
 31
0.0
  0
LINE
  5
E2
  8
3
 10
3.399999999999999
 20
68.0
 30
0.0
 11
3.399999999999999
 21
99.400000000000006
 31
0.0
  0
LINE
  5
E3
  8
3
 10
4.0
 20
66.960769999999997
 30
0.0
 11
3.399999999999999
 21
68.0
 31
0.0
  0
LINE
  5
E4
  8
0
 10
-4.0
 20
68.0
 30
0.0
 11
4.0
 21
68.0
 31
0.0
  0
LINE
  5
E5
  8
0
 10
-4.0
 20
98.799999999999997
 30
0.0
 11
4.0
 21
98.799999999999997
 31
0.0
  0
LINE
  5
E6
  8
0
 10
-4.0
 20
1.1999999999999991
 30
0.0
 11
4.0
 21
1.1999999999999991
 31
0.0
  0
LINE
  5
E7
  8
0
 10
2.7999999999999989
 20
0.0
 30
0.0
 11
4.0
 21
1.1999999999999991
 31
0.0
  0
LINE
  5
E8
  8
0
 10
-4.0
 20
1.1999999999999991
 30
0.0
 11
-2.7999999999999989
 21
0.0
 31
0.0
  0
LINE
  5
E9
  8
0
 10
2.7999999999999989
 20
100.0
 30
0.0
 11
4.0
 21
98.799999999999997
 31
0.0
  0
LINE
  5
EA
  8
0
 10
-4.0
 20
98.799999999999997
 30
0.0
 11
-2.7999999999999989
 21
100.0
 31
0.0
  0
LINE
  5
EB
  8
0
 10
4.0
 20
98.799999999999997
 30
0.0
 11
4.0
 21
1.1999999999999991
 31
0.0
  0
LINE
  5
EC
  8
0
 10
-2.7999999999999989
 20
100.0
 30
0.0
 11
2.7999999999999989
 21
100.0
 31
0.0
  0
LINE
  5
ED
  8
0
 10
-4.0
 20
1.1999999999999991
 30
0.0
 11
-4.0
 21
98.799999999999997
 31
0.0
  0
LINE
  5
EE
  8
0
 10
2.7999999999999989
 20
0.0
 30
0.0
 11
-2.7999999999999989
 21
0.0
 31
0.0
  0
LINE
  5
EF
  8
3
 10
-3.399999999999999
 20
68.0
 30
0.0
 11
-3.399999999999999
 21
99.400000000000006
 31
0.0
  0
LINE
  5
F0
  8
3
 10
-4.0
 20
66.960769999999997
 30
0.0
 11
-3.399999999999999
 21
68.0
 31
0.0
  0
ENDBLK
  5
F1
  8
0
  0
BLOCK
  8
0
  2
B746028B
 70
     0
 10
0.0
 20
0.0
 30
0.0
  3
B746028B
  1

  0
LINE
  5
F3
  8
1
 10
0.0
 20
-2.4894050000000001
 30
0.0
 11
0.0
 21
65.5
 31
0.0
  0
LINE
  5
F4
  8
0
 10
3.0
 20
63.0
 30
0.0
 11
0.0
 21
63.0
 31
0.0
  0
LINE
  5
F5
  8
0
 10
4.0
 20
62.0
 30
0.0
 11
3.0
 21
63.0
 31
0.0
  0
LINE
  5
F6
  8
0
 10
4.0
 20
62.0
 30
0.0
 11
0.0
 21
62.0
 31
0.0
  0
LINE
  5
F7
  8
3
 10
3.25
 20
62.75
 30
0.0
 11
3.25
 21
10.106852999999999
 31
0.0
  0
LINE
  5
F8
  8
0
 10
4.0
 20
10.539866
 30
0.0
 11
4.0
 21
62.0
 31
0.0
  0
LINE
  5
F9
  8
3
 10
-3.25
 20
62.75
 30
0.0
 11
-3.25
 21
10.106852999999999
 31
0.0
  0
LINE
  5
FA
  8
0
 10
-4.0
 20
62.0
 30
0.0
 11
0.0
 21
62.0
 31
0.0
  0
LINE
  5
FB
  8
0
 10
-4.0
 20
62.0
 30
0.0
 11
-3.0
 21
63.0
 31
0.0
  0
LINE
  5
FC
  8
0
 10
-3.0
 20
63.0
 30
0.0
 11
0.0
 21
63.0
 31
0.0
  0
LINE
  5
FD
  8
0
 10
-4.0
 20
10.539866
 30
0.0
 11
-4.0
 21
62.0
 31
0.0
  0
LINE
  5
FE
  8
0
 10
2.7000000000000002
 20
9.7893100000000004
 30
0.0
 11
2.7000000000000002
 21
9.0
 31
0.0
  0
LINE
  5
FF
  8
0
 10
2.7000000000000002
 20
9.7893100000000004
 30
0.0
 11
0.0
 21
9.7893100000000004
 31
0.0
  0
LINE
  5
100
  8
0
 10
4.0
 20
10.539866
 30
0.0
 11
2.7000000000000002
 21
9.7893100000000004
 31
0.0
  0
LINE
  5
101
  8
0
 10
-2.7000000000000002
 20
9.7893100000000004
 30
0.0
 11
-2.7000000000000002
 21
9.0
 31
0.0
  0
LINE
  5
102
  8
0
 10
-2.7000000000000002
 20
9.7893100000000004
 30
0.0
 11
0.0
 21
9.7893100000000004
 31
0.0
  0
LINE
  5
103
  8
0
 10
-4.0
 20
10.539866
 30
0.0
 11
-2.7000000000000002
 21
9.7893100000000004
 31
0.0
  0
LINE
  5
104
  8
0
 10
-4.0
 20
10.539866
 30
0.0
 11
4.0
 21
10.539866
 31
0.0
  0
LINE
  5
105
  8
0
 10
-7.0
 20
4.0
 30
0.0
 11
7.0
 21
4.0
 31
0.0
  0
ARC
  5
106
  8
0
 10
7.0
 20
5.0
 30
0.0
 40
1.0
 50
180.0
 51
270.0
  0
ARC
  5
107
  8
0
 10
-7.0
 20
5.0
 30
0.0
 40
1.0
 50
270.0
 51
360.0
  0
LINE
  5
108
  8
0
 10
7.5
 20
0.0
 30
0.0
 11
8.0
 21
0.5
 31
0.0
  0
LINE
  5
109
  8
0
 10
7.5
 20
4.0
 30
0.0
 11
8.0
 21
3.5
 31
0.0
  0
LINE
  5
10A
  8
0
 10
5.5
 20
9.0
 30
0.0
 11
6.0
 21
8.5
 31
0.0
  0
LINE
  5
10B
  8
0
 10
-6.0
 20
8.5
 30
0.0
 11
-5.5
 21
9.0
 31
0.0
  0
LINE
  5
10C
  8
0
 10
-8.0
 20
3.5
 30
0.0
 11
-7.5
 21
4.0
 31
0.0
  0
LINE
  5
10D
  8
0
 10
-8.0
 20
0.5
 30
0.0
 11
-7.5
 21
0.0
 31
0.0
  0
LINE
  5
10E
  8
0
 10
-8.0
 20
3.5
 30
0.0
 11
-8.0
 21
0.5
 31
0.0
  0
LINE
  5
10F
  8
0
 10
-7.0
 20
4.0
 30
0.0
 11
-7.5
 21
4.0
 31
0.0
  0
LINE
  5
110
  8
0
 10
-6.0
 20
8.5
 30
0.0
 11
-6.0
 21
5.0
 31
0.0
  0
LINE
  5
111
  8
0
 10
5.5
 20
9.0
 30
0.0
 11
-5.5
 21
9.0
 31
0.0
  0
LINE
  5
112
  8
0
 10
6.0
 20
5.0
 30
0.0
 11
6.0
 21
8.5
 31
0.0
  0
LINE
  5
113
  8
0
 10
7.5
 20
4.0
 30
0.0
 11
7.0
 21
4.0
 31
0.0
  0
LINE
  5
114
  8
0
 10
8.0
 20
0.5
 30
0.0
 11
8.0
 21
3.5
 31
0.0
  0
LINE
  5
115
  8
0
 10
-7.5
 20
0.0
 30
0.0
 11
7.5
 21
0.0
 31
0.0
  0
ENDBLK
  5
116
  8
0
  0
BLOCK
  8
0
  2
B156018C
 70
     0
 10
0.0
 20
0.0
 30
0.0
  3
B156018C
  1

  0
LINE
  5
118
  8
0
 10
4.5
 20
5.0
 30
0.0
 11
4.5
 21
0.0
 31
0.0
  0
LINE
  5
119
  8
0
 10
-4.5
 20
5.0
 30
0.0
 11
4.5
 21
5.0
 31
0.0
  0
LINE
  5
11A
  8
0
 10
-4.5
 20
0.0
 30
0.0
 11
-4.5
 21
5.0
 31
0.0
  0
LINE
  5
11B
  8
1
 10
0.0
 20
17.0
 30
0.0
 11
0.0
 21
-5.0
 31
0.0
  0
POLYLINE
  5
11C
  8
0
 66
     1
 10
0.0
 20
0.0
 30
0.0
 70
     1
  0
VERTEX
  5
11D
  8
0
 10
-9.5
 20
11.5
 30
0.0
  0
VERTEX
  5
11E
  8
0
 10
-9.5
 20
0.5
 30
0.0
  0
VERTEX
  5
11F
  8
0
 10
-9.0
 20
0.0
 30
0.0
  0
VERTEX
  5
120
  8
0
 10
9.0
 20
0.0
 30
0.0
  0
VERTEX
  5
121
  8
0
 10
9.5
 20
0.5
 30
0.0
  0
VERTEX
  5
122
  8
0
 10
9.5
 20
11.5
 30
0.0
  0
VERTEX
  5
123
  8
0
 10
9.0
 20
12.0
 30
0.0
  0
VERTEX
  5
124
  8
0
 10
-9.0
 20
12.0
 30
0.0
  0
SEQEND
  5
125
  8
0
  0
ENDBLK
  5
126
  8
0
  0
BLOCK
  8
0
  2
B156018D
 70
     0
 10
0.0
 20
0.0
 30
0.0
  3
B156018D
  1

  0
LINE
  5
128
  8
0
 10
9.5
 20
1.339745999999999
 30
0.0
 11
-9.5
 21
1.339745999999999
 31
0.0
  0
POLYLINE
  5
129
  8
0
 66
     1
 10
0.0
 20
0.0
 30
0.0
 70
     1
  0
VERTEX
  5
12A
  8
0
 10
9.5
 20
11.5
 30
0.0
  0
VERTEX
  5
12B
  8
0
 10
9.5
 20
0.5
 30
0.0
  0
VERTEX
  5
12C
  8
0
 10
9.0
 20
0.0
 30
0.0
  0
VERTEX
  5
12D
  8
0
 10
-9.0
 20
0.0
 30
0.0
  0
VERTEX
  5
12E
  8
0
 10
-9.5
 20
0.5
 30
0.0
  0
VERTEX
  5
12F
  8
0
 10
-9.5
 20
11.5
 30
0.0
  0
VERTEX
  5
130
  8
0
 10
-9.0
 20
12.0
 30
0.0
  0
VERTEX
  5
131
  8
0
 10
9.0
 20
12.0
 30
0.0
  0
SEQEND
  5
132
  8
0
  0
LINE
  5
133
  8
1
 10
0.0
 20
17.0
 30
0.0
 11
0.0
 21
-5.0
 31
0.0
  0
ENDBLK
  5
134
  8
0
  0
BLOCK
  8
0
  2
B156028A
 70
     0
 10
0.0
 20
0.0
 30
0.0
  3
B156028A
  1

  0
LINE
  5
136
  8
2
 10
0.0
 20
-4.5
 30
0.0
 11
24.000001999999999
 21
-4.5
 31
0.0
  0
LINE
  5
137
  8
2
 10
0.0
 20
4.5
 30
0.0
 11
24.000001999999999
 21
4.5
 31
0.0
  0
LINE
  5
138
  8
2
 10
-28.732171999999998
 20
4.0311289999999991
 30
0.0
 11
-28.732171999999998
 21
9.5
 31
0.0
  0
LINE
  5
139
  8
2
 10
-14.732172
 20
4.5
 30
0.0
 11
-14.732172
 21
9.5
 31
0.0
  0
LINE
  5
13A
  8
2
 10
-14.732172
 20
-9.5
 30
0.0
 11
-14.732172
 21
-4.5
 31
0.0
  0
LINE
  5
13B
  8
2
 10
-28.732171999999998
 20
-9.5
 30
0.0
 11
-28.732171999999998
 21
-4.0311289999999991
 31
0.0
  0
LINE
  5
13C
  8
1
 10
16.000001999999999
 20
-6.0
 30
0.0
 11
16.000001999999999
 21
6.0
 31
0.0
  0
CIRCLE
  5
13D
  8
3
 10
16.000001999999999
 20
0.0
 30
0.0
 40
4.0
  0
CIRCLE
  5
13E
  8
0
 10
16.000001999999999
 20
0.0
 30
0.0
 40
3.375
  0
LINE
  5
13F
  8
0
 10
-38.999997999999998
 20
9.0
 30
0.0
 11
-38.999997999999998
 21
-9.0
 31
0.0
  0
LINE
  5
140
  8
0
 10
24.000001999999999
 20
9.0
 30
0.0
 11
24.000001999999999
 21
-9.0
 31
0.0
  0
LINE
  5
141
  8
1
 10
-43.999997999999991
 20
0.0
 30
0.0
 11
29.000001999999999
 21
0.0
 31
0.0
  0
LINE
  5
142
  8
0
 10
-27.0
 20
4.5
 30
0.0
 11
0.000001
 21
4.5
 31
0.0
  0
LINE
  5
143
  8
0
 10
-27.0
 20
-4.5
 30
0.0
 11
0.000001
 21
-4.5
 31
0.0
  0
LINE
  5
144
  8
0
 10
-38.499997999999998
 20
9.5
 30
0.0
 11
23.500001999999999
 21
9.5
 31
0.0
  0
LINE
  5
145
  8
0
 10
-38.499997999999998
 20
-9.5
 30
0.0
 11
23.500001999999999
 21
-9.5
 31
0.0
  0
LINE
  5
146
  8
0
 10
-38.499997999999998
 20
9.5
 30
0.0
 11
-38.999997999999998
 21
9.0
 31
0.0
  0
LINE
  5
147
  8
0
 10
23.500001999999999
 20
9.5
 30
0.0
 11
24.000001999999999
 21
9.0
 31
0.0
  0
LINE
  5
148
  8
0
 10
24.000001999999999
 20
-9.0
 30
0.0
 11
23.500001999999999
 21
-9.5
 31
0.0
  0
LINE
  5
149
  8
0
 10
-38.999997999999998
 20
-9.0
 30
0.0
 11
-38.499997999999998
 21
-9.5
 31
0.0
  0
ARC
  5
14A
  8
0
 10
-26.999998000000001
 20
0.0
 30
0.0
 40
4.5
 50
89.999988999999985
 51
269.99998900000003
  0
ARC
  5
14B
  8
0
 10
0.0
 20
0.0
 30
0.0
 40
4.5
 50
270.00001099999997
 51
90.000011000000001
  0
LINE
  5
14C
  8
1
 10
-26.999998000000001
 20
7.5
 30
0.0
 11
-26.999998000000001
 21
-7.5
 31
0.0
  0
LINE
  5
14D
  8
1
 10
0.0
 20
7.5
 30
0.0
 11
0.0
 21
-7.5
 31
0.0
  0
ENDBLK
  5
14E
  8
0
  0
BLOCK
  8
0
  2
B156028B
 70
     0
 10
0.0
 20
0.0
 30
0.0
  3
B156028B
  1

  0
LINE
  5
150
  8
0
 10
-14.732172
 20
0.0
 30
0.0
 11
-28.732171999999998
 21
1.5
 31
0.0
  0
LINE
  5
151
  8
2
 10
12.625002
 20
10.800000000000001
 30
0.0
 11
19.375001999999999
 21
10.800000000000001
 31
0.0
  0
LINE
  5
152
  8
2
 10
20.000001999999999
 20
11.425000000000001
 30
0.0
 11
20.000001999999999
 21
5.0
 31
0.0
  0
LINE
  5
153
  8
2
 10
19.375001999999999
 20
10.800000000000001
 30
0.0
 11
19.375001999999999
 21
5.0
 31
0.0
  0
LINE
  5
154
  8
2
 10
20.575002000000001
 20
12.0
 30
0.0
 11
19.375001999999999
 21
10.800000000000001
 31
0.0
  0
LINE
  5
155
  8
2
 10
11.425001999999999
 20
12.0
 30
0.0
 11
12.625002
 21
10.800000000000001
 31
0.0
  0
LINE
  5
156
  8
2
 10
0.0
 20
5.0
 30
0.0
 11
24.000001999999999
 21
5.0
 31
0.0
  0
LINE
  5
157
  8
2
 10
12.625002
 20
10.800000000000001
 30
0.0
 11
12.625002
 21
5.0
 31
0.0
  0
LINE
  5
158
  8
2
 10
12.000002
 20
11.425000000000001
 30
0.0
 11
12.000002
 21
5.0
 31
0.0
  0
LINE
  5
159
  8
1
 10
16.000001999999999
 20
15.0
 30
0.0
 11
16.000001999999999
 21
-3.0
 31
0.0
  0
LINE
  5
15A
  8
0
 10
-38.499997999999998
 20
12.0
 30
0.0
 11
23.500001999999999
 21
12.0
 31
0.0
  0
LINE
  5
15B
  8
0
 10
-14.732172
 20
0.0
 30
0.0
 11
23.500001999999999
 21
0.0
 31
0.0
  0
LINE
  5
15C
  8
0
 10
-38.999997999999998
 20
11.5
 30
0.0
 11
-38.999997999999998
 21
1.339745999999999
 31
0.0
  0
LINE
  5
15D
  8
0
 10
24.000001999999999
 20
11.5
 30
0.0
 11
24.000001999999999
 21
0.5
 31
0.0
  0
ARC
  5
15E
  8
0
 10
-33.999997999999998
 20
10.0
 30
0.0
 40
10.0
 50
240.0
 51
301.78833100000003
  0
LINE
  5
15F
  8
0
 10
-38.499997999999998
 20
12.0
 30
0.0
 11
-38.999997999999998
 21
11.5
 31
0.0
  0
LINE
  5
160
  8
0
 10
23.500001999999999
 20
12.0
 30
0.0
 11
24.000001999999999
 21
11.5
 31
0.0
  0
LINE
  5
161
  8
0
 10
24.000001999999999
 20
0.5
 30
0.0
 11
23.500001999999999
 21
0.0
 31
0.0
  0
LINE
  5
162
  8
1
 10
0.0
 20
15.0
 30
0.0
 11
0.0
 21
-3.0
 31
0.0
  0
LINE
  5
163
  8
1
 10
-26.999998000000001
 20
15.0
 30
0.0
 11
-26.999998000000001
 21
-3.0
 31
0.0
  0
LINE
  5
164
  8
2
 10
4.5
 20
12.0
 30
0.0
 11
4.5
 21
5.0
 31
0.0
  0
LINE
  5
165
  8
2
 10
-31.499998000000001
 20
12.0
 30
0.0
 11
-31.499998000000001
 21
0.317542
 31
0.0
  0
ENDBLK
  5
166
  8
0
  0
BLOCK
  8
0
  2
156BA05A1
 70
     0
 10
0.0
 20
0.0
 30
0.0
  3
156BA05A1
  1

  0
INSERT
  5
168
  8
0
  2
B156028A
 10
0.0
 20
0.0
 30
0.0
  0
INSERT
  5
169
  8
2
  2
B746018A
 10
16.0
 20
0.0
 30
0.0
  0
ENDBLK
  5
16A
  8
0
  0
BLOCK
  8
0
  2
156BA05C1
 70
     0
 10
0.0
 20
0.0
 30
0.0
  3
156BA05C1
  1

  0
INSERT
  5
16C
  8
0
  2
B156018C
 10
0.0
 20
0.0
 30
0.0
  0
INSERT
  5
16D
  8
0
  2
B739018C
 10
0.0
 20
12.0
 30
0.0
  0
ENDBLK
  5
16E
  8
0
  0
BLOCK
  8
0
  2
156BA05D1
 70
     0
 10
0.0
 20
0.0
 30
0.0
  3
156BA05D1
  1

  0
INSERT
  5
170
  8
0
  2
B156018D
 10
0.0
 20
0.0
 30
0.0
  0
INSERT
  5
171
  8
0
  2
B739018C
 10
0.0
 20
12.0
 30
0.0
  0
ENDBLK
  5
172
  8
0
  0
ENDSEC
  0
SECTION
  2
ENTITIES
  0
INSERT
  5
173
  8
0
  2
STDGX5
 10
0.0
 20
0.0
 30
0.0
  0
INSERT
  5
17D
  8
0
  2
STDGX5
 10
0.0
 20
0.0
 30
0.0
  0
INSERT
  5
17E
  8
0
  2
STDGX5
 10
0.0
 20
0.0
 30
0.0
  0
INSERT
  5
17F
  8
0
  2
NM8B
 10
195.0
 20
90.0
 30
0.0
 50
270.0
  0
INSERT
  5
180
  8
0
  2
B740018A
 10
195.0
 20
200.0
 30
0.0
  0
INSERT
  5
181
  8
0
  2
STDGX5
 10
0.0
 20
0.0
 30
0.0
  0
INSERT
  5
182
  8
0
  2
NM8C
 10
110.0
 20
90.0
 30
0.0
  0
INSERT
  5
183
  8
0
  2
B739018B
 10
195.0
 20
137.0
 30
0.0
  0
INSERT
  5
184
  8
0
  2
STDGX5
 10
0.0
 20
0.0
 30
0.0
  0
INSERT
  5
185
  8
0
  2
B745048B
 10
195.0
 20
70.0
 30
0.0
  0
INSERT
  5
186
  8
0
  2
B746028B
 10
211.0
 20
90.0
 30
0.0
  0
INSERT
  5
187
  8
0
  2
B746028B
 10
280.0
 20
90.0
 30
0.0
  0
INSERT
  5
188
  8
0
  2
B745048B
 10
280.0
 20
70.0
 30
0.0
  0
INSERT
  5
189
  8
0
  2
B745048B
 10
110.0
 20
70.0
 30
0.0
  0
INSERT
  5
18A
  8
0
  2
STDGX5
 10
0.0
 20
0.0
 30
0.0
  0
INSERT
  5
18B
  8
0
  2
B156028B
 10
195.0
 20
125.0
 30
0.0
  0
INSERT
  5
18C
  8
0
  2
156BA05A1
 10
195.0
 20
200.0
 30
0.0
  0
INSERT
  5
18D
  8
0
  2
156BA05C1
 10
280.0
 20
125.0
 30
0.0
  0
INSERT
  5
18E
  8
0
  2
156BA05D1
 10
110.0
 20
125.0
 30
0.0
  0
INSERT
  5
18F
  8
0
  2
STDGX5
 10
0.0
 20
0.0
 30
0.0
  0
TEXT
  5
2CF
  8
0
 62
     3
 10
0.0
 20
0.0
 30
0.0
 40
10.0
  1
BJ156-08063B2
  7
STANDARD1
  0
ENDSEC
  0
EOF
