  0
SECTION
  2
HEADER
  9
$ACADVER
  1
AC1009
  9
$INSBASE
 10
82.638099999999994
 20
103.82319099999999
 30
0.0
  9
$EXTMIN
 10
0.0
 20
-2.960436562073669
 30
0.0
  9
$EXTMAX
 10
320.98127433274021
 20
214.56581922525041
 30
0.0
  9
$LIMMIN
 10
0.0
 20
0.0
  9
$LIMMAX
 10
375.0
 20
270.0
  9
$ORTHOMODE
 70
     1
  9
$REGENMODE
 70
     1
  9
$FILLMODE
 70
     1
  9
$QTEXTMODE
 70
     0
  9
$MIRRTEXT
 70
     0
  9
$DRAGMODE
 70
     2
  9
$LTSCALE
 40
10.0
  9
$OSMODE
 70
  3071
  9
$ATTMODE
 70
     1
  9
$TEXTSIZE
 40
0.06
  9
$TRACEWID
 40
0.05
  9
$TEXTSTYLE
  7
STANDARD
  9
$CLAYER
  8
0
  9
$CELTYPE
  6
BYLAYER
  9
$CECOLOR
 62
   256
  9
$DIMSCALE
 40
1.0
  9
$DIMASZ
 40
3.0
  9
$DIMEXO
 40
2.0
  9
$DIMDLI
 40
10.0
  9
$DIMRND
 40
0.0
  9
$DIMDLE
 40
0.0
  9
$DIMEXE
 40
2.0
  9
$DIMTP
 40
0.0
  9
$DIMTM
 40
0.0
  9
$DIMTXT
 40
3.0
  9
$DIMCEN
 40
0.0
  9
$DIMTSZ
 40
0.0
  9
$DIMTOL
 70
     0
  9
$DIMLIM
 70
     0
  9
$DIMTIH
 70
     0
  9
$DIMTOH
 70
     0
  9
$DIMSE1
 70
     0
  9
$DIMSE2
 70
     0
  9
$DIMTAD
 70
     1
  9
$DIMZIN
 70
     0
  9
$DIMBLK
  1

  9
$DIMASO
 70
     0
  9
$DIMSHO
 70
     0
  9
$DIMPOST
  1

  9
$DIMAPOST
  1

  9
$DIMALT
 70
     0
  9
$DIMALTD
 70
     2
  9
$DIMALTF
 40
25.399999999999999
  9
$DIMLFAC
 40
1.0
  9
$DIMTOFL
 70
     1
  9
$DIMTVP
 40
1.6000000000000001
  9
$DIMTIX
 70
     1
  9
$DIMSOXD
 70
     0
  9
$DIMSAH
 70
     0
  9
$DIMBLK1
  1

  9
$DIMBLK2
  1

  9
$DIMSTYLE
  2
STANDARD
  9
$DIMCLRD
 70
     0
  9
$DIMCLRE
 70
     0
  9
$DIMCLRT
 70
     0
  9
$DIMTFAC
 40
1.0
  9
$DIMGAP
 40
0.09
  9
$LUNITS
 70
     2
  9
$LUPREC
 70
     4
  9
$SKETCHINC
 40
0.1
  9
$FILLETRAD
 40
0.0
  9
$AUNITS
 70
     0
  9
$AUPREC
 70
     4
  9
$MENU
  1
E:\r13\win\SUPPORT\ACAD
  9
$ELEVATION
 40
0.0
  9
$PELEVATION
 40
0.0
  9
$THICKNESS
 40
0.0
  9
$LIMCHECK
 70
     0
  9
$BLIPMODE
 70
     0
  9
$CHAMFERA
 40
0.0
  9
$CHAMFERB
 40
0.0
  9
$SKPOLY
 70
     0
  9
$TDCREATE
 40
2449840.348113426
  9
$TDUPDATE
 40
2456597.6480213311
  9
$TDINDWG
 40
0.1179120255
  9
$TDUSRTIMER
 40
0.1179120255
  9
$USRTIMER
 70
     1
  9
$ANGBASE
 50
0.0
  9
$ANGDIR
 70
     0
  9
$PDMODE
 70
     1
  9
$PDSIZE
 40
0.0
  9
$PLINEWID
 40
0.0
  9
$COORDS
 70
     1
  9
$SPLFRAME
 70
     0
  9
$SPLINETYPE
 70
     6
  9
$SPLINESEGS
 70
     8
  9
$ATTDIA
 70
     0
  9
$ATTREQ
 70
     1
  9
$HANDLING
 70
     1
  9
$HANDSEED
  5
3ED8
  9
$SURFTAB1
 70
     6
  9
$SURFTAB2
 70
     6
  9
$SURFTYPE
 70
     6
  9
$SURFU
 70
     6
  9
$SURFV
 70
     6
  9
$UCSNAME
  2

  9
$UCSORG
 10
0.0
 20
0.0
 30
0.0
  9
$UCSXDIR
 10
1.0
 20
0.0
 30
0.0
  9
$UCSYDIR
 10
0.0
 20
1.0
 30
0.0
  9
$PUCSNAME
  2

  9
$PUCSORG
 10
0.0
 20
0.0
 30
0.0
  9
$PUCSXDIR
 10
1.0
 20
0.0
 30
0.0
  9
$PUCSYDIR
 10
0.0
 20
1.0
 30
0.0
  9
$USERI1
 70
     3
  9
$USERI2
 70
     1
  9
$USERI3
 70
     0
  9
$USERI4
 70
     0
  9
$USERI5
 70
     0
  9
$USERR1
 40
1.0
  9
$USERR2
 40
3.0
  9
$USERR3
 40
3.0
  9
$USERR4
 40
3.0
  9
$USERR5
 40
10.0
  9
$WORLDVIEW
 70
     1
  9
$SHADEDGE
 70
     3
  9
$SHADEDIF
 70
    70
  9
$TILEMODE
 70
     1
  9
$MAXACTVP
 70
    16
  9
$PLIMCHECK
 70
     0
  9
$PEXTMIN
 10
1.0000000000000000E+020
 20
1.0000000000000000E+020
 30
1.0000000000000000E+020
  9
$PEXTMAX
 10
-1.0000000000000000E+020
 20
-1.0000000000000000E+020
 30
-1.0000000000000000E+020
  9
$PLIMMIN
 10
0.0
 20
0.0
  9
$PLIMMAX
 10
12.0
 20
9.0
  9
$UNITMODE
 70
     0
  9
$VISRETAIN
 70
     0
  9
$PLINEGEN
 70
     0
  9
$PSLTSCALE
 70
     0
  0
ENDSEC
  0
SECTION
  2
TABLES
  0
TABLE
  2
VPORT
 70
     1
  0
VPORT
  2
*ACTIVE
 70
     0
 10
0.0
 20
0.0
 11
1.0
 21
1.0
 12
195.0581083320873
 22
133.5127261426681
 13
0.0
 23
0.0
 14
5.0
 24
5.0
 15
10.0
 25
10.0
 16
0.0
 26
0.0
 36
1.0
 17
0.0
 27
0.0
 37
0.0
 40
275.42274993631997
 41
1.831871345029239
 42
50.0
 43
0.0
 44
0.0
 50
0.0
 51
0.0
 71
     0
 72
   100
 73
     1
 74
     0
 75
     0
 76
     0
 77
     0
 78
     0
  0
ENDTAB
  0
TABLE
  2
LTYPE
 70
     4
  0
LTYPE
  2
CONTINUOUS
 70
     0
  3
Solid Line
 72
    65
 73
     0
 40
0.0
  0
LTYPE
  2
CENTER
 70
     0
  3
____ _ ____ _ ____ _ ____ _ ____ _ ____ _ ____
 72
    65
 73
     4
 40
2.0
 49
1.25
 49
-0.25
 49
0.25
 49
-0.25
  0
LTYPE
  2
HIDDEN
 70
     0
  3
__ __ __ __ __ __ __ __ __ __ __ __ __ __ __ __
 72
    65
 73
     2
 40
0.375
 49
0.25
 49
-0.125
  0
LTYPE
  2
PHANTOM2
 70
     0
  3
___ _ _ ___ _ _ ___ _ _ ___ _ _
 72
    65
 73
     6
 40
1.25
 49
0.625
 49
-0.125
 49
0.125
 49
-0.125
 49
0.125
 49
-0.125
  0
ENDTAB
  0
TABLE
  2
LAYER
 70
     5
  0
LAYER
  2
0
 70
     0
 62
     7
  6
CONTINUOUS
  0
LAYER
  2
1
 70
     0
 62
     1
  6
CENTER
  0
LAYER
  2
2
 70
     0
 62
     2
  6
HIDDEN
  0
LAYER
  2
3
 70
     0
 62
     3
  6
CONTINUOUS
  0
LAYER
  2
DEFPOINTS
 70
     0
 62
     7
  6
CONTINUOUS
  0
ENDTAB
  0
TABLE
  2
STYLE
 70
     2
  0
STYLE
  2
STANDARD
 70
     0
 40
0.0
 41
1.0
 50
0.0
 71
     0
 42
0.06
  3
TXT
  4
BIGFONT
  0
STYLE
  2
STANDARD1
 70
     0
 40
0.0
 41
1.0
 50
0.0
 71
     0
 42
3.0
  3
txt
  4

  0
ENDTAB
  0
TABLE
  2
VIEW
 70
     0
  0
ENDTAB
  0
TABLE
  2
UCS
 70
     0
  0
ENDTAB
  0
TABLE
  2
APPID
 70
     3
  0
APPID
  2
ACAD
 70
     0
  0
APPID
  2
ACAD_MLEADERVER
 70
     0
  0
APPID
  2
ACAD_NAV_VCDISPLAY
 70
     0
  0
ENDTAB
  0
TABLE
  2
DIMSTYLE
 70
     1
  0
DIMSTYLE
  2
STANDARD
 70
     0
  3

  4

  5

  6

  7

 40
1.0
 41
0.18
 42
0.0625
 43
0.38
 44
0.18
 45
0.0
 46
0.0
 47
0.0
 48
0.0
140
0.18
141
0.09
142
0.0
143
25.399999999999999
144
1.0
145
0.0
146
1.0
147
0.09
 71
     0
 72
     0
 73
     1
 74
     1
 75
     0
 76
     0
 77
     0
 78
     0
170
     0
171
     2
172
     0
173
     0
174
     0
175
     0
176
     0
177
     0
178
     0
  0
ENDTAB
  0
ENDSEC
  0
SECTION
  2
BLOCKS
  0
BLOCK
  8
0
  2
$MODEL_SPACE
 70
     0
 10
0.0
 20
0.0
 30
0.0
  3
$MODEL_SPACE
  1

  0
ENDBLK
  5
223
  8
0
  0
BLOCK
 67
     1
  8
0
  2
$PAPER_SPACE
 70
     0
 10
0.0
 20
0.0
 30
0.0
  3
$PAPER_SPACE
  1

  0
ENDBLK
  5
221
 67
     1
  8
0
  0
ENDSEC
  0
SECTION
  2
ENTITIES
  0
LINE
  5
315B
  8
0
 10
310.98127433274038
 20
86.065819225250323
 30
0.0
 11
317.9812743327405
 21
86.065819225250323
 31
0.0
  0
LINE
  5
315C
  8
0
 10
291.98127433274038
 20
86.065819225250323
 30
0.0
 11
298.9812743327405
 21
86.065819225250323
 31
0.0
  0
LINE
  5
315D
  8
0
 10
292.48127433274038
 20
89.565819225250365
 30
0.0
 11
298.9812743327405
 21
89.565819225250365
 31
0.0
  0
LINE
  5
315E
  8
0
 10
310.98127433274038
 20
89.565819225250365
 30
0.0
 11
317.48127433274038
 21
89.565819225250365
 31
0.0
  0
LINE
  5
315F
  8
0
 10
317.9812743327405
 20
89.06581922525038
 30
0.0
 11
310.98127433274038
 21
89.06581922525038
 31
0.0
  0
LINE
  5
3160
  8
0
 10
298.9812743327405
 20
89.06581922525038
 30
0.0
 11
291.98127433274038
 21
89.06581922525038
 31
0.0
  0
LINE
  5
3161
  8
0
 10
295.4812743327405
 20
93.065819225250394
 30
0.0
 11
295.4812743327405
 21
105.7771440906555
 31
0.0
  0
POLYLINE
  5
3163
  8
0
 66
     1
 10
0.0
 20
0.0
 30
0.0
 70
   128
  0
VERTEX
  5
3D3A
  8
0
 10
298.9812743327405
 20
105.66837345937989
 30
0.0
  0
VERTEX
  5
3D3B
  8
0
 10
297.68389868913982
 20
105.52024822609479
 30
0.0
  0
VERTEX
  5
3D3C
  8
0
 10
295.4812743327405
 20
104.9286383146236
 30
0.0
  0
SEQEND
  5
3D3D
  8
0
  0
LINE
  5
3165
  8
0
 10
310.98127433274038
 20
106.06581922525039
 30
0.0
 11
313.9812743327405
 21
106.06581922525039
 31
0.0
  0
LINE
  5
3166
  8
0
 10
295.98127433274038
 20
106.06581922525039
 30
0.0
 11
298.9812743327405
 21
106.06581922525039
 31
0.0
  0
LINE
  5
3167
  8
0
 10
314.48127433274038
 20
93.065819225250394
 30
0.0
 11
314.48127433274038
 21
105.7771440906555
 31
0.0
  0
POLYLINE
  5
3168
  8
0
 66
     1
 10
0.0
 20
0.0
 30
0.0
 70
   128
  0
VERTEX
  5
3D3E
  8
0
 10
314.48127433274038
 20
104.9286383146237
 30
0.0
  0
VERTEX
  5
3D3F
  8
0
 10
311.99314328532267
 20
105.5736385135237
 30
0.0
  0
VERTEX
  5
3D40
  8
0
 10
310.98127433274038
 20
105.7033113084926
 30
0.0
  0
SEQEND
  5
3D41
  8
0
  0
LINE
  5
3169
  8
0
 10
310.98127433274038
 20
93.065819225250394
 30
0.0
 11
317.9812743327405
 21
93.065819225250394
 31
0.0
  0
LINE
  5
316A
  8
0
 10
291.98127433274038
 20
93.065819225250394
 30
0.0
 11
298.9812743327405
 21
93.065819225250394
 31
0.0
  0
LINE
  5
316B
  8
0
 10
310.98127433274038
 20
90.06581922525038
 30
0.0
 11
317.9812743327405
 21
90.06581922525038
 31
0.0
  0
LINE
  5
316C
  8
0
 10
291.98127433274038
 20
90.06581922525038
 30
0.0
 11
298.9812743327405
 21
90.06581922525038
 31
0.0
  0
LINE
  5
316D
  8
0
 10
299.55862460193021
 20
116.56581922525029
 30
0.0
 11
310.4039240635509
 21
116.56581922525029
 31
0.0
  0
LINE
  5
316E
  8
0
 10
310.98127433274038
 20
115.56581922525029
 30
0.0
 11
298.9812743327405
 21
115.56581922525029
 31
0.0
  0
LINE
  5
316F
  8
0
 10
308.58127433274058
 20
65.180178579195285
 30
0.0
 11
301.38127433274059
 21
65.180178579195285
 31
0.0
  0
LINE
  5
3171
  8
0
 10
295.98127433274038
 20
64.56581922525038
 30
0.0
 11
313.9812743327405
 21
64.56581922525038
 31
0.0
  0
LINE
  5
3172
  8
0
 10
292.48127433274038
 20
57.56581922525038
 30
0.0
 11
317.48127433274038
 21
57.56581922525038
 31
0.0
  0
LINE
  5
3173
  8
0
 10
292.48127433274038
 20
51.565819225250323
 30
0.0
 11
317.48127433274038
 21
51.565819225250323
 31
0.0
  0
LINE
  5
3174
  8
0
 10
300.9992235251716
 20
65.40075571578933
 30
0.0
 11
300.23127433274038
 21
65.40075571578933
 31
0.0
  0
LINE
  5
3175
  8
0
 10
309.7312743327405
 20
65.40075571578933
 30
0.0
 11
308.96332514030951
 21
65.40075571578933
 31
0.0
  0
LINE
  5
3176
  8
0
 10
309.90777433274047
 20
132.56581922525029
 30
0.0
 11
300.05477433274041
 21
132.56581922525029
 31
0.0
  0
LINE
  5
3177
  8
0
 10
310.98127433274038
 20
131.4923192252503
 30
0.0
 11
298.9812743327405
 21
131.4923192252503
 31
0.0
  0
ARC
  5
3178
  8
0
 10
304.98127433273999
 20
32.565819225249868
 30
0.0
 40
8.6068286842488533
 50
0.0000000000030533
 51
179.99999999999281
  0
LINE
  5
3179
  8
0
 10
309.7312743327405
 20
42.487386641742368
 30
0.0
 11
300.23127433274021
 21
42.487386641742368
 31
0.0
  0
LINE
  5
317E
  8
0
 10
315.9156284517544
 20
28.96581922525036
 30
0.0
 11
315.9156284517544
 21
32.565819225250323
 31
0.0
  0
LINE
  5
317F
  8
0
 10
315.98127433274021
 20
32.565819225250323
 30
0.0
 11
293.98127433274038
 21
32.565819225250323
 31
0.0
  0
LINE
  5
3180
  8
0
 10
294.04692021372648
 20
32.565819225250323
 30
0.0
 11
294.04692021372648
 21
28.96581922525036
 31
0.0
  0
LINE
  5
3181
  8
0
 10
293.98127433274038
 20
24.565819225250319
 30
0.0
 11
315.9812743327405
 21
24.56581922525034
 31
0.0
  0
LINE
  5
3182
  8
0
 10
315.9812743327405
 20
32.565819225250323
 30
0.0
 11
315.9812743327405
 21
24.56581922525034
 31
0.0
  0
LINE
  5
3183
  8
0
 10
315.9812743327405
 20
28.96581922525036
 30
0.0
 11
315.9156284517544
 21
28.96581922525036
 31
0.0
  0
POLYLINE
  5
3184
  8
0
 66
     1
 10
0.0
 20
0.0
 30
0.0
 70
   128
  0
VERTEX
  5
3D42
  8
0
 10
306.54079348940598
 20
24.56581922525034
 30
0.0
  0
VERTEX
  5
3D43
  8
0
 10
308.68685333562831
 20
24.594021975235439
 30
0.0
  0
VERTEX
  5
3D44
  8
0
 10
310.83291318185047
 20
24.777911041068151
 30
0.0
  0
VERTEX
  5
3D45
  8
0
 10
312.26522949891432
 20
25.090126774299829
 30
0.0
  0
VERTEX
  5
3D46
  8
0
 10
313.65893958922811
 20
25.657421977475131
 30
0.0
  0
VERTEX
  5
3D47
  8
0
 10
314.82224720216368
 20
26.508040091318652
 30
0.0
  0
VERTEX
  5
3D48
  8
0
 10
315.28643677615401
 20
27.054182095963132
 30
0.0
  0
VERTEX
  5
3D49
  8
0
 10
315.6506843961825
 20
27.701269178085582
 30
0.0
  0
VERTEX
  5
3D4A
  8
0
 10
315.90766807330601
 20
28.74368238640022
 30
0.0
  0
VERTEX
  5
3D4B
  8
0
 10
315.9156284517544
 20
28.96581922525036
 30
0.0
  0
SEQEND
  5
3D4C
  8
0
  0
POLYLINE
  5
3186
  8
0
 66
     1
 10
0.0
 20
0.0
 30
0.0
 70
   128
  0
VERTEX
  5
3D4D
  8
0
 10
294.04692021372648
 20
28.96581922525036
 30
0.0
  0
VERTEX
  5
3D4E
  8
0
 10
294.13862635984327
 20
28.215107883270001
 30
0.0
  0
VERTEX
  5
3D4F
  8
0
 10
294.54692634449219
 20
27.249970836432841
 30
0.0
  0
VERTEX
  5
3D50
  8
0
 10
295.27590371252472
 20
26.37932304123585
 30
0.0
  0
VERTEX
  5
3D51
  8
0
 10
295.97464855394259
 20
25.850152794447538
 30
0.0
  0
VERTEX
  5
3D52
  8
0
 10
296.77094171593671
 20
25.428121122321802
 30
0.0
  0
VERTEX
  5
3D53
  8
0
 10
298.11695606602888
 20
24.97645595203527
 30
0.0
  0
VERTEX
  5
3D54
  8
0
 10
299.54972472386822
 20
24.720912448749221
 30
0.0
  0
VERTEX
  5
3D55
  8
0
 10
301.4789670505765
 20
24.587285164821921
 30
0.0
  0
VERTEX
  5
3D56
  8
0
 10
303.4217551760749
 20
24.56581922525034
 30
0.0
  0
SEQEND
  5
3D57
  8
0
  0
LINE
  5
3187
  8
0
 10
294.04692021372648
 20
28.96581922525036
 30
0.0
 11
293.98127433274038
 21
28.96581922525036
 31
0.0
  0
LINE
  5
3188
  8
0
 10
293.98127433274038
 20
24.56581922525034
 30
0.0
 11
293.98127433273982
 21
32.565819225250323
 31
0.0
  0
POLYLINE
  5
318A
  8
0
 10
311.48127433274072
 20
67.730655667317194
 30
0.0
 66
     1
 70
     8
  0
VERTEX
  8
0
  5
3DD4
 10
311.481
 20
67.7307
 30
0.000000
  70
    32
  0
VERTEX
  8
0
  5
3DD5
 10
311.481
 20
67.7329
 30
0.000000
  70
    32
  0
VERTEX
  8
0
  5
3DD6
 10
311.481
 20
67.7351
 30
0.000000
  70
    32
  0
VERTEX
  8
0
  5
3DD7
 10
311.481
 20
67.7373
 30
0.000000
  70
    32
  0
VERTEX
  8
0
  5
3DD8
 10
311.481
 20
67.7395
 30
0.000000
  70
    32
  0
VERTEX
  8
0
  5
3DD9
 10
311.481
 20
67.7417
 30
0.000000
  70
    32
  0
VERTEX
  8
0
  5
3DDA
 10
311.480
 20
67.7439
 30
0.000000
  70
    32
  0
VERTEX
  8
0
  5
3DDB
 10
311.480
 20
67.7461
 30
0.000000
  70
    32
  0
VERTEX
  8
0
  5
3DDC
 10
311.479
 20
67.7483
 30
0.000000
  70
    32
  0
VERTEX
  8
0
  5
3DDD
 10
311.479
 20
67.7505
 30
0.000000
  70
    32
  0
VERTEX
  8
0
  5
3DDE
 10
311.478
 20
67.7527
 30
0.000000
  70
    32
  0
VERTEX
  8
0
  5
3DDF
 10
311.478
 20
67.7549
 30
0.000000
  70
    32
  0
VERTEX
  8
0
  5
3DE0
 10
311.477
 20
67.7571
 30
0.000000
  70
    32
  0
VERTEX
  8
0
  5
3DE1
 10
311.476
 20
67.7593
 30
0.000000
  70
    32
  0
VERTEX
  8
0
  5
3DE2
 10
311.475
 20
67.7615
 30
0.000000
  70
    32
  0
VERTEX
  8
0
  5
3DE3
 10
311.474
 20
67.7637
 30
0.000000
  70
    32
  0
VERTEX
  8
0
  5
3DE4
 10
311.473
 20
67.7659
 30
0.000000
  70
    32
  0
VERTEX
  8
0
  5
3DE5
 10
311.472
 20
67.7681
 30
0.000000
  70
    32
  0
VERTEX
  8
0
  5
3DE6
 10
311.471
 20
67.7703
 30
0.000000
  70
    32
  0
VERTEX
  8
0
  5
3DE7
 10
311.470
 20
67.7725
 30
0.000000
  70
    32
  0
VERTEX
  8
0
  5
3DE8
 10
311.469
 20
67.7747
 30
0.000000
  70
    32
  0
VERTEX
  8
0
  5
3DE9
 10
311.468
 20
67.7769
 30
0.000000
  70
    32
  0
VERTEX
  8
0
  5
3DEA
 10
311.466
 20
67.7791
 30
0.000000
  70
    32
  0
VERTEX
  8
0
  5
3DEB
 10
311.465
 20
67.7813
 30
0.000000
  70
    32
  0
VERTEX
  8
0
  5
3DEC
 10
311.463
 20
67.7835
 30
0.000000
  70
    32
  0
VERTEX
  8
0
  5
3DED
 10
311.462
 20
67.7857
 30
0.000000
  70
    32
  0
VERTEX
  8
0
  5
3DEE
 10
311.460
 20
67.7879
 30
0.000000
  70
    32
  0
VERTEX
  8
0
  5
3DEF
 10
311.459
 20
67.7901
 30
0.000000
  70
    32
  0
VERTEX
  8
0
  5
3DF0
 10
311.457
 20
67.7923
 30
0.000000
  70
    32
  0
VERTEX
  8
0
  5
3DF1
 10
311.455
 20
67.7945
 30
0.000000
  70
    32
  0
VERTEX
  8
0
  5
3DF2
 10
311.453
 20
67.7967
 30
0.000000
  70
    32
  0
VERTEX
  8
0
  5
3DF3
 10
311.452
 20
67.7988
 30
0.000000
  70
    32
  0
VERTEX
  8
0
  5
3DF4
 10
311.450
 20
67.8010
 30
0.000000
  70
    32
  0
VERTEX
  8
0
  5
3DF5
 10
311.448
 20
67.8032
 30
0.000000
  70
    32
  0
VERTEX
  8
0
  5
3DF6
 10
311.446
 20
67.8054
 30
0.000000
  70
    32
  0
VERTEX
  8
0
  5
3DF7
 10
311.443
 20
67.8076
 30
0.000000
  70
    32
  0
VERTEX
  8
0
  5
3DF8
 10
311.441
 20
67.8098
 30
0.000000
  70
    32
  0
VERTEX
  8
0
  5
3DF9
 10
311.439
 20
67.8120
 30
0.000000
  70
    32
  0
VERTEX
  8
0
  5
3DFA
 10
311.437
 20
67.8142
 30
0.000000
  70
    32
  0
VERTEX
  8
0
  5
3DFB
 10
311.434
 20
67.8164
 30
0.000000
  70
    32
  0
VERTEX
  8
0
  5
3DFC
 10
311.432
 20
67.8186
 30
0.000000
  70
    32
  0
VERTEX
  8
0
  5
3DFD
 10
311.429
 20
67.8207
 30
0.000000
  70
    32
  0
VERTEX
  8
0
  5
3DFE
 10
311.427
 20
67.8229
 30
0.000000
  70
    32
  0
VERTEX
  8
0
  5
3DFF
 10
311.424
 20
67.8251
 30
0.000000
  70
    32
  0
VERTEX
  8
0
  5
3E00
 10
311.422
 20
67.8273
 30
0.000000
  70
    32
  0
VERTEX
  8
0
  5
3E01
 10
311.419
 20
67.8295
 30
0.000000
  70
    32
  0
VERTEX
  8
0
  5
3E02
 10
311.416
 20
67.8317
 30
0.000000
  70
    32
  0
VERTEX
  8
0
  5
3E03
 10
311.413
 20
67.8338
 30
0.000000
  70
    32
  0
VERTEX
  8
0
  5
3E04
 10
311.410
 20
67.8360
 30
0.000000
  70
    32
  0
VERTEX
  8
0
  5
3E05
 10
311.407
 20
67.8382
 30
0.000000
  70
    32
  0
VERTEX
  8
0
  5
3E06
 10
311.404
 20
67.8404
 30
0.000000
  70
    32
  0
VERTEX
  8
0
  5
3E07
 10
311.401
 20
67.8425
 30
0.000000
  70
    32
  0
VERTEX
  8
0
  5
3E08
 10
311.398
 20
67.8447
 30
0.000000
  70
    32
  0
VERTEX
  8
0
  5
3E09
 10
311.395
 20
67.8469
 30
0.000000
  70
    32
  0
VERTEX
  8
0
  5
3E0A
 10
311.391
 20
67.8491
 30
0.000000
  70
    32
  0
VERTEX
  8
0
  5
3E0B
 10
311.388
 20
67.8512
 30
0.000000
  70
    32
  0
VERTEX
  8
0
  5
3E0C
 10
311.385
 20
67.8534
 30
0.000000
  70
    32
  0
VERTEX
  8
0
  5
3E0D
 10
311.381
 20
67.8556
 30
0.000000
  70
    32
  0
VERTEX
  8
0
  5
3E0E
 10
311.378
 20
67.8578
 30
0.000000
  70
    32
  0
VERTEX
  8
0
  5
3E0F
 10
311.374
 20
67.8599
 30
0.000000
  70
    32
  0
VERTEX
  8
0
  5
3E10
 10
311.370
 20
67.8621
 30
0.000000
  70
    32
  0
VERTEX
  8
0
  5
3E11
 10
311.367
 20
67.8643
 30
0.000000
  70
    32
  0
VERTEX
  8
0
  5
3E12
 10
311.363
 20
67.8664
 30
0.000000
  70
    32
  0
VERTEX
  8
0
  5
3E13
 10
311.359
 20
67.8686
 30
0.000000
  70
    32
  0
VERTEX
  8
0
  5
3E14
 10
311.355
 20
67.8707
 30
0.000000
  70
    32
  0
VERTEX
  8
0
  5
3E15
 10
311.351
 20
67.8729
 30
0.000000
  70
    32
  0
VERTEX
  8
0
  5
3E16
 10
311.347
 20
67.8751
 30
0.000000
  70
    32
  0
VERTEX
  8
0
  5
3E17
 10
311.343
 20
67.8772
 30
0.000000
  70
    32
  0
VERTEX
  8
0
  5
3E18
 10
311.339
 20
67.8794
 30
0.000000
  70
    32
  0
VERTEX
  8
0
  5
3E19
 10
311.335
 20
67.8815
 30
0.000000
  70
    32
  0
VERTEX
  8
0
  5
3E1A
 10
311.330
 20
67.8837
 30
0.000000
  70
    32
  0
VERTEX
  8
0
  5
3E1B
 10
311.326
 20
67.8858
 30
0.000000
  70
    32
  0
VERTEX
  8
0
  5
3E1C
 10
311.322
 20
67.8880
 30
0.000000
  70
    32
  0
VERTEX
  8
0
  5
3E1D
 10
311.317
 20
67.8901
 30
0.000000
  70
    32
  0
VERTEX
  8
0
  5
3E1E
 10
311.313
 20
67.8923
 30
0.000000
  70
    32
  0
VERTEX
  8
0
  5
3E1F
 10
311.308
 20
67.8944
 30
0.000000
  70
    32
  0
VERTEX
  8
0
  5
3E20
 10
311.304
 20
67.8966
 30
0.000000
  70
    32
  0
VERTEX
  8
0
  5
3E21
 10
311.299
 20
67.8987
 30
0.000000
  70
    32
  0
VERTEX
  8
0
  5
3E22
 10
311.294
 20
67.9008
 30
0.000000
  70
    32
  0
VERTEX
  8
0
  5
3E23
 10
311.289
 20
67.9030
 30
0.000000
  70
    32
  0
VERTEX
  8
0
  5
3E24
 10
311.284
 20
67.9051
 30
0.000000
  70
    32
  0
VERTEX
  8
0
  5
3E25
 10
311.279
 20
67.9073
 30
0.000000
  70
    32
  0
VERTEX
  8
0
  5
3E26
 10
311.274
 20
67.9094
 30
0.000000
  70
    32
  0
VERTEX
  8
0
  5
3E27
 10
311.269
 20
67.9115
 30
0.000000
  70
    32
  0
VERTEX
  8
0
  5
3E28
 10
311.264
 20
67.9137
 30
0.000000
  70
    32
  0
VERTEX
  8
0
  5
3E29
 10
311.259
 20
67.9158
 30
0.000000
  70
    32
  0
VERTEX
  8
0
  5
3E2A
 10
311.254
 20
67.9179
 30
0.000000
  70
    32
  0
VERTEX
  8
0
  5
3E2B
 10
311.249
 20
67.9200
 30
0.000000
  70
    32
  0
VERTEX
  8
0
  5
3E2C
 10
311.243
 20
67.9222
 30
0.000000
  70
    32
  0
VERTEX
  8
0
  5
3E2D
 10
311.238
 20
67.9243
 30
0.000000
  70
    32
  0
VERTEX
  8
0
  5
3E2E
 10
311.232
 20
67.9264
 30
0.000000
  70
    32
  0
VERTEX
  8
0
  5
3E2F
 10
311.227
 20
67.9285
 30
0.000000
  70
    32
  0
VERTEX
  8
0
  5
3E30
 10
311.221
 20
67.9306
 30
0.000000
  70
    32
  0
VERTEX
  8
0
  5
3E31
 10
311.216
 20
67.9327
 30
0.000000
  70
    32
  0
VERTEX
  8
0
  5
3E32
 10
311.210
 20
67.9349
 30
0.000000
  70
    32
  0
VERTEX
  8
0
  5
3E33
 10
311.204
 20
67.9370
 30
0.000000
  70
    32
  0
VERTEX
  8
0
  5
3E34
 10
311.198
 20
67.9391
 30
0.000000
  70
    32
  0
VERTEX
  8
0
  5
3E35
 10
311.193
 20
67.9412
 30
0.000000
  70
    32
  0
VERTEX
  8
0
  5
3E36
 10
311.187
 20
67.9433
 30
0.000000
  70
    32
  0
VERTEX
  8
0
  5
3E37
 10
311.181
 20
67.9454
 30
0.000000
  70
    32
  0
VERTEX
  8
0
  5
3E38
 10
311.175
 20
67.9475
 30
0.000000
  70
    32
  0
VERTEX
  8
0
  5
3E39
 10
311.168
 20
67.9496
 30
0.000000
  70
    32
  0
VERTEX
  8
0
  5
3E3A
 10
311.162
 20
67.9517
 30
0.000000
  70
    32
  0
VERTEX
  8
0
  5
3E3B
 10
311.156
 20
67.9538
 30
0.000000
  70
    32
  0
VERTEX
  8
0
  5
3E3C
 10
311.150
 20
67.9559
 30
0.000000
  70
    32
  0
VERTEX
  8
0
  5
3E3D
 10
311.143
 20
67.9580
 30
0.000000
  70
    32
  0
VERTEX
  8
0
  5
3E3E
 10
311.137
 20
67.9600
 30
0.000000
  70
    32
  0
VERTEX
  8
0
  5
3E3F
 10
311.131
 20
67.9621
 30
0.000000
  70
    32
  0
VERTEX
  8
0
  5
3E40
 10
311.124
 20
67.9642
 30
0.000000
  70
    32
  0
VERTEX
  8
0
  5
3E41
 10
311.117
 20
67.9663
 30
0.000000
  70
    32
  0
VERTEX
  8
0
  5
3E42
 10
311.111
 20
67.9684
 30
0.000000
  70
    32
  0
VERTEX
  8
0
  5
3E43
 10
311.104
 20
67.9704
 30
0.000000
  70
    32
  0
VERTEX
  8
0
  5
3E44
 10
311.097
 20
67.9725
 30
0.000000
  70
    32
  0
VERTEX
  8
0
  5
3E45
 10
311.090
 20
67.9746
 30
0.000000
  70
    32
  0
VERTEX
  8
0
  5
3E46
 10
311.084
 20
67.9767
 30
0.000000
  70
    32
  0
VERTEX
  8
0
  5
3E47
 10
311.077
 20
67.9787
 30
0.000000
  70
    32
  0
VERTEX
  8
0
  5
3E48
 10
311.070
 20
67.9808
 30
0.000000
  70
    32
  0
VERTEX
  8
0
  5
3E49
 10
311.063
 20
67.9829
 30
0.000000
  70
    32
  0
VERTEX
  8
0
  5
3E4A
 10
311.056
 20
67.9849
 30
0.000000
  70
    32
  0
VERTEX
  8
0
  5
3E4B
 10
311.048
 20
67.9870
 30
0.000000
  70
    32
  0
VERTEX
  8
0
  5
3E4C
 10
311.041
 20
67.9890
 30
0.000000
  70
    32
  0
VERTEX
  8
0
  5
3E4D
 10
311.034
 20
67.9911
 30
0.000000
  70
    32
  0
VERTEX
  8
0
  5
3E4E
 10
311.027
 20
67.9931
 30
0.000000
  70
    32
  0
VERTEX
  8
0
  5
3E4F
 10
311.019
 20
67.9952
 30
0.000000
  70
    32
  0
VERTEX
  8
0
  5
3E50
 10
311.012
 20
67.9972
 30
0.000000
  70
    32
  0
VERTEX
  8
0
  5
3E51
 10
311.004
 20
67.9993
 30
0.000000
  70
    32
  0
VERTEX
  8
0
  5
3E52
 10
310.997
 20
68.0013
 30
0.000000
  70
    32
  0
VERTEX
  8
0
  5
3E53
 10
310.989
 20
68.0033
 30
0.000000
  70
    32
  0
VERTEX
  8
0
  5
3E54
 10
310.981
 20
68.0054
 30
0.000000
  70
    32
  0
SEQEND
  8
0
  5
3E55
  0
POLYLINE
  5
318B
  8
0
 10
298.98127433274061
 20
68.005381243276332
 30
0.0
 66
     1
 70
     8
  0
VERTEX
  8
0
  5
3E56
 10
298.981
 20
68.0054
 30
0.000000
  70
    32
  0
VERTEX
  8
0
  5
3E57
 10
298.974
 20
68.0033
 30
0.000000
  70
    32
  0
VERTEX
  8
0
  5
3E58
 10
298.966
 20
68.0013
 30
0.000000
  70
    32
  0
VERTEX
  8
0
  5
3E59
 10
298.958
 20
67.9993
 30
0.000000
  70
    32
  0
VERTEX
  8
0
  5
3E5A
 10
298.951
 20
67.9972
 30
0.000000
  70
    32
  0
VERTEX
  8
0
  5
3E5B
 10
298.943
 20
67.9952
 30
0.000000
  70
    32
  0
VERTEX
  8
0
  5
3E5C
 10
298.936
 20
67.9931
 30
0.000000
  70
    32
  0
VERTEX
  8
0
  5
3E5D
 10
298.929
 20
67.9911
 30
0.000000
  70
    32
  0
VERTEX
  8
0
  5
3E5E
 10
298.921
 20
67.9890
 30
0.000000
  70
    32
  0
VERTEX
  8
0
  5
3E5F
 10
298.914
 20
67.9870
 30
0.000000
  70
    32
  0
VERTEX
  8
0
  5
3E60
 10
298.907
 20
67.9849
 30
0.000000
  70
    32
  0
VERTEX
  8
0
  5
3E61
 10
298.900
 20
67.9829
 30
0.000000
  70
    32
  0
VERTEX
  8
0
  5
3E62
 10
298.893
 20
67.9808
 30
0.000000
  70
    32
  0
VERTEX
  8
0
  5
3E63
 10
298.886
 20
67.9787
 30
0.000000
  70
    32
  0
VERTEX
  8
0
  5
3E64
 10
298.879
 20
67.9767
 30
0.000000
  70
    32
  0
VERTEX
  8
0
  5
3E65
 10
298.872
 20
67.9746
 30
0.000000
  70
    32
  0
VERTEX
  8
0
  5
3E66
 10
298.865
 20
67.9725
 30
0.000000
  70
    32
  0
VERTEX
  8
0
  5
3E67
 10
298.858
 20
67.9704
 30
0.000000
  70
    32
  0
VERTEX
  8
0
  5
3E68
 10
298.852
 20
67.9684
 30
0.000000
  70
    32
  0
VERTEX
  8
0
  5
3E69
 10
298.845
 20
67.9663
 30
0.000000
  70
    32
  0
VERTEX
  8
0
  5
3E6A
 10
298.839
 20
67.9642
 30
0.000000
  70
    32
  0
VERTEX
  8
0
  5
3E6B
 10
298.832
 20
67.9621
 30
0.000000
  70
    32
  0
VERTEX
  8
0
  5
3E6C
 10
298.826
 20
67.9600
 30
0.000000
  70
    32
  0
VERTEX
  8
0
  5
3E6D
 10
298.819
 20
67.9580
 30
0.000000
  70
    32
  0
VERTEX
  8
0
  5
3E6E
 10
298.813
 20
67.9559
 30
0.000000
  70
    32
  0
VERTEX
  8
0
  5
3E6F
 10
298.807
 20
67.9538
 30
0.000000
  70
    32
  0
VERTEX
  8
0
  5
3E70
 10
298.800
 20
67.9517
 30
0.000000
  70
    32
  0
VERTEX
  8
0
  5
3E71
 10
298.794
 20
67.9496
 30
0.000000
  70
    32
  0
VERTEX
  8
0
  5
3E72
 10
298.788
 20
67.9475
 30
0.000000
  70
    32
  0
VERTEX
  8
0
  5
3E73
 10
298.782
 20
67.9454
 30
0.000000
  70
    32
  0
VERTEX
  8
0
  5
3E74
 10
298.776
 20
67.9433
 30
0.000000
  70
    32
  0
VERTEX
  8
0
  5
3E75
 10
298.770
 20
67.9412
 30
0.000000
  70
    32
  0
VERTEX
  8
0
  5
3E76
 10
298.764
 20
67.9391
 30
0.000000
  70
    32
  0
VERTEX
  8
0
  5
3E77
 10
298.758
 20
67.9370
 30
0.000000
  70
    32
  0
VERTEX
  8
0
  5
3E78
 10
298.753
 20
67.9349
 30
0.000000
  70
    32
  0
VERTEX
  8
0
  5
3E79
 10
298.747
 20
67.9327
 30
0.000000
  70
    32
  0
VERTEX
  8
0
  5
3E7A
 10
298.741
 20
67.9306
 30
0.000000
  70
    32
  0
VERTEX
  8
0
  5
3E7B
 10
298.736
 20
67.9285
 30
0.000000
  70
    32
  0
VERTEX
  8
0
  5
3E7C
 10
298.730
 20
67.9264
 30
0.000000
  70
    32
  0
VERTEX
  8
0
  5
3E7D
 10
298.725
 20
67.9243
 30
0.000000
  70
    32
  0
VERTEX
  8
0
  5
3E7E
 10
298.719
 20
67.9222
 30
0.000000
  70
    32
  0
VERTEX
  8
0
  5
3E7F
 10
298.714
 20
67.9200
 30
0.000000
  70
    32
  0
VERTEX
  8
0
  5
3E80
 10
298.709
 20
67.9179
 30
0.000000
  70
    32
  0
VERTEX
  8
0
  5
3E81
 10
298.703
 20
67.9158
 30
0.000000
  70
    32
  0
VERTEX
  8
0
  5
3E82
 10
298.698
 20
67.9137
 30
0.000000
  70
    32
  0
VERTEX
  8
0
  5
3E83
 10
298.693
 20
67.9115
 30
0.000000
  70
    32
  0
VERTEX
  8
0
  5
3E84
 10
298.688
 20
67.9094
 30
0.000000
  70
    32
  0
VERTEX
  8
0
  5
3E85
 10
298.683
 20
67.9073
 30
0.000000
  70
    32
  0
VERTEX
  8
0
  5
3E86
 10
298.678
 20
67.9051
 30
0.000000
  70
    32
  0
VERTEX
  8
0
  5
3E87
 10
298.673
 20
67.9030
 30
0.000000
  70
    32
  0
VERTEX
  8
0
  5
3E88
 10
298.668
 20
67.9008
 30
0.000000
  70
    32
  0
VERTEX
  8
0
  5
3E89
 10
298.664
 20
67.8987
 30
0.000000
  70
    32
  0
VERTEX
  8
0
  5
3E8A
 10
298.659
 20
67.8966
 30
0.000000
  70
    32
  0
VERTEX
  8
0
  5
3E8B
 10
298.654
 20
67.8944
 30
0.000000
  70
    32
  0
VERTEX
  8
0
  5
3E8C
 10
298.650
 20
67.8923
 30
0.000000
  70
    32
  0
VERTEX
  8
0
  5
3E8D
 10
298.645
 20
67.8901
 30
0.000000
  70
    32
  0
VERTEX
  8
0
  5
3E8E
 10
298.641
 20
67.8880
 30
0.000000
  70
    32
  0
VERTEX
  8
0
  5
3E8F
 10
298.637
 20
67.8858
 30
0.000000
  70
    32
  0
VERTEX
  8
0
  5
3E90
 10
298.632
 20
67.8837
 30
0.000000
  70
    32
  0
VERTEX
  8
0
  5
3E91
 10
298.628
 20
67.8815
 30
0.000000
  70
    32
  0
VERTEX
  8
0
  5
3E92
 10
298.624
 20
67.8794
 30
0.000000
  70
    32
  0
VERTEX
  8
0
  5
3E93
 10
298.620
 20
67.8772
 30
0.000000
  70
    32
  0
VERTEX
  8
0
  5
3E94
 10
298.615
 20
67.8751
 30
0.000000
  70
    32
  0
VERTEX
  8
0
  5
3E95
 10
298.611
 20
67.8729
 30
0.000000
  70
    32
  0
VERTEX
  8
0
  5
3E96
 10
298.607
 20
67.8707
 30
0.000000
  70
    32
  0
VERTEX
  8
0
  5
3E97
 10
298.604
 20
67.8686
 30
0.000000
  70
    32
  0
VERTEX
  8
0
  5
3E98
 10
298.600
 20
67.8664
 30
0.000000
  70
    32
  0
VERTEX
  8
0
  5
3E99
 10
298.596
 20
67.8643
 30
0.000000
  70
    32
  0
VERTEX
  8
0
  5
3E9A
 10
298.592
 20
67.8621
 30
0.000000
  70
    32
  0
VERTEX
  8
0
  5
3E9B
 10
298.589
 20
67.8599
 30
0.000000
  70
    32
  0
VERTEX
  8
0
  5
3E9C
 10
298.585
 20
67.8578
 30
0.000000
  70
    32
  0
VERTEX
  8
0
  5
3E9D
 10
298.581
 20
67.8556
 30
0.000000
  70
    32
  0
VERTEX
  8
0
  5
3E9E
 10
298.578
 20
67.8534
 30
0.000000
  70
    32
  0
VERTEX
  8
0
  5
3E9F
 10
298.575
 20
67.8512
 30
0.000000
  70
    32
  0
VERTEX
  8
0
  5
3EA0
 10
298.571
 20
67.8491
 30
0.000000
  70
    32
  0
VERTEX
  8
0
  5
3EA1
 10
298.568
 20
67.8469
 30
0.000000
  70
    32
  0
VERTEX
  8
0
  5
3EA2
 10
298.565
 20
67.8447
 30
0.000000
  70
    32
  0
VERTEX
  8
0
  5
3EA3
 10
298.562
 20
67.8425
 30
0.000000
  70
    32
  0
VERTEX
  8
0
  5
3EA4
 10
298.558
 20
67.8404
 30
0.000000
  70
    32
  0
VERTEX
  8
0
  5
3EA5
 10
298.555
 20
67.8382
 30
0.000000
  70
    32
  0
VERTEX
  8
0
  5
3EA6
 10
298.552
 20
67.8360
 30
0.000000
  70
    32
  0
VERTEX
  8
0
  5
3EA7
 10
298.549
 20
67.8338
 30
0.000000
  70
    32
  0
VERTEX
  8
0
  5
3EA8
 10
298.547
 20
67.8317
 30
0.000000
  70
    32
  0
VERTEX
  8
0
  5
3EA9
 10
298.544
 20
67.8295
 30
0.000000
  70
    32
  0
VERTEX
  8
0
  5
3EAA
 10
298.541
 20
67.8273
 30
0.000000
  70
    32
  0
VERTEX
  8
0
  5
3EAB
 10
298.538
 20
67.8251
 30
0.000000
  70
    32
  0
VERTEX
  8
0
  5
3EAC
 10
298.536
 20
67.8229
 30
0.000000
  70
    32
  0
VERTEX
  8
0
  5
3EAD
 10
298.533
 20
67.8207
 30
0.000000
  70
    32
  0
VERTEX
  8
0
  5
3EAE
 10
298.531
 20
67.8186
 30
0.000000
  70
    32
  0
VERTEX
  8
0
  5
3EAF
 10
298.528
 20
67.8164
 30
0.000000
  70
    32
  0
VERTEX
  8
0
  5
3EB0
 10
298.526
 20
67.8142
 30
0.000000
  70
    32
  0
VERTEX
  8
0
  5
3EB1
 10
298.524
 20
67.8120
 30
0.000000
  70
    32
  0
VERTEX
  8
0
  5
3EB2
 10
298.521
 20
67.8098
 30
0.000000
  70
    32
  0
VERTEX
  8
0
  5
3EB3
 10
298.519
 20
67.8076
 30
0.000000
  70
    32
  0
VERTEX
  8
0
  5
3EB4
 10
298.517
 20
67.8054
 30
0.000000
  70
    32
  0
VERTEX
  8
0
  5
3EB5
 10
298.515
 20
67.8032
 30
0.000000
  70
    32
  0
VERTEX
  8
0
  5
3EB6
 10
298.513
 20
67.8010
 30
0.000000
  70
    32
  0
VERTEX
  8
0
  5
3EB7
 10
298.511
 20
67.7988
 30
0.000000
  70
    32
  0
VERTEX
  8
0
  5
3EB8
 10
298.509
 20
67.7967
 30
0.000000
  70
    32
  0
VERTEX
  8
0
  5
3EB9
 10
298.507
 20
67.7945
 30
0.000000
  70
    32
  0
VERTEX
  8
0
  5
3EBA
 10
298.505
 20
67.7923
 30
0.000000
  70
    32
  0
VERTEX
  8
0
  5
3EBB
 10
298.504
 20
67.7901
 30
0.000000
  70
    32
  0
VERTEX
  8
0
  5
3EBC
 10
298.502
 20
67.7879
 30
0.000000
  70
    32
  0
VERTEX
  8
0
  5
3EBD
 10
298.501
 20
67.7857
 30
0.000000
  70
    32
  0
VERTEX
  8
0
  5
3EBE
 10
298.499
 20
67.7835
 30
0.000000
  70
    32
  0
VERTEX
  8
0
  5
3EBF
 10
298.498
 20
67.7813
 30
0.000000
  70
    32
  0
VERTEX
  8
0
  5
3EC0
 10
298.496
 20
67.7791
 30
0.000000
  70
    32
  0
VERTEX
  8
0
  5
3EC1
 10
298.495
 20
67.7769
 30
0.000000
  70
    32
  0
VERTEX
  8
0
  5
3EC2
 10
298.494
 20
67.7747
 30
0.000000
  70
    32
  0
VERTEX
  8
0
  5
3EC3
 10
298.492
 20
67.7725
 30
0.000000
  70
    32
  0
VERTEX
  8
0
  5
3EC4
 10
298.491
 20
67.7703
 30
0.000000
  70
    32
  0
VERTEX
  8
0
  5
3EC5
 10
298.490
 20
67.7681
 30
0.000000
  70
    32
  0
VERTEX
  8
0
  5
3EC6
 10
298.489
 20
67.7659
 30
0.000000
  70
    32
  0
VERTEX
  8
0
  5
3EC7
 10
298.488
 20
67.7637
 30
0.000000
  70
    32
  0
VERTEX
  8
0
  5
3EC8
 10
298.487
 20
67.7615
 30
0.000000
  70
    32
  0
VERTEX
  8
0
  5
3EC9
 10
298.486
 20
67.7593
 30
0.000000
  70
    32
  0
VERTEX
  8
0
  5
3ECA
 10
298.486
 20
67.7571
 30
0.000000
  70
    32
  0
VERTEX
  8
0
  5
3ECB
 10
298.485
 20
67.7549
 30
0.000000
  70
    32
  0
VERTEX
  8
0
  5
3ECC
 10
298.484
 20
67.7527
 30
0.000000
  70
    32
  0
VERTEX
  8
0
  5
3ECD
 10
298.484
 20
67.7505
 30
0.000000
  70
    32
  0
VERTEX
  8
0
  5
3ECE
 10
298.483
 20
67.7483
 30
0.000000
  70
    32
  0
VERTEX
  8
0
  5
3ECF
 10
298.483
 20
67.7461
 30
0.000000
  70
    32
  0
VERTEX
  8
0
  5
3ED0
 10
298.482
 20
67.7439
 30
0.000000
  70
    32
  0
VERTEX
  8
0
  5
3ED1
 10
298.482
 20
67.7417
 30
0.000000
  70
    32
  0
VERTEX
  8
0
  5
3ED2
 10
298.482
 20
67.7395
 30
0.000000
  70
    32
  0
VERTEX
  8
0
  5
3ED3
 10
298.482
 20
67.7373
 30
0.000000
  70
    32
  0
VERTEX
  8
0
  5
3ED4
 10
298.481
 20
67.7351
 30
0.000000
  70
    32
  0
VERTEX
  8
0
  5
3ED5
 10
298.481
 20
67.7329
 30
0.000000
  70
    32
  0
VERTEX
  8
0
  5
3ED6
 10
298.481
 20
67.7307
 30
0.000000
  70
    32
  0
SEQEND
  8
0
  5
3ED7
  0
LINE
  5
318C
  8
0
 10
320.98127433274021
 20
85.565819225250308
 30
0.0
 11
320.98127433274021
 21
66.565819225250266
 31
0.0
  0
LINE
  5
318D
  8
0
 10
288.98127433274021
 20
85.565819225250308
 30
0.0
 11
320.98127433274021
 21
85.565819225250308
 31
0.0
  0
LINE
  5
318F
  8
0
 10
288.98127433274021
 20
66.565819225250266
 30
0.0
 11
320.98127433274021
 21
66.565819225250266
 31
0.0
  0
LINE
  5
3190
  8
0
 10
298.48127433274021
 20
66.565819225250323
 30
0.0
 11
298.48127433274021
 21
71.565819225250323
 31
0.0
  0
LINE
  5
3191
  8
0
 10
298.48127433274021
 20
71.565819225250323
 30
0.0
 11
311.48127433274021
 21
71.565819225250323
 31
0.0
  0
LINE
  5
3192
  8
0
 10
311.48127433274021
 20
66.565819225250323
 30
0.0
 11
311.48127433274021
 21
71.565819225250323
 31
0.0
  0
LINE
  5
3193
  8
0
 10
288.98127433274021
 20
85.565819225250308
 30
0.0
 11
288.98127433274021
 21
66.565819225250266
 31
0.0
  0
LINE
  5
3194
  8
0
 10
291.98127433274038
 20
89.06581922525038
 30
0.0
 11
291.98127433274038
 21
86.065819225250323
 31
0.0
  0
LINE
  5
3195
  8
0
 10
317.9812743327405
 20
86.065819225250323
 30
0.0
 11
317.9812743327405
 21
89.06581922525038
 31
0.0
  0
LINE
  5
3196
  8
0
 10
317.48127433274038
 20
85.565819225250394
 30
0.0
 11
317.9812743327405
 21
86.065819225250323
 31
0.0
  0
LINE
  5
3197
  8
0
 10
291.98127433274038
 20
86.065819225250323
 30
0.0
 11
292.48127433274038
 21
85.565819225250394
 31
0.0
  0
LINE
  5
3198
  8
0
 10
292.48127433274038
 20
89.565819225250365
 30
0.0
 11
291.98127433274038
 21
89.06581922525038
 31
0.0
  0
LINE
  5
3199
  8
0
 10
317.9812743327405
 20
89.06581922525038
 30
0.0
 11
317.48127433274038
 21
89.565819225250365
 31
0.0
  0
LINE
  5
319A
  8
0
 10
295.98127433274038
 20
106.06581922525039
 30
0.0
 11
295.4812743327405
 21
105.7771440906555
 31
0.0
  0
LINE
  5
319B
  8
0
 10
314.48127433274038
 20
105.7771440906555
 30
0.0
 11
313.9812743327405
 21
106.06581922525039
 31
0.0
  0
LINE
  5
319C
  8
0
 10
317.9812743327405
 20
90.06581922525038
 30
0.0
 11
317.9812743327405
 21
93.065819225250394
 31
0.0
  0
LINE
  5
319D
  8
0
 10
291.98127433274038
 20
93.065819225250394
 30
0.0
 11
291.98127433274038
 21
90.06581922525038
 31
0.0
  0
POLYLINE
  5
319E
  8
0
 66
     1
 10
0.0
 20
0.0
 30
0.0
 70
   128
  0
VERTEX
  5
3D58
  8
0
 10
291.98127433274038
 20
90.06581922525038
 30
0.0
  0
VERTEX
  5
3D59
  8
0
 10
292.64112337899451
 20
89.758349285920531
 30
0.0
  0
VERTEX
  5
3D5A
  8
0
 10
293.07694787842951
 20
89.565819225250365
 30
0.0
  0
SEQEND
  5
3D5B
  8
0
  0
POLYLINE
  5
319F
  8
0
 66
     1
 10
0.0
 20
0.0
 30
0.0
 70
   128
  0
VERTEX
  5
3D5C
  8
0
 10
316.8856007870516
 20
89.565819225250365
 30
0.0
  0
VERTEX
  5
3D5D
  8
0
 10
317.32142528648637
 20
89.758349285920531
 30
0.0
  0
VERTEX
  5
3D5E
  8
0
 10
317.9812743327405
 20
90.06581922525038
 30
0.0
  0
SEQEND
  5
3D5F
  8
0
  0
LINE
  5
31A0
  8
0
 10
301.38127433274059
 20
65.180178579195285
 30
0.0
 11
301.38127433274059
 21
64.56581922525038
 31
0.0
  0
LINE
  5
31A1
  8
0
 10
308.58127433274058
 20
64.56581922525038
 30
0.0
 11
308.58127433274058
 21
65.180178579195285
 31
0.0
  0
LINE
  5
31A2
  8
0
 10
299.55862460193021
 20
116.56581922525029
 30
0.0
 11
298.9812743327405
 21
115.56581922525029
 31
0.0
  0
LINE
  5
31A3
  8
0
 10
310.98127433274038
 20
115.56581922525029
 30
0.0
 11
310.4039240635509
 21
116.56581922525029
 31
0.0
  0
LINE
  5
31A4
  8
0
 10
310.98127433274038
 20
85.565819225250308
 30
0.0
 11
310.98127433274038
 21
115.56581922525029
 31
0.0
  0
LINE
  5
31A5
  8
0
 10
310.98127433274038
 20
66.56581922525038
 30
0.0
 11
310.98127433274038
 21
71.565819225250323
 31
0.0
  0
LINE
  5
31A6
  8
0
 10
298.9812743327405
 20
71.565819225250323
 30
0.0
 11
298.9812743327405
 21
66.56581922525038
 31
0.0
  0
LINE
  5
31A7
  8
0
 10
298.9812743327405
 20
115.56581922525029
 30
0.0
 11
298.9812743327405
 21
85.565819225250308
 31
0.0
  0
LINE
  5
31A8
  8
0
 10
308.58127433274058
 20
65.180178579195285
 30
0.0
 11
310.98127433274038
 21
66.56581922525038
 31
0.0
  0
LINE
  5
31A9
  8
0
 10
298.9812743327405
 20
66.56581922525038
 30
0.0
 11
301.38127433274059
 21
65.180178579195285
 31
0.0
  0
LINE
  5
31AA
  8
0
 10
313.9812743327405
 20
57.56581922525038
 30
0.0
 11
313.9812743327405
 21
64.56581922525038
 31
0.0
  0
LINE
  5
31AB
  8
0
 10
295.98127433274038
 20
64.56581922525038
 30
0.0
 11
295.98127433274038
 21
57.56581922525038
 31
0.0
  0
LINE
  5
31AC
  8
0
 10
317.48127433274038
 20
51.565819225250323
 30
0.0
 11
317.48127433274038
 21
57.56581922525038
 31
0.0
  0
LINE
  5
31AD
  8
0
 10
292.48127433274038
 20
57.56581922525038
 30
0.0
 11
292.48127433274038
 21
51.565819225250323
 31
0.0
  0
LINE
  5
31AE
  8
0
 10
300.23127433274038
 20
51.565819225250323
 30
0.0
 11
300.23127433274038
 21
42.487386641742368
 31
0.0
  0
LINE
  5
31AF
  8
0
 10
300.23127433274038
 20
65.40075571578933
 30
0.0
 11
300.23127433274038
 21
64.56581922525038
 31
0.0
  0
LINE
  5
31B0
  8
0
 10
309.7312743327405
 20
64.56581922525038
 30
0.0
 11
309.7312743327405
 21
65.40075571578933
 31
0.0
  0
LINE
  5
31B1
  8
0
 10
309.7312743327405
 20
42.487386641742368
 30
0.0
 11
309.7312743327405
 21
51.565819225250323
 31
0.0
  0
LINE
  5
31B2
  8
0
 10
309.7312743327405
 20
65.40075571578933
 30
0.0
 11
310.11524892895608
 21
66.065819225250323
 31
0.0
  0
LINE
  5
31B3
  8
0
 10
299.84729973652497
 20
66.065819225250323
 30
0.0
 11
300.23127433274038
 21
65.40075571578933
 31
0.0
  0
LINE
  5
31B4
  8
0
 10
300.05477433274041
 20
132.56581922525029
 30
0.0
 11
298.9812743327405
 21
131.4923192252503
 31
0.0
  0
LINE
  5
31B5
  8
0
 10
310.98127433274038
 20
131.4923192252503
 30
0.0
 11
309.90777433274047
 21
132.56581922525029
 31
0.0
  0
LINE
  5
31B6
  8
0
 10
298.9812743327405
 20
131.4923192252503
 30
0.0
 11
298.9812743327405
 21
115.56581922525029
 31
0.0
  0
LINE
  5
31B7
  8
0
 10
310.98127433274038
 20
115.56581922525029
 30
0.0
 11
310.98127433274038
 21
131.4923192252503
 31
0.0
  0
ARC
  5
31B8
  8
0
 10
304.98127433273999
 20
32.565819225249868
 30
0.0
 40
11.00000000000043
 50
0.0000000000023409
 51
64.416998022600922
  0
ARC
  5
31B9
  8
0
 10
304.98127433273999
 20
32.565819225249868
 30
0.0
 40
11.00000000000021
 50
115.5830019773986
 51
179.99999999999761
  0
LINE
  5
3216
  8
1
 10
47.981274332739979
 20
137.56581922525029
 30
0.0
 11
47.981274332739979
 21
19.56581922525034
 31
0.0
  0
LINE
  5
3219
  8
3
 10
42.856274332739979
 20
132.3673192252503
 30
0.0
 11
42.856274332740099
 21
106.06581922525029
 31
0.0
  0
LINE
  5
321A
  8
3
 10
53.106274332739993
 20
132.3673192252503
 30
0.0
 11
53.106274332740099
 21
106.06581922525029
 31
0.0
  0
LINE
  5
321C
  8
0
 10
35.481274332739993
 20
89.565819225250351
 30
0.0
 11
60.481274332739979
 21
89.565819225250351
 31
0.0
  0
LINE
  5
321D
  8
0
 10
60.981274332739979
 20
89.065819225250351
 30
0.0
 11
34.981274332739993
 21
89.065819225250351
 31
0.0
  0
LINE
  5
321F
  8
0
 10
34.981274332739993
 20
86.065819225250294
 30
0.0
 11
60.981274332739979
 21
86.065819225250294
 31
0.0
  0
LINE
  5
3220
  8
0
 10
57.481274332739993
 20
93.065819225250351
 30
0.0
 11
57.481274332739993
 21
105.7771440906555
 31
0.0
  0
ARC
  5
3221
  8
0
 10
52.731274332739979
 20
91.805573034436492
 30
0.0
 40
13.95626534385373
 50
70.101865707354008
 51
109.89813429264601
  0
LINE
  5
3224
  8
0
 10
38.981274332739979
 20
106.06581922525029
 30
0.0
 11
56.981274332739993
 21
106.06581922525029
 31
0.0
  0
LINE
  5
3225
  8
0
 10
47.981274332740099
 20
93.065819225250351
 30
0.0
 11
47.981274332740099
 21
104.9286383146236
 31
0.0
  0
ARC
  5
3226
  8
0
 10
43.231274332739979
 20
91.805573034435952
 30
0.0
 40
13.956265343854239
 50
70.101865707357177
 51
109.89813429264279
  0
LINE
  5
3227
  8
0
 10
38.481274332739993
 20
93.065819225250351
 30
0.0
 11
38.481274332739993
 21
105.7771440906555
 31
0.0
  0
LINE
  5
3228
  8
0
 10
34.981274332739993
 20
90.065819225250337
 30
0.0
 11
60.981274332739979
 21
90.065819225250337
 31
0.0
  0
LINE
  5
3229
  8
0
 10
34.981274332739993
 20
93.065819225250351
 30
0.0
 11
60.981274332739979
 21
93.065819225250351
 31
0.0
  0
LINE
  5
322A
  8
0
 10
52.731274332739979
 20
64.565819225250323
 30
0.0
 11
56.981274332739758
 21
64.565819225250323
 31
0.0
  0
LINE
  5
322B
  8
0
 10
38.981274332739758
 20
64.565819225250323
 30
0.0
 11
43.231274332739979
 21
64.565819225250323
 31
0.0
  0
LINE
  5
322C
  8
0
 10
52.731274332739979
 20
51.565819225250287
 30
0.0
 11
60.481274332739751
 21
51.565819225250287
 31
0.0
  0
LINE
  5
322D
  8
0
 10
35.481274332739758
 20
51.565819225250287
 30
0.0
 11
43.231274332739979
 21
51.565819225250287
 31
0.0
  0
LINE
  5
322E
  8
0
 10
52.731274332739979
 20
57.565819225250323
 30
0.0
 11
60.481274332739751
 21
57.565819225250323
 31
0.0
  0
LINE
  5
322F
  8
0
 10
35.481274332739758
 20
57.565819225250323
 30
0.0
 11
43.231274332739979
 21
57.565819225250323
 31
0.0
  0
LINE
  5
3231
  8
0
 10
52.731274332739979
 20
65.40075571578933
 30
0.0
 11
43.231274332739979
 21
65.400755715789302
 31
0.0
  0
LINE
  5
3233
  8
0
 10
52.907774332740011
 20
132.56581922525021
 30
0.0
 11
43.054774332739953
 21
132.56581922525029
 31
0.0
  0
LINE
  5
3235
  8
0
 10
53.981274332739872
 20
131.49231922525021
 30
0.0
 11
41.981274332739979
 21
131.4923192252503
 31
0.0
  0
ARC
  5
3236
  8
0
 10
47.981274332740441
 20
32.565819225249811
 30
0.0
 40
8.6068286842488533
 50
0.0000000000034604
 51
179.9999999999965
  0
LINE
  5
3238
  8
0
 10
52.731274332739979
 20
42.487386641742283
 30
0.0
 11
43.231274332739979
 21
42.487386641742283
 31
0.0
  0
LINE
  5
323D
  8
0
 10
58.915628451754181
 20
28.9658192252503
 30
0.0
 11
58.915628451754181
 21
32.565819225250323
 31
0.0
  0
LINE
  5
323E
  8
0
 10
58.981274332739979
 20
32.565819225250323
 30
0.0
 11
36.981274332739993
 21
32.565819225250323
 31
0.0
  0
LINE
  5
323F
  8
0
 10
37.046920213726033
 20
32.565819225250323
 30
0.0
 11
37.046920213726033
 21
28.9658192252503
 31
0.0
  0
LINE
  5
3241
  8
0
 10
58.981274332740661
 20
32.565819225249811
 30
0.0
 11
58.981274332739979
 21
24.565819225250319
 31
0.0
  0
LINE
  5
3242
  8
0
 10
58.981274332739979
 20
28.9658192252503
 30
0.0
 11
58.915628451754181
 21
28.9658192252503
 31
0.0
  0
POLYLINE
  5
3243
  8
0
 66
     1
 10
0.0
 20
0.0
 30
0.0
 70
   128
  0
VERTEX
  5
3D60
  8
0
 10
49.540793489405587
 20
24.565819225250319
 30
0.0
  0
VERTEX
  5
3D61
  8
0
 10
51.686853335627802
 20
24.594021975235421
 30
0.0
  0
VERTEX
  5
3D62
  8
0
 10
53.83291318185001
 20
24.777911041068108
 30
0.0
  0
VERTEX
  5
3D63
  8
0
 10
55.265229498913982
 20
25.09012677429979
 30
0.0
  0
VERTEX
  5
3D64
  8
0
 10
56.658939589227771
 20
25.657421977475082
 30
0.0
  0
VERTEX
  5
3D65
  8
0
 10
57.822247202163233
 20
26.508040091318641
 30
0.0
  0
VERTEX
  5
3D66
  8
0
 10
58.286436776153657
 20
27.054182095963061
 30
0.0
  0
VERTEX
  5
3D67
  8
0
 10
58.6506843961821
 20
27.701269178085539
 30
0.0
  0
VERTEX
  5
3D68
  8
0
 10
58.907668073305672
 20
28.74368238640017
 30
0.0
  0
VERTEX
  5
3D69
  8
0
 10
58.915628451754181
 20
28.9658192252503
 30
0.0
  0
SEQEND
  5
3D6A
  8
0
  0
LINE
  5
3245
  8
0
 10
36.981274332739993
 20
24.565819225250319
 30
0.0
 11
36.981274332740213
 21
32.565819225250102
 31
0.0
  0
LINE
  5
3246
  8
0
 10
58.981274332739979
 20
24.565819225250319
 30
0.0
 11
36.981274332739993
 21
24.565819225250319
 31
0.0
  0
POLYLINE
  5
3247
  8
0
 66
     1
 10
0.0
 20
0.0
 30
0.0
 70
   128
  0
VERTEX
  5
3D6B
  8
0
 10
37.046920213726033
 20
28.9658192252503
 30
0.0
  0
VERTEX
  5
3D6C
  8
0
 10
37.138626359842881
 20
28.215107883269951
 30
0.0
  0
VERTEX
  5
3D6D
  8
0
 10
37.546926344491801
 20
27.24997083643277
 30
0.0
  0
VERTEX
  5
3D6E
  8
0
 10
38.275903712524382
 20
26.379323041235811
 30
0.0
  0
VERTEX
  5
3D6F
  8
0
 10
38.974648553942423
 20
25.850152794447521
 30
0.0
  0
VERTEX
  5
3D70
  8
0
 10
39.770941715936381
 20
25.42812112232173
 30
0.0
  0
VERTEX
  5
3D71
  8
0
 10
41.116956066028592
 20
24.976455952035248
 30
0.0
  0
VERTEX
  5
3D72
  8
0
 10
42.549724723867712
 20
24.72091244874921
 30
0.0
  0
VERTEX
  5
3D73
  8
0
 10
44.478967050576223
 20
24.587285164821878
 30
0.0
  0
VERTEX
  5
3D74
  8
0
 10
46.421755176074498
 20
24.565819225250319
 30
0.0
  0
SEQEND
  5
3D75
  8
0
  0
LINE
  5
3248
  8
0
 10
37.046920213726033
 20
28.9658192252503
 30
0.0
 11
36.981274332740099
 21
28.9658192252503
 31
0.0
  0
LINE
  5
324B
  8
0
 10
31.98127433274021
 20
68.173514379837059
 30
0.0
 11
31.98127433274021
 21
66.565819225250351
 31
0.0
  0
LINE
  5
324C
  8
0
 10
63.981274332740213
 20
68.17351437983703
 30
0.0
 11
63.981274332740213
 21
66.565819225250351
 31
0.0
  0
LINE
  5
324D
  8
0
 10
63.981274332740213
 20
85.565819225250351
 30
0.0
 11
31.98127433274021
 21
85.565819225250351
 31
0.0
  0
LINE
  5
324E
  8
0
 10
31.98127433274021
 20
85.565819225250351
 30
0.0
 11
31.98127433274021
 21
68.173514379837059
 31
0.0
  0
LINE
  5
324F
  8
0
 10
63.981274332740213
 20
68.17351437983703
 30
0.0
 11
31.98127433274021
 21
68.173514379837059
 31
0.0
  0
LINE
  5
3250
  8
0
 10
63.981274332740213
 20
85.565819225250351
 30
0.0
 11
63.981274332740213
 21
68.17351437983703
 31
0.0
  0
LINE
  5
3251
  8
0
 10
35.481274332739993
 20
89.565819225250351
 30
0.0
 11
34.981274332739993
 21
89.065819225250351
 31
0.0
  0
LINE
  5
3252
  8
0
 10
60.981274332739979
 20
89.065819225250351
 30
0.0
 11
60.481274332739979
 21
89.565819225250351
 31
0.0
  0
LINE
  5
3253
  8
0
 10
34.981274332739993
 20
89.065819225250351
 30
0.0
 11
34.981274332739993
 21
86.065819225250294
 31
0.0
  0
LINE
  5
3254
  8
0
 10
60.981274332739979
 20
86.065819225250294
 30
0.0
 11
60.981274332739979
 21
89.065819225250351
 31
0.0
  0
LINE
  5
3255
  8
0
 10
60.481274332739979
 20
85.565819225250308
 30
0.0
 11
60.981274332739979
 21
86.065819225250294
 31
0.0
  0
LINE
  5
3256
  8
0
 10
34.981274332739993
 20
86.065819225250294
 30
0.0
 11
35.481274332739993
 21
85.565819225250308
 31
0.0
  0
LINE
  5
3257
  8
0
 10
38.981274332739979
 20
106.06581922525029
 30
0.0
 11
38.481274332739993
 21
105.7771440906555
 31
0.0
  0
LINE
  5
3258
  8
0
 10
57.481274332739993
 20
105.7771440906555
 30
0.0
 11
56.981274332739993
 21
106.06581922525029
 31
0.0
  0
POLYLINE
  5
3259
  8
0
 66
     1
 10
0.0
 20
0.0
 30
0.0
 70
   128
  0
VERTEX
  5
3D76
  8
0
 10
34.981274332739993
 20
90.065819225250337
 30
0.0
  0
VERTEX
  5
3D77
  8
0
 10
35.641123378994173
 20
89.758349285920502
 30
0.0
  0
VERTEX
  5
3D78
  8
0
 10
36.076947878429003
 20
89.565819225250351
 30
0.0
  0
SEQEND
  5
3D79
  8
0
  0
POLYLINE
  5
325A
  8
0
 66
     1
 10
0.0
 20
0.0
 30
0.0
 70
   128
  0
VERTEX
  5
3D7A
  8
0
 10
59.885600787051089
 20
89.565819225250351
 30
0.0
  0
VERTEX
  5
3D7B
  8
0
 10
60.321425286485912
 20
89.758349285920502
 30
0.0
  0
VERTEX
  5
3D7C
  8
0
 10
60.981274332739979
 20
90.065819225250337
 30
0.0
  0
SEQEND
  5
3D7D
  8
0
  0
LINE
  5
325B
  8
0
 10
60.981274332739979
 20
90.065819225250337
 30
0.0
 11
60.981274332739979
 21
93.065819225250351
 31
0.0
  0
LINE
  5
325C
  8
0
 10
34.981274332739993
 20
93.065819225250351
 30
0.0
 11
34.981274332739993
 21
90.065819225250337
 31
0.0
  0
LINE
  5
325D
  8
0
 10
53.11524892895568
 20
66.06581922525055
 30
0.0
 11
53.981274332739758
 21
66.565819225250294
 31
0.0
  0
LINE
  5
325E
  8
0
 10
41.981274332739758
 20
66.565819225250294
 30
0.0
 11
42.847299736524633
 21
66.065819225250038
 31
0.0
  0
LINE
  5
325F
  8
0
 10
56.981274332739758
 20
57.565819225250323
 30
0.0
 11
56.981274332739758
 21
64.565819225250323
 31
0.0
  0
LINE
  5
3260
  8
0
 10
38.981274332739758
 20
64.565819225250323
 30
0.0
 11
38.981274332739758
 21
57.565819225250323
 31
0.0
  0
LINE
  5
3261
  8
0
 10
60.481274332739751
 20
51.565819225250287
 30
0.0
 11
60.481274332739751
 21
57.565819225250323
 31
0.0
  0
LINE
  5
3262
  8
0
 10
35.481274332739758
 20
57.565819225250323
 30
0.0
 11
35.481274332739758
 21
51.565819225250287
 31
0.0
  0
LINE
  5
3263
  8
0
 10
43.231274332739979
 20
65.400755715789302
 30
0.0
 11
43.231274332739979
 21
42.487386641742283
 31
0.0
  0
LINE
  5
3264
  8
0
 10
52.731274332739979
 20
42.487386641742283
 30
0.0
 11
52.731274332739979
 21
65.400755715789302
 31
0.0
  0
LINE
  5
3265
  8
0
 10
52.731274332739979
 20
65.400755715789302
 30
0.0
 11
53.403924063550328
 21
66.565819225250294
 31
0.0
  0
LINE
  5
3266
  8
0
 10
42.558624601929637
 20
66.565819225250351
 30
0.0
 11
43.231274332739979
 21
65.400755715789302
 31
0.0
  0
LINE
  5
3267
  8
0
 10
43.054774332739953
 20
132.56581922525029
 30
0.0
 11
41.981274332739979
 21
131.4923192252503
 31
0.0
  0
LINE
  5
3268
  8
0
 10
53.981274332739979
 20
131.4923192252503
 30
0.0
 11
52.907774332740011
 21
132.56581922525029
 31
0.0
  0
LINE
  5
3269
  8
0
 10
41.981274332739979
 20
131.4923192252503
 30
0.0
 11
41.981274332739979
 21
106.06581922525029
 31
0.0
  0
LINE
  5
326A
  8
0
 10
53.981274332739979
 20
106.06581922525029
 30
0.0
 11
53.981274332739979
 21
131.4923192252503
 31
0.0
  0
ARC
  5
326B
  8
0
 10
47.981274332740441
 20
32.565819225249811
 30
0.0
 40
11.000000000000229
 50
0.0000000000026462
 51
64.416998022601348
  0
ARC
  5
326C
  8
0
 10
47.981274332740441
 20
32.565819225249811
 30
0.0
 40
11.00000000000041
 50
115.58300197739899
 51
179.9999999999973
  0
LINE
  5
326D
  8
0
 10
31.98127433274021
 20
66.565819225250351
 30
0.0
 11
63.981274332740213
 21
66.565819225250351
 31
0.0
  0
LINE
  5
326E
  8
1
 10
108.9812743327402
 20
198.56581922525041
 30
0.0
 11
245.48127433274021
 21
198.56581922525041
 31
0.0
  0
CIRCLE
  5
326F
  8
3
 10
227.98127433274021
 20
198.56581922525041
 30
0.0
 40
5.1249999999999432
  0
CIRCLE
  5
3270
  8
3
 10
183.98127433274021
 20
198.5658192252501
 30
0.0
 40
5.125
  0
CIRCLE
  5
3279
  8
0
 10
183.98127433274021
 20
198.56581922525021
 30
0.0
 40
13.0
  0
LINE
  5
327A
  8
0
 10
178.4964467754387
 20
189.06581922525021
 30
0.0
 11
173.01161921813741
 21
198.56581922525021
 31
0.0
  0
LINE
  5
327B
  8
0
 10
189.4661018900417
 20
189.06581922525021
 30
0.0
 11
178.4964467754387
 21
189.06581922525021
 31
0.0
  0
LINE
  5
327C
  8
0
 10
194.95092944734299
 20
198.56581922525021
 30
0.0
 11
189.4661018900417
 21
189.06581922525021
 31
0.0
  0
LINE
  5
327D
  8
0
 10
189.4661018900417
 20
208.06581922525021
 30
0.0
 11
194.95092944734299
 21
198.56581922525021
 31
0.0
  0
LINE
  5
327E
  8
0
 10
178.4964467754387
 20
208.06581922525021
 30
0.0
 11
189.4661018900417
 21
208.06581922525021
 31
0.0
  0
LINE
  5
327F
  8
0
 10
173.01161921813741
 20
198.56581922525021
 30
0.0
 11
178.4964467754387
 21
208.06581922525021
 31
0.0
  0
CIRCLE
  5
3281
  8
0
 10
183.98127433274021
 20
198.56581922525021
 30
0.0
 40
9.0
  0
ARC
  5
3282
  8
0
 10
227.98127433274021
 20
198.56581922525049
 30
0.0
 40
12.500000000000041
 50
331.64236342367371
 51
28.357636576327138
  0
LINE
  5
3283
  8
0
 10
231.44537594787789
 20
198.56581922525029
 30
0.0
 11
229.713325140309
 21
201.56581922525029
 31
0.0
  0
LINE
  5
3284
  8
0
 10
229.713325140309
 20
195.56581922525029
 30
0.0
 11
231.44537594787789
 21
198.56581922525029
 31
0.0
  0
LINE
  5
3285
  8
0
 10
226.2492235251714
 20
195.56581922525029
 30
0.0
 11
229.713325140309
 21
195.56581922525029
 31
0.0
  0
LINE
  5
3286
  8
0
 10
224.51717271760251
 20
198.56581922525029
 30
0.0
 11
226.2492235251714
 21
195.56581922525029
 31
0.0
  0
LINE
  5
3287
  8
0
 10
226.2492235251714
 20
201.56581922525029
 30
0.0
 11
224.51717271760251
 21
198.56581922525029
 31
0.0
  0
LINE
  5
3288
  8
0
 10
229.713325140309
 20
201.56581922525029
 30
0.0
 11
226.2492235251714
 21
201.56581922525029
 31
0.0
  0
CIRCLE
  5
3289
  8
0
 10
227.98127433274021
 20
198.56581922525029
 30
0.0
 40
6.0
  0
CIRCLE
  5
328C
  8
0
 10
183.98127433274021
 20
198.5658192252501
 30
0.0
 40
6.0
  0
LINE
  5
328D
  8
0
 10
172.72294408354239
 20
192.06581922525029
 30
0.0
 11
133.98127433274021
 21
192.06581922525029
 31
0.0
  0
ARC
  5
328E
  8
0
 10
133.98127433274021
 20
198.56581922525029
 30
0.0
 40
6.5
 50
90.0
 51
270.0
  0
LINE
  5
328F
  8
0
 10
133.98127433274021
 20
205.06581922525029
 30
0.0
 11
172.72294408354259
 21
205.06581922525029
 31
0.0
  0
LINE
  5
3290
  8
0
 10
113.9812743327402
 20
182.56581922525029
 30
0.0
 11
113.9812743327402
 21
214.56581922525041
 31
0.0
  0
LINE
  5
3291
  8
0
 10
113.9812743327402
 20
182.56581922525029
 30
0.0
 11
238.9812743327405
 21
182.56581922525029
 31
0.0
  0
LINE
  5
3292
  8
0
 10
238.9812743327405
 20
182.56581922525029
 30
0.0
 11
238.9812743327405
 21
214.56581922525041
 31
0.0
  0
LINE
  5
3293
  8
0
 10
113.9812743327402
 20
214.56581922525041
 30
0.0
 11
238.9812743327405
 21
214.56581922525041
 31
0.0
  0
LINE
  5
32F2
  8
1
 10
227.98127433274021
 20
46.565819225250323
 30
0.0
 11
227.98127433274021
 21
121.56581922525029
 31
0.0
  0
LINE
  5
32F6
  8
1
 10
183.98127433274001
 20
137.56581922525029
 30
0.0
 11
183.98127433274021
 21
19.56581922525034
 31
0.0
  0
LINE
  5
32F8
  8
3
 10
222.85627433274021
 20
116.56581922525029
 30
0.0
 11
222.85627433274021
 21
85.565819225250308
 31
0.0
  0
LINE
  5
32F9
  8
3
 10
233.10627433274021
 20
116.56581922525029
 30
0.0
 11
233.10627433274021
 21
85.565819225250308
 31
0.0
  0
LINE
  5
32FA
  8
3
 10
178.85627433274021
 20
132.3673192252503
 30
0.0
 11
178.85627433274021
 21
106.06581922525039
 31
0.0
  0
LINE
  5
32FB
  8
3
 10
189.10627433274021
 20
132.3673192252503
 30
0.0
 11
189.10627433274021
 21
106.06581922525039
 31
0.0
  0
LINE
  5
3312
  8
1
 10
133.9812743327403
 20
88.565819225250323
 30
0.0
 11
133.9812743327403
 21
64.712596230426684
 31
0.0
  0
LINE
  5
3314
  8
0
 10
171.48127433274021
 20
89.565819225250365
 30
0.0
 11
196.48127433274021
 21
89.565819225250365
 31
0.0
  0
LINE
  5
3315
  8
0
 10
196.98127433274021
 20
89.06581922525038
 30
0.0
 11
170.98127433274021
 21
89.06581922525038
 31
0.0
  0
LINE
  5
3316
  8
0
 10
170.98127433274021
 20
86.065819225250323
 30
0.0
 11
196.98127433274021
 21
86.065819225250323
 31
0.0
  0
LINE
  5
3317
  8
0
 10
194.95092944734299
 20
93.065819225250394
 30
0.0
 11
194.95092944734299
 21
104.9286383146237
 31
0.0
  0
LINE
  5
3318
  8
0
 10
189.4661018900417
 20
93.065819225250394
 30
0.0
 11
189.4661018900417
 21
104.9286383146236
 31
0.0
  0
ARC
  5
3319
  8
0
 10
183.98127433274021
 20
87.233064478778928
 30
0.0
 40
18.526107705429279
 50
72.778928004650751
 51
107.22107199534921
  0
ARC
  5
331A
  8
0
 10
192.2085156686926
 20
100.7854493175999
 30
0.0
 40
4.96858615688528
 50
56.49906912649832
 51
123.5009308735019
  0
LINE
  5
331B
  8
0
 10
174.98127433274021
 20
106.06581922525039
 30
0.0
 11
192.98127433274021
 21
106.06581922525039
 31
0.0
  0
LINE
  5
331D
  8
0
 10
178.4964467754387
 20
93.065819225250394
 30
0.0
 11
178.4964467754387
 21
104.9286383146236
 31
0.0
  0
ARC
  5
331E
  8
0
 10
175.754032996788
 20
100.7854493175996
 30
0.0
 40
4.9685861568855021
 50
56.49906912649854
 51
123.5009308735016
  0
LINE
  5
331F
  8
0
 10
173.01161921813741
 20
93.065819225250394
 30
0.0
 11
173.01161921813741
 21
104.9286383146236
 31
0.0
  0
LINE
  5
3320
  8
0
 10
170.98127433274021
 20
90.06581922525038
 30
0.0
 11
196.9812743327401
 21
90.06581922525038
 31
0.0
  0
LINE
  5
3322
  8
0
 10
170.98127433274021
 20
93.065819225250394
 30
0.0
 11
196.9812743327401
 21
93.065819225250394
 31
0.0
  0
LINE
  5
3324
  8
0
 10
231.58127433274029
 20
65.180178579195285
 30
0.0
 11
224.3812743327403
 21
65.180178579195285
 31
0.0
  0
LINE
  5
3325
  8
0
 10
222.55862460192981
 20
116.56581922525029
 30
0.0
 11
233.4039240635507
 21
116.56581922525029
 31
0.0
  0
LINE
  5
3326
  8
0
 10
233.98127433274021
 20
115.56581922525029
 30
0.0
 11
221.98127433274021
 21
115.56581922525029
 31
0.0
  0
LINE
  5
3327
  8
0
 10
218.98127433274021
 20
64.56581922525038
 30
0.0
 11
236.9812743327401
 21
64.56581922525038
 31
0.0
  0
LINE
  5
3329
  8
0
 10
215.48127433274021
 20
57.56581922525038
 30
0.0
 11
240.48127433274021
 21
57.56581922525038
 31
0.0
  0
LINE
  5
332B
  8
0
 10
215.48127433274021
 20
51.565819225250323
 30
0.0
 11
240.48127433274021
 21
51.565819225250323
 31
0.0
  0
LINE
  5
332D
  8
0
 10
188.90777433274019
 20
132.56581922525029
 30
0.0
 11
179.0547743327401
 21
132.56581922525029
 31
0.0
  0
LINE
  5
332E
  8
0
 10
189.98127433274021
 20
131.4923192252503
 30
0.0
 11
177.98127433274021
 21
131.4923192252503
 31
0.0
  0
LINE
  5
332F
  8
0
 10
188.73127433274021
 20
65.40075571578933
 30
0.0
 11
179.23127433274021
 21
65.40075571578933
 31
0.0
  0
LINE
  5
3330
  8
0
 10
172.9812743327403
 20
24.565819225250308
 30
0.0
 11
172.98127433274021
 21
32.565819225250323
 31
0.0
  0
LINE
  5
3333
  8
0
 10
194.98127433274021
 20
32.565819225250323
 30
0.0
 11
183.98127433274021
 21
32.565819225250323
 31
0.0
  0
LINE
  5
3334
  8
0
 10
183.98127433274021
 20
32.565819225250323
 30
0.0
 11
172.9812743327403
 21
32.565819225250323
 31
0.0
  0
LINE
  5
3335
  8
0
 10
173.0469202137262
 20
32.565819225250323
 30
0.0
 11
173.0469202137262
 21
28.96581922525036
 31
0.0
  0
LINE
  5
3336
  8
0
 10
194.98127433274021
 20
32.565819225250323
 30
0.0
 11
194.9812743327403
 21
24.56581922525034
 31
0.0
  0
LINE
  5
3338
  8
0
 10
194.9156284517542
 20
28.96581922525036
 30
0.0
 11
194.9156284517542
 21
32.565819225250323
 31
0.0
  0
LINE
  5
3339
  8
0
 10
190.83127433274029
 20
41.172647909498721
 30
0.0
 11
190.83127433273989
 21
32.565819225250323
 31
0.0
  0
LINE
  5
333A
  8
0
 10
177.1312743327403
 20
32.565819225250323
 30
0.0
 11
177.1312743327403
 21
41.172647909498721
 31
0.0
  0
LINE
  5
333B
  8
0
 10
188.73127433274041
 20
42.487386641742368
 30
0.0
 11
179.23127433274021
 21
42.487386641742368
 31
0.0
  0
LINE
  5
333D
  8
0
 10
194.98127433274021
 20
28.96581922525036
 30
0.0
 11
194.9156284517542
 21
28.96581922525036
 31
0.0
  0
POLYLINE
  5
333E
  8
0
 66
     1
 10
0.0
 20
0.0
 30
0.0
 70
   128
  0
VERTEX
  5
3D7E
  8
0
 10
185.54079348940579
 20
24.56581922525034
 30
0.0
  0
VERTEX
  5
3D7F
  8
0
 10
187.686853335628
 20
24.594021975235439
 30
0.0
  0
VERTEX
  5
3D80
  8
0
 10
189.83291318185019
 20
24.777911041068151
 30
0.0
  0
VERTEX
  5
3D81
  8
0
 10
191.2652294989141
 20
25.090126774299829
 30
0.0
  0
VERTEX
  5
3D82
  8
0
 10
192.65893958922791
 20
25.657421977475131
 30
0.0
  0
VERTEX
  5
3D83
  8
0
 10
193.8222472021634
 20
26.508040091318652
 30
0.0
  0
VERTEX
  5
3D84
  8
0
 10
194.28643677615369
 20
27.054182095963132
 30
0.0
  0
VERTEX
  5
3D85
  8
0
 10
194.65068439618221
 20
27.701269178085582
 30
0.0
  0
VERTEX
  5
3D86
  8
0
 10
194.90766807330581
 20
28.74368238640022
 30
0.0
  0
VERTEX
  5
3D87
  8
0
 10
194.9156284517542
 20
28.96581922525036
 30
0.0
  0
SEQEND
  5
3D88
  8
0
  0
LINE
  5
333F
  8
0
 10
194.98127433274021
 20
24.56581922525034
 30
0.0
 11
172.98127433274021
 21
24.565819225250319
 31
0.0
  0
POLYLINE
  5
3341
  8
0
 66
     1
 10
0.0
 20
0.0
 30
0.0
 70
   128
  0
VERTEX
  5
3D89
  8
0
 10
173.0469202137262
 20
28.96581922525036
 30
0.0
  0
VERTEX
  5
3D8A
  8
0
 10
173.1386263598431
 20
28.215107883270019
 30
0.0
  0
VERTEX
  5
3D8B
  8
0
 10
173.54692634449199
 20
27.249970836432841
 30
0.0
  0
VERTEX
  5
3D8C
  8
0
 10
174.2759037125245
 20
26.379323041235882
 30
0.0
  0
VERTEX
  5
3D8D
  8
0
 10
174.97464855394259
 20
25.85015279444757
 30
0.0
  0
VERTEX
  5
3D8E
  8
0
 10
175.77094171593649
 20
25.428121122321802
 30
0.0
  0
VERTEX
  5
3D8F
  8
0
 10
177.11695606602871
 20
24.97645595203527
 30
0.0
  0
VERTEX
  5
3D90
  8
0
 10
178.54972472386791
 20
24.720912448749221
 30
0.0
  0
VERTEX
  5
3D91
  8
0
 10
180.4789670505763
 20
24.587285164821921
 30
0.0
  0
VERTEX
  5
3D92
  8
0
 10
182.42175517607461
 20
24.56581922525034
 30
0.0
  0
SEQEND
  5
3D93
  8
0
  0
LINE
  5
3342
  8
0
 10
173.0469202137262
 20
28.96581922525036
 30
0.0
 11
172.98127433274021
 21
28.96581922525036
 31
0.0
  0
LINE
  5
3344
  8
0
 10
238.98127433274021
 20
66.56581922525038
 30
0.0
 11
144.58127433274029
 21
66.56581922525038
 31
0.0
  0
LINE
  5
3345
  8
0
 10
238.98127433274021
 20
85.565819225250308
 30
0.0
 11
238.98127433274021
 21
66.56581922525038
 31
0.0
  0
LINE
  5
3346
  8
0
 10
113.9812743327402
 20
85.565819225250308
 30
0.0
 11
113.9812743327402
 21
68.173514379837115
 31
0.0
  0
ARC
  5
3347
  8
0
 10
119.9812743327402
 20
78.565819225250365
 30
0.0
 40
12.00000000000005
 50
240.0000000000002
 51
303.36701296923258
  0
LINE
  5
3348
  8
0
 10
113.9812743327402
 20
85.565819225250308
 30
0.0
 11
238.98127433274021
 21
85.565819225250308
 31
0.0
  0
LINE
  5
3349
  8
0
 10
126.58127433274031
 20
68.543843372156289
 30
0.0
 11
144.58127433274029
 21
66.56581922525038
 31
0.0
  0
LINE
  5
334A
  8
0
 10
171.48127433274021
 20
89.565819225250365
 30
0.0
 11
170.98127433274021
 21
89.06581922525038
 31
0.0
  0
LINE
  5
334B
  8
0
 10
196.98127433274021
 20
89.06581922525038
 30
0.0
 11
196.48127433274021
 21
89.565819225250365
 31
0.0
  0
LINE
  5
334C
  8
0
 10
170.98127433274021
 20
89.06581922525038
 30
0.0
 11
170.98127433274021
 21
86.065819225250323
 31
0.0
  0
LINE
  5
334D
  8
0
 10
196.98127433274021
 20
86.065819225250323
 30
0.0
 11
196.98127433274021
 21
89.06581922525038
 31
0.0
  0
LINE
  5
334E
  8
0
 10
196.48127433274021
 20
85.565819225250394
 30
0.0
 11
196.98127433274021
 21
86.065819225250323
 31
0.0
  0
LINE
  5
334F
  8
0
 10
170.98127433274021
 20
86.065819225250323
 30
0.0
 11
171.48127433274021
 21
85.565819225250394
 31
0.0
  0
LINE
  5
3350
  8
0
 10
174.98127433274021
 20
106.06581922525039
 30
0.0
 11
173.01161921813741
 21
104.9286383146236
 31
0.0
  0
LINE
  5
3351
  8
0
 10
194.95092944734299
 20
104.9286383146237
 30
0.0
 11
192.98127433274021
 21
106.06581922525039
 31
0.0
  0
POLYLINE
  5
3352
  8
0
 66
     1
 10
0.0
 20
0.0
 30
0.0
 70
   128
  0
VERTEX
  5
3D94
  8
0
 10
195.88560078705129
 20
89.565819225250365
 30
0.0
  0
VERTEX
  5
3D95
  8
0
 10
196.32142528648609
 20
89.758349285920531
 30
0.0
  0
VERTEX
  5
3D96
  8
0
 10
196.98127433274021
 20
90.06581922525038
 30
0.0
  0
SEQEND
  5
3D97
  8
0
  0
POLYLINE
  5
3353
  8
0
 66
     1
 10
0.0
 20
0.0
 30
0.0
 70
   128
  0
VERTEX
  5
3D98
  8
0
 10
170.98127433274021
 20
90.06581922525038
 30
0.0
  0
VERTEX
  5
3D99
  8
0
 10
171.64112337899431
 20
89.758349285920531
 30
0.0
  0
VERTEX
  5
3D9A
  8
0
 10
172.07694787842931
 20
89.565819225250365
 30
0.0
  0
SEQEND
  5
3D9B
  8
0
  0
LINE
  5
3354
  8
0
 10
196.98127433274021
 20
90.06581922525038
 30
0.0
 11
196.98127433274021
 21
93.065819225250394
 31
0.0
  0
LINE
  5
3355
  8
0
 10
170.98127433274021
 20
93.065819225250394
 30
0.0
 11
170.98127433274021
 21
90.06581922525038
 31
0.0
  0
LINE
  5
3356
  8
0
 10
224.3812743327403
 20
65.180178579195285
 30
0.0
 11
224.3812743327403
 21
64.56581922525038
 31
0.0
  0
LINE
  5
3357
  8
0
 10
231.58127433274029
 20
64.56581922525038
 30
0.0
 11
231.58127433274029
 21
65.180178579195285
 31
0.0
  0
LINE
  5
3358
  8
0
 10
231.58127433274029
 20
65.180178579195285
 30
0.0
 11
233.98127433274021
 21
66.56581922525038
 31
0.0
  0
LINE
  5
3359
  8
0
 10
221.98127433274021
 20
66.56581922525038
 30
0.0
 11
224.3812743327403
 21
65.180178579195285
 31
0.0
  0
LINE
  5
335A
  8
0
 10
222.55862460192981
 20
116.56581922525029
 30
0.0
 11
221.98127433274021
 21
115.56581922525029
 31
0.0
  0
LINE
  5
335B
  8
0
 10
233.98127433274021
 20
115.56581922525029
 30
0.0
 11
233.4039240635507
 21
116.56581922525029
 31
0.0
  0
LINE
  5
335C
  8
0
 10
233.98127433274021
 20
85.565819225250308
 30
0.0
 11
233.98127433274021
 21
115.56581922525029
 31
0.0
  0
LINE
  5
335D
  8
0
 10
221.98127433274021
 20
115.56581922525029
 30
0.0
 11
221.98127433274021
 21
85.565819225250308
 31
0.0
  0
LINE
  5
335E
  8
0
 10
236.98127433274021
 20
57.56581922525038
 30
0.0
 11
236.98127433274021
 21
64.56581922525038
 31
0.0
  0
LINE
  5
335F
  8
0
 10
218.98127433274021
 20
64.56581922525038
 30
0.0
 11
218.98127433274021
 21
57.56581922525038
 31
0.0
  0
LINE
  5
3360
  8
0
 10
240.48127433274021
 20
51.565819225250323
 30
0.0
 11
240.48127433274021
 21
57.56581922525038
 31
0.0
  0
LINE
  5
3361
  8
0
 10
215.48127433274021
 20
57.56581922525038
 30
0.0
 11
215.48127433274021
 21
51.565819225250323
 31
0.0
  0
LINE
  5
3362
  8
0
 10
179.23127433274021
 20
65.40075571578933
 30
0.0
 11
179.23127433274021
 21
42.487386641742368
 31
0.0
  0
LINE
  5
3363
  8
0
 10
188.73127433274021
 20
42.487386641742368
 30
0.0
 11
188.73127433274021
 21
65.40075571578933
 31
0.0
  0
LINE
  5
3364
  8
0
 10
179.0547743327401
 20
132.56581922525029
 30
0.0
 11
177.98127433274021
 21
131.4923192252503
 31
0.0
  0
LINE
  5
3365
  8
0
 10
189.98127433274021
 20
131.4923192252503
 30
0.0
 11
188.90777433274019
 21
132.56581922525029
 31
0.0
  0
LINE
  5
3366
  8
0
 10
177.98127433274021
 20
131.4923192252503
 30
0.0
 11
177.98127433274021
 21
106.06581922525039
 31
0.0
  0
LINE
  5
3367
  8
0
 10
189.98127433274021
 20
106.06581922525039
 30
0.0
 11
189.98127433274021
 21
131.4923192252503
 31
0.0
  0
LINE
  5
3368
  8
0
 10
188.73127433274021
 20
65.40075571578933
 30
0.0
 11
189.4039240635507
 21
66.56581922525038
 31
0.0
  0
LINE
  5
3369
  8
0
 10
178.55862460192989
 20
66.56581922525038
 30
0.0
 11
179.23127433274021
 21
65.40075571578933
 31
0.0
  0
ARC
  5
336A
  8
0
 10
183.98127433274021
 20
32.565819225249868
 30
0.0
 40
11.000000000000361
 50
51.48443094752259
 51
64.41699802260122
  0
ARC
  5
336B
  8
0
 10
183.98127433274021
 20
32.565819225249868
 30
0.0
 40
11.000000000000391
 50
115.58300197739889
 51
128.51556905247739
  0
LINE
  5
39EE
  8
3
 10
53.106274332739993
 20
66.565819225250351
 30
0.0
 11
53.106274332739993
 21
66.050274768627617
 31
0.0
  0
LINE
  5
39EF
  8
3
 10
53.106274332739758
 20
66.565819225250351
 30
0.0
 11
53.106274332739758
 21
66.060637739709421
 31
0.0
  0
LINE
  5
39F0
  8
0
 10
42.856274332739979
 20
66.565819225250351
 30
0.0
 11
42.856274332739979
 21
66.050274768627617
 31
0.0
  0
LINE
  5
39F1
  8
3
 10
42.856274332739751
 20
66.565819225250351
 30
0.0
 11
42.856274332739751
 21
66.060637739709421
 31
0.0
  0
LINE
  5
39F2
  8
3
 10
310.10627433274038
 20
132.3673192252503
 30
0.0
 11
310.10627433274061
 21
85.565819225250308
 31
0.0
  0
LINE
  5
39F3
  8
3
 10
299.8562743327405
 20
132.3673192252503
 30
0.0
 11
299.8562743327405
 21
85.565819225250308
 31
0.0
  0
LINE
  5
39FF
  8
3
 10
299.85627433274061
 20
71.565819225250323
 30
0.0
 11
299.8562743327405
 21
66.050274768627617
 31
0.0
  0
LINE
  5
3A00
  8
3
 10
310.10627433274061
 20
71.565819225250323
 30
0.0
 11
310.10627433274038
 21
66.050274768627617
 31
0.0
  0
LINE
  5
3A01
  8
3
 10
233.1062743327403
 20
66.56581922525038
 30
0.0
 11
233.10627433274021
 21
66.060637739709478
 31
0.0
  0
LINE
  5
3A02
  8
3
 10
222.8562743327403
 20
66.56581922525038
 30
0.0
 11
222.85627433274021
 21
66.060637739709478
 31
0.0
  0
LINE
  5
3A03
  8
3
 10
189.10627433274021
 20
66.56581922525038
 30
0.0
 11
189.10627433274021
 21
66.050274768627617
 31
0.0
  0
LINE
  5
3A04
  8
3
 10
178.8562743327401
 20
66.56581922525038
 30
0.0
 11
178.85627433274021
 21
66.050274768627617
 31
0.0
  0
LINE
  5
3A0D
  8
1
 10
304.98127433274038
 20
137.56581922525029
 30
0.0
 11
304.98127433274038
 21
19.565819225250351
 31
0.0
  0
ARC
  5
3B86
  8
2
 10
183.98127433274021
 20
198.56581922525029
 30
0.0
 40
6.5
 50
270.0
 51
90.0
  0
LINE
  5
3B89
  8
1
 10
133.98127433274021
 20
208.06581922525041
 30
0.0
 11
133.98127433274021
 21
189.06581922525041
 31
0.0
  0
LINE
  5
3B8A
  8
1
 10
183.98127433274021
 20
214.56581922525029
 30
0.0
 11
183.98127433274021
 21
182.56581922525021
 31
0.0
  0
LINE
  5
3B8E
  8
2
 10
172.7229440835425
 20
205.06581922525029
 30
0.0
 11
238.98127433274021
 21
205.06581922525029
 31
0.0
  0
LINE
  5
3B8F
  8
2
 10
172.72294408354239
 20
192.06581922525029
 30
0.0
 11
238.98127433274021
 21
192.06581922525029
 31
0.0
  0
LINE
  5
3B9E
  8
2
 10
183.98127433274021
 20
71.56581922525038
 30
0.0
 11
238.98127433274021
 21
71.56581922525038
 31
0.0
  0
LINE
  5
3B9F
  8
2
 10
190.48127433274021
 20
85.565819225250394
 30
0.0
 11
190.48127433274021
 21
71.56581922525038
 31
0.0
  0
LINE
  5
3BA0
  8
2
 10
127.4812743327402
 20
85.565819225250394
 30
0.0
 11
127.4812743327402
 21
68.469513225250353
 31
0.0
  0
LINE
  5
3BCD
  8
1
 10
227.98127433274021
 20
207.56581922525029
 30
0.0
 11
227.98127433274021
 21
189.56581922525029
 31
0.0
  0
TEXT
  5
3CE3
  8
0
 62
     3
 10
0.0
 20
0.0
 30
0.0
 40
10.0
  1
BJ156-12125B1-T
  7
STANDARD1
  0
ENDSEC
  0
EOF
