  0
SECTION
  2
HEADER
  9
$ACADVER
  1
AC1009
  9
$INSBASE
 10
0.0
 20
0.0
 30
0.0
  9
$EXTMIN
 10
0.0
 20
-2.960436562073669
 30
0.0
  9
$EXTMAX
 10
148.29013968367181
 20
99.081437319723804
 30
0.0
  9
$LIMMIN
 10
0.0
 20
0.0
  9
$LIMMAX
 10
12.0
 20
9.0
  9
$ORTHOMODE
 70
     1
  9
$REGENMODE
 70
     1
  9
$FILLMODE
 70
     1
  9
$QTEXTMODE
 70
     0
  9
$MIRRTEXT
 70
     0
  9
$DRAGMODE
 70
     2
  9
$LTSCALE
 40
5.0
  9
$OSMODE
 70
  3071
  9
$ATTMODE
 70
     1
  9
$TEXTSIZE
 40
0.2
  9
$TRACEWID
 40
0.05
  9
$TEXTSTYLE
  7
STANDARD
  9
$CLAYER
  8
0
  9
$CELTYPE
  6
BYLAYER
  9
$CECOLOR
 62
   256
  9
$DIMSCALE
 40
1.0
  9
$DIMASZ
 40
0.18
  9
$DIMEXO
 40
0.0625
  9
$DIMDLI
 40
0.38
  9
$DIMRND
 40
0.0
  9
$DIMDLE
 40
0.0
  9
$DIMEXE
 40
0.18
  9
$DIMTP
 40
0.0
  9
$DIMTM
 40
0.0
  9
$DIMTXT
 40
0.18
  9
$DIMCEN
 40
0.09
  9
$DIMTSZ
 40
0.0
  9
$DIMTOL
 70
     0
  9
$DIMLIM
 70
     0
  9
$DIMTIH
 70
     1
  9
$DIMTOH
 70
     1
  9
$DIMSE1
 70
     0
  9
$DIMSE2
 70
     0
  9
$DIMTAD
 70
     0
  9
$DIMZIN
 70
     0
  9
$DIMBLK
  1

  9
$DIMASO
 70
     1
  9
$DIMSHO
 70
     1
  9
$DIMPOST
  1

  9
$DIMAPOST
  1

  9
$DIMALT
 70
     0
  9
$DIMALTD
 70
     2
  9
$DIMALTF
 40
25.399999999999999
  9
$DIMLFAC
 40
1.0
  9
$DIMTOFL
 70
     0
  9
$DIMTVP
 40
0.0
  9
$DIMTIX
 70
     0
  9
$DIMSOXD
 70
     0
  9
$DIMSAH
 70
     0
  9
$DIMBLK1
  1

  9
$DIMBLK2
  1

  9
$DIMSTYLE
  2
STANDARD
  9
$DIMCLRD
 70
     0
  9
$DIMCLRE
 70
     0
  9
$DIMCLRT
 70
     0
  9
$DIMTFAC
 40
1.0
  9
$DIMGAP
 40
0.09
  9
$LUNITS
 70
     2
  9
$LUPREC
 70
     4
  9
$SKETCHINC
 40
0.1
  9
$FILLETRAD
 40
0.0
  9
$AUNITS
 70
     0
  9
$AUPREC
 70
     0
  9
$MENU
  1
.
  9
$ELEVATION
 40
0.0
  9
$PELEVATION
 40
0.0
  9
$THICKNESS
 40
0.0
  9
$LIMCHECK
 70
     0
  9
$BLIPMODE
 70
     0
  9
$CHAMFERA
 40
0.0
  9
$CHAMFERB
 40
0.0
  9
$SKPOLY
 70
     0
  9
$TDCREATE
 40
2453083.4120647679
  9
$TDUPDATE
 40
2456597.6493897801
  9
$TDINDWG
 40
0.2107955208
  9
$TDUSRTIMER
 40
0.2107954051
  9
$USRTIMER
 70
     1
  9
$ANGBASE
 50
0.0
  9
$ANGDIR
 70
     0
  9
$PDMODE
 70
     0
  9
$PDSIZE
 40
0.0
  9
$PLINEWID
 40
0.0
  9
$COORDS
 70
     1
  9
$SPLFRAME
 70
     0
  9
$SPLINETYPE
 70
     6
  9
$SPLINESEGS
 70
     8
  9
$ATTDIA
 70
     0
  9
$ATTREQ
 70
     1
  9
$HANDLING
 70
     1
  9
$HANDSEED
  5
83D
  9
$SURFTAB1
 70
     6
  9
$SURFTAB2
 70
     6
  9
$SURFTYPE
 70
     6
  9
$SURFU
 70
     6
  9
$SURFV
 70
     6
  9
$UCSNAME
  2

  9
$UCSORG
 10
0.0
 20
0.0
 30
0.0
  9
$UCSXDIR
 10
1.0
 20
0.0
 30
0.0
  9
$UCSYDIR
 10
0.0
 20
1.0
 30
0.0
  9
$PUCSNAME
  2

  9
$PUCSORG
 10
0.0
 20
0.0
 30
0.0
  9
$PUCSXDIR
 10
1.0
 20
0.0
 30
0.0
  9
$PUCSYDIR
 10
0.0
 20
1.0
 30
0.0
  9
$USERI1
 70
     0
  9
$USERI2
 70
     1
  9
$USERI3
 70
     0
  9
$USERI4
 70
     0
  9
$USERI5
 70
     0
  9
$USERR1
 40
0.0
  9
$USERR2
 40
0.0
  9
$USERR3
 40
0.0
  9
$USERR4
 40
0.0
  9
$USERR5
 40
0.0
  9
$WORLDVIEW
 70
     1
  9
$SHADEDGE
 70
     3
  9
$SHADEDIF
 70
    70
  9
$TILEMODE
 70
     1
  9
$MAXACTVP
 70
    64
  9
$PLIMCHECK
 70
     0
  9
$PEXTMIN
 10
0.0
 20
0.0
 30
0.0
  9
$PEXTMAX
 10
0.0
 20
0.0
 30
0.0
  9
$PLIMMIN
 10
0.0
 20
0.0
  9
$PLIMMAX
 10
12.0
 20
9.0
  9
$UNITMODE
 70
     0
  9
$VISRETAIN
 70
     1
  9
$PLINEGEN
 70
     0
  9
$PSLTSCALE
 70
     1
  0
ENDSEC
  0
SECTION
  2
TABLES
  0
TABLE
  2
VPORT
 70
     1
  0
VPORT
  2
*ACTIVE
 70
     0
 10
0.0
 20
0.0
 11
1.0
 21
1.0
 12
76.972785874191899
 22
48.059093391799472
 13
0.0
 23
0.0
 14
0.5
 24
0.5
 15
0.5
 25
0.5
 16
0.0
 26
0.0
 36
1.0
 17
0.0
 27
0.0
 37
0.0
 40
102.96598900383761
 41
1.831871345029239
 42
50.0
 43
0.0
 44
0.0
 50
0.0
 51
0.0
 71
     0
 72
  1000
 73
     1
 74
     2
 75
     0
 76
     0
 77
     0
 78
     0
  0
ENDTAB
  0
TABLE
  2
LTYPE
 70
     4
  0
LTYPE
  2
CONTINUOUS
 70
     0
  3
Solid Line
 72
    65
 73
     0
 40
0.0
  0
LTYPE
  2
CENTER
 70
     0
  3
____ _ ____ _ ____ _ ____ _ ____ _ ____ _ ____
 72
    65
 73
     4
 40
2.0
 49
1.25
 49
-0.25
 49
0.25
 49
-0.25
  0
LTYPE
  2
HIDDEN
 70
     0
  3
_ _ _ _ _ _ _ _ _ _ _ _ _ _ _ _ _ _ _ _ _ _ _
 72
    65
 73
     2
 40
0.375
 49
0.25
 49
-0.125
  0
LTYPE
  2
PHANTOM2
 70
     0
  3
___ _ _ ___ _ _ ___ _ _ ___ _ _
 72
    65
 73
     6
 40
1.25
 49
0.625
 49
-0.125
 49
0.125
 49
-0.125
 49
0.125
 49
-0.125
  0
ENDTAB
  0
TABLE
  2
LAYER
 70
     4
  0
LAYER
  2
0
 70
     0
 62
     7
  6
CONTINUOUS
  0
LAYER
  2
1
 70
     0
 62
     1
  6
CENTER
  0
LAYER
  2
2
 70
     0
 62
     2
  6
HIDDEN
  0
LAYER
  2
3
 70
     0
 62
     3
  6
CONTINUOUS
  0
ENDTAB
  0
TABLE
  2
STYLE
 70
     2
  0
STYLE
  2
STANDARD
 70
     0
 40
0.0
 41
1.0
 50
0.0
 71
     0
 42
0.2
  3
simplex.shx
  4
bigfont.shx
  0
STYLE
  2
STANDARD1
 70
     0
 40
0.0
 41
1.0
 50
0.0
 71
     0
 42
3.0
  3
txt
  4

  0
ENDTAB
  0
TABLE
  2
VIEW
 70
     0
  0
ENDTAB
  0
TABLE
  2
UCS
 70
     0
  0
ENDTAB
  0
TABLE
  2
APPID
 70
     3
  0
APPID
  2
ACAD
 70
     0
  0
APPID
  2
ACAD_MLEADERVER
 70
     0
  0
APPID
  2
ACAD_NAV_VCDISPLAY
 70
     0
  0
ENDTAB
  0
TABLE
  2
DIMSTYLE
 70
     1
  0
DIMSTYLE
  2
STANDARD
 70
     0
  3

  4

  5

  6

  7

 40
1.0
 41
0.18
 42
0.0625
 43
0.38
 44
0.18
 45
0.0
 46
0.0
 47
0.0
 48
0.0
140
0.18
141
0.09
142
0.0
143
25.399999999999999
144
1.0
145
0.0
146
1.0
147
0.09
 71
     0
 72
     0
 73
     1
 74
     1
 75
     0
 76
     0
 77
     0
 78
     0
170
     0
171
     2
172
     0
173
     0
174
     0
175
     0
176
     0
177
     0
178
     0
  0
ENDTAB
  0
ENDSEC
  0
SECTION
  2
BLOCKS
  0
BLOCK
  8
0
  2
$MODEL_SPACE
 70
     0
 10
0.0
 20
0.0
 30
0.0
  3
$MODEL_SPACE
  1

  0
ENDBLK
  5
21
  8
0
  0
BLOCK
 67
     1
  8
0
  2
$PAPER_SPACE
 70
     0
 10
0.0
 20
0.0
 30
0.0
  3
$PAPER_SPACE
  1

  0
ENDBLK
  5
5B
 67
     1
  8
0
  0
ENDSEC
  0
SECTION
  2
ENTITIES
  0
LINE
  5
6AF
  8
1
 10
87.290139177032387
 20
83.081437625197566
 30
0.0
 11
87.290139177032387
 21
96.081437625197566
 31
0.0
  0
LINE
  5
6B0
  8
1
 10
75.290138670392906
 20
89.581437625197523
 30
0.0
 11
148.29013968367181
 21
89.581437625197523
 31
0.0
  0
LINE
  5
6B1
  8
1
 10
99.290139177032387
 20
82.581437625197495
 30
0.0
 11
99.290139177032387
 21
96.581437625197566
 31
0.0
  0
LINE
  5
6B2
  8
1
 10
135.29013917703239
 20
82.581437625197495
 30
0.0
 11
135.29013917703239
 21
96.581437625197566
 31
0.0
  0
LINE
  5
6B3
  8
0
 10
38.290138566084828
 20
99.081437319723804
 30
0.0
 11
38.290138566084778
 21
80.081437930671385
 31
0.0
  0
LINE
  5
6B4
  8
0
 10
50.290138670392899
 20
80.081437930671342
 30
0.0
 11
38.290138566084778
 21
80.081437930671385
 31
0.0
  0
LINE
  5
6B5
  8
0
 10
50.290138670392928
 20
99.081437319723733
 30
0.0
 11
50.290138670392899
 21
80.081437930671342
 31
0.0
  0
LINE
  5
6B6
  8
0
 10
50.290138670392963
 20
99.081437319723733
 30
0.0
 11
38.290138566084828
 21
99.081437319723804
 31
0.0
  0
LINE
  5
6B7
  8
1
 10
33.290138566084778
 20
89.581437625197594
 30
0.0
 11
55.290138670392899
 21
89.581437625197523
 31
0.0
  0
CIRCLE
  5
6B8
  8
3
 10
87.290139177032387
 20
89.581437625197566
 30
0.0
 40
4.0
  0
LINE
  5
6B9
  8
0
 10
99.290139177032387
 20
85.081437625197537
 30
0.0
 11
135.29013917703239
 21
85.081437625197537
 31
0.0
  0
CIRCLE
  5
6BA
  8
0
 10
87.290139177032387
 20
89.581437625197523
 30
0.0
 40
3.3999999999999768
  0
ARC
  5
6BB
  8
0
 10
135.29013917703239
 20
89.581437625197523
 30
0.0
 40
4.5000000000000284
 50
270.0000000000008
 51
90.0
  0
ARC
  5
6BC
  8
0
 10
99.290139177032387
 20
89.581437625197523
 30
0.0
 40
4.5000000000000284
 50
90.0
 51
270.0000000000008
  0
LINE
  5
6BD
  8
0
 10
135.29013917703239
 20
94.081437625197566
 30
0.0
 11
99.290139177032387
 21
94.081437625197566
 31
0.0
  0
LINE
  5
6BE
  8
0
 10
143.2901396836719
 20
94.581437513438814
 30
0.0
 11
143.2901396836719
 21
84.581437736956246
 31
0.0
  0
LINE
  5
6BF
  8
0
 10
80.290138670392906
 20
84.581437736956246
 30
0.0
 11
80.290138670392906
 21
94.581437513438814
 31
0.0
  0
LINE
  5
6C0
  8
0
 10
135.4959103699407
 20
80.08143793067137
 30
0.0
 11
143.29013968367181
 21
84.581438387143351
 31
0.0
  0
LINE
  5
6C1
  8
0
 10
143.29013968367181
 20
94.581436863251668
 30
0.0
 11
135.4959103699407
 21
99.081437319723733
 31
0.0
  0
LINE
  5
6C2
  8
0
 10
135.4959103699407
 20
99.081437319723733
 30
0.0
 11
88.0843679841241
 21
99.081437319723733
 31
0.0
  0
LINE
  5
6C3
  8
0
 10
88.0843679841241
 20
99.081437319723733
 30
0.0
 11
80.290138670392864
 21
94.581436863251668
 31
0.0
  0
LINE
  5
6C4
  8
0
 10
80.290138670392864
 20
84.581438387143379
 30
0.0
 11
88.0843679841241
 21
80.08143793067137
 31
0.0
  0
LINE
  5
6C5
  8
0
 10
88.0843679841241
 20
80.08143793067137
 30
0.0
 11
135.4959103699407
 21
80.08143793067137
 31
0.0
  0
LINE
  5
6C6
  8
1
 10
87.290139177032316
 20
43.081437826363207
 30
0.0
 11
87.290139177032415
 21
60.08143793067137
 31
0.0
  0
LINE
  5
6C7
  8
1
 10
135.29013917703239
 20
60.08143793067137
 30
0.0
 11
135.29013917703239
 21
43.081437826363242
 31
0.0
  0
LINE
  5
6C8
  8
1
 10
99.290139177032387
 20
60.08143793067137
 30
0.0
 11
99.290139177032373
 21
43.081437826363207
 31
0.0
  0
LINE
  5
6C9
  8
2
 10
83.290139177032387
 20
46.181437826363229
 30
0.0
 11
83.290139177032387
 21
46.181437826363229
 31
0.0
  0
LINE
  5
6CA
  8
2
 10
83.290139177032387
 20
46.181437826363229
 30
0.0
 11
83.290139177032387
 21
46.181437826363229
 31
0.0
  0
LINE
  5
6CB
  8
2
 10
91.290139177032387
 20
46.181437826363229
 30
0.0
 11
91.290139177032387
 21
46.181437826363229
 31
0.0
  0
LINE
  5
6CC
  8
2
 10
91.290139177032387
 20
56.981437826363212
 30
0.0
 11
91.290139177032387
 21
46.181437826363229
 31
0.0
  0
LINE
  5
6CD
  8
2
 10
83.290139177032387
 20
46.181437826363229
 30
0.0
 11
83.290139177032387
 21
46.181437826363229
 31
0.0
  0
LINE
  5
6CE
  8
2
 10
83.290139177032387
 20
56.981437826363212
 30
0.0
 11
83.290139177032387
 21
46.181437826363229
 31
0.0
  0
LINE
  5
6CF
  8
2
 10
90.690139177032364
 20
46.781437826363231
 30
0.0
 11
90.690139177032364
 21
56.381437826363253
 31
0.0
  0
LINE
  5
6D0
  8
2
 10
83.890139177032381
 20
56.381437826363253
 30
0.0
 11
83.89013917703241
 21
46.781437826363231
 31
0.0
  0
LINE
  5
6D1
  8
2
 10
94.790139177032387
 20
57.081437826363242
 30
0.0
 11
94.790139177032387
 21
46.081437826363242
 31
0.0
  0
LINE
  5
6D2
  8
2
 10
139.79013917703239
 20
46.081437826363242
 30
0.0
 11
139.79013917703239
 21
57.081437826363242
 31
0.0
  0
LINE
  5
6D3
  8
2
 10
83.89013917703241
 20
46.781437826363231
 30
0.0
 11
82.690138318725502
 21
45.581437826363242
 31
0.0
  0
LINE
  5
6D4
  8
2
 10
91.890139454193985
 20
45.581437826363242
 30
0.0
 11
90.690139177032364
 21
46.781437826363231
 31
0.0
  0
LINE
  5
6D5
  8
2
 10
90.690139177032364
 20
56.381437826363253
 30
0.0
 11
91.890139454193985
 21
57.58143793067137
 31
0.0
  0
LINE
  5
6D6
  8
2
 10
82.690138318725502
 20
57.58143793067137
 30
0.0
 11
83.890139177032381
 21
56.381437826363253
 31
0.0
  0
LINE
  5
6D7
  8
2
 10
94.290139102526581
 20
57.58143793067137
 30
0.0
 11
94.790139177032387
 21
57.081437826363242
 31
0.0
  0
LINE
  5
6D8
  8
2
 10
140.29013919193349
 20
45.581437826363242
 30
0.0
 11
139.79013917703239
 21
46.081437826363242
 31
0.0
  0
LINE
  5
6D9
  8
2
 10
139.79013917703239
 20
57.081437826363242
 30
0.0
 11
140.29013919193349
 21
57.58143793067137
 31
0.0
  0
LINE
  5
6DA
  8
2
 10
94.790139177032387
 20
46.081437826363242
 30
0.0
 11
94.290139102526581
 21
45.581437826363242
 31
0.0
  0
LINE
  5
6DB
  8
2
 10
83.89013917703241
 20
46.781437826363231
 30
0.0
 11
87.290139177032387
 21
46.781437826363231
 31
0.0
  0
LINE
  5
6DC
  8
2
 10
87.290139177032387
 20
46.781437826363231
 30
0.0
 11
90.690139177032364
 21
46.781437826363231
 31
0.0
  0
LINE
  5
6DD
  8
2
 10
83.890139177032381
 20
56.381437826363253
 30
0.0
 11
87.290139177032387
 21
56.381437826363253
 31
0.0
  0
LINE
  5
6DE
  8
2
 10
87.290139177032387
 20
56.381437826363253
 30
0.0
 11
90.690139177032364
 21
56.381437826363253
 31
0.0
  0
LINE
  5
6DF
  8
2
 10
94.790139177032387
 20
57.081437826363242
 30
0.0
 11
139.79013917703239
 21
57.081437826363242
 31
0.0
  0
LINE
  5
6E0
  8
2
 10
139.79013917703239
 20
46.081437826363242
 30
0.0
 11
94.790139177032387
 21
46.081437826363242
 31
0.0
  0
LINE
  5
6E1
  8
0
 10
80.790139683671867
 20
57.58143793067137
 30
0.0
 11
142.79013867039279
 21
57.58143793067137
 31
0.0
  0
LINE
  5
6E2
  8
0
 10
80.790139683671867
 20
45.581437826363242
 30
0.0
 11
142.79013867039291
 21
45.581437826363242
 31
0.0
  0
LINE
  5
6E3
  8
0
 10
80.290138670392906
 20
57.081437848714991
 30
0.0
 11
80.290138670392906
 21
46.081437850111961
 31
0.0
  0
LINE
  5
6E4
  8
0
 10
80.290138670392906
 20
46.081437850111961
 30
0.0
 11
80.790139683671867
 21
45.581437826363242
 31
0.0
  0
LINE
  5
6E5
  8
0
 10
80.790139683671867
 20
57.58143793067137
 30
0.0
 11
80.290138670392906
 21
57.081437848714991
 31
0.0
  0
LINE
  5
6E6
  8
0
 10
88.0843679841241
 20
57.58143793067137
 30
0.0
 11
88.0843679841241
 21
45.581437826363242
 31
0.0
  0
LINE
  5
6E7
  8
0
 10
142.79013867039291
 20
45.581437826363242
 30
0.0
 11
143.2901396836719
 21
46.081437850111961
 31
0.0
  0
LINE
  5
6E8
  8
0
 10
143.2901396836719
 20
57.081437848714991
 30
0.0
 11
143.2901396836719
 21
46.081437850111961
 31
0.0
  0
LINE
  5
6E9
  8
0
 10
143.2901396836719
 20
57.081437848714991
 30
0.0
 11
142.79013867039291
 21
57.58143793067137
 31
0.0
  0
LINE
  5
6EA
  8
0
 10
135.4959103699407
 20
57.58143793067137
 30
0.0
 11
135.4959103699407
 21
45.581437826363242
 31
0.0
  0
LINE
  5
6F1
  8
0
 10
50.290138670392921
 20
94.581437513438814
 30
0.0
 11
38.290138566084821
 21
94.581437513438814
 31
0.0
  0
LINE
  5
6F2
  8
0
 10
50.290138670392899
 20
84.581438387143393
 30
0.0
 11
38.290138566084792
 21
84.581438387143379
 31
0.0
  0
TEXT
  5
7A9
  8
0
 62
     3
 10
0.0
 20
0.0
 30
0.0
 40
10.0
  1
BJ158-08063
  7
STANDARD1
  0
ENDSEC
  0
EOF
