  0
SECTION
  2
HEADER
  9
$ACADVER
  1
AC1009
  9
$INSBASE
 10
0.0
 20
0.0
 30
0.0
  9
$EXTMIN
 10
0.0
 20
-2.960436562073669
 30
0.0
  9
$EXTMAX
 10
205.00000000003089
 20
225.00000000003089
 30
0.0
  9
$LIMMIN
 10
0.0
 20
0.0
  9
$LIMMAX
 10
375.0
 20
270.0
  9
$ORTHOMODE
 70
     1
  9
$REGENMODE
 70
     1
  9
$FILLMODE
 70
     1
  9
$QTEXTMODE
 70
     0
  9
$MIRRTEXT
 70
     0
  9
$DRAGMODE
 70
     2
  9
$LTSCALE
 40
10.0
  9
$OSMODE
 70
    37
  9
$ATTMODE
 70
     1
  9
$TEXTSIZE
 40
0.2
  9
$TRACEWID
 40
0.05
  9
$TEXTSTYLE
  7
STANDARD
  9
$CLAYER
  8
0
  9
$CELTYPE
  6
BYLAYER
  9
$CECOLOR
 62
   256
  9
$DIMSCALE
 40
1.0
  9
$DIMASZ
 40
3.0
  9
$DIMEXO
 40
2.0
  9
$DIMDLI
 40
0.38
  9
$DIMRND
 40
0.0
  9
$DIMDLE
 40
0.0
  9
$DIMEXE
 40
2.0
  9
$DIMTP
 40
0.0
  9
$DIMTM
 40
0.0
  9
$DIMTXT
 40
3.2000000000000002
  9
$DIMCEN
 40
0.0
  9
$DIMTSZ
 40
0.0
  9
$DIMTOL
 70
     0
  9
$DIMLIM
 70
     0
  9
$DIMTIH
 70
     0
  9
$DIMTOH
 70
     0
  9
$DIMSE1
 70
     0
  9
$DIMSE2
 70
     0
  9
$DIMTAD
 70
     1
  9
$DIMZIN
 70
     0
  9
$DIMBLK
  1

  9
$DIMASO
 70
     0
  9
$DIMSHO
 70
     0
  9
$DIMPOST
  1

  9
$DIMAPOST
  1

  9
$DIMALT
 70
     0
  9
$DIMALTD
 70
     2
  9
$DIMALTF
 40
25.399999999999999
  9
$DIMLFAC
 40
1.0
  9
$DIMTOFL
 70
     1
  9
$DIMTVP
 40
1.6000000000000001
  9
$DIMTIX
 70
     1
  9
$DIMSOXD
 70
     0
  9
$DIMSAH
 70
     0
  9
$DIMBLK1
  1

  9
$DIMBLK2
  1

  9
$DIMSTYLE
  2
STANDARD
  9
$DIMCLRD
 70
     0
  9
$DIMCLRE
 70
     0
  9
$DIMCLRT
 70
     0
  9
$DIMTFAC
 40
1.0
  9
$DIMGAP
 40
0.09
  9
$LUNITS
 70
     2
  9
$LUPREC
 70
     4
  9
$SKETCHINC
 40
0.1
  9
$FILLETRAD
 40
0.0
  9
$AUNITS
 70
     0
  9
$AUPREC
 70
     4
  9
$MENU
  1
E:\r13\win\SUPPORT\ACAD
  9
$ELEVATION
 40
0.0
  9
$PELEVATION
 40
0.0
  9
$THICKNESS
 40
0.0
  9
$LIMCHECK
 70
     0
  9
$BLIPMODE
 70
     0
  9
$CHAMFERA
 40
0.0
  9
$CHAMFERB
 40
0.0
  9
$SKPOLY
 70
     0
  9
$TDCREATE
 40
2449839.7609490738
  9
$TDUPDATE
 40
2459676.4298275118
  9
$TDINDWG
 40
0.0009472338
  9
$TDUSRTIMER
 40
0.0009472338
  9
$USRTIMER
 70
     1
  9
$ANGBASE
 50
0.0
  9
$ANGDIR
 70
     0
  9
$PDMODE
 70
     0
  9
$PDSIZE
 40
0.0
  9
$PLINEWID
 40
0.0
  9
$COORDS
 70
     1
  9
$SPLFRAME
 70
     0
  9
$SPLINETYPE
 70
     6
  9
$SPLINESEGS
 70
     8
  9
$ATTDIA
 70
     0
  9
$ATTREQ
 70
     1
  9
$HANDLING
 70
     1
  9
$HANDSEED
  5
43A
  9
$SURFTAB1
 70
     6
  9
$SURFTAB2
 70
     6
  9
$SURFTYPE
 70
     6
  9
$SURFU
 70
     6
  9
$SURFV
 70
     6
  9
$UCSNAME
  2

  9
$UCSORG
 10
0.0
 20
0.0
 30
0.0
  9
$UCSXDIR
 10
1.0
 20
0.0
 30
0.0
  9
$UCSYDIR
 10
0.0
 20
1.0
 30
0.0
  9
$PUCSNAME
  2

  9
$PUCSORG
 10
0.0
 20
0.0
 30
0.0
  9
$PUCSXDIR
 10
1.0
 20
0.0
 30
0.0
  9
$PUCSYDIR
 10
0.0
 20
1.0
 30
0.0
  9
$USERI1
 70
     0
  9
$USERI2
 70
     1
  9
$USERI3
 70
     0
  9
$USERI4
 70
     0
  9
$USERI5
 70
     0
  9
$USERR1
 40
0.0
  9
$USERR2
 40
0.0
  9
$USERR3
 40
0.0
  9
$USERR4
 40
0.0
  9
$USERR5
 40
0.0
  9
$WORLDVIEW
 70
     1
  9
$SHADEDGE
 70
     3
  9
$SHADEDIF
 70
    70
  9
$TILEMODE
 70
     1
  9
$MAXACTVP
 70
    16
  9
$PLIMCHECK
 70
     0
  9
$PEXTMIN
 10
1.0000000000000000E+020
 20
1.0000000000000000E+020
 30
1.0000000000000000E+020
  9
$PEXTMAX
 10
-1.0000000000000000E+020
 20
-1.0000000000000000E+020
 30
-1.0000000000000000E+020
  9
$PLIMMIN
 10
0.0
 20
0.0
  9
$PLIMMAX
 10
12.0
 20
9.0
  9
$UNITMODE
 70
     0
  9
$VISRETAIN
 70
     0
  9
$PLINEGEN
 70
     0
  9
$PSLTSCALE
 70
     0
  0
ENDSEC
  0
SECTION
  2
TABLES
  0
TABLE
  2
VPORT
 70
     1
  0
VPORT
  2
*ACTIVE
 70
     0
 10
0.0
 20
0.0
 11
1.0
 21
1.0
 12
105.32625841611051
 22
111.02031711980121
 13
0.0
 23
0.0
 14
10.0
 24
10.0
 15
10.0
 25
10.0
 16
0.0
 26
0.0
 36
1.0
 17
0.0
 27
0.0
 37
0.0
 40
229.57200877156359
 41
2.2776442307692299
 42
50.0
 43
0.0
 44
0.0
 50
0.0
 51
0.0
 71
     0
 72
   500
 73
     1
 74
     0
 75
     0
 76
     0
 77
     0
 78
     2
  0
ENDTAB
  0
TABLE
  2
LTYPE
 70
     3
  0
LTYPE
  2
CONTINUOUS
 70
     0
  3
Solid Line
 72
    65
 73
     0
 40
0.0
  0
LTYPE
  2
CENTER
 70
     0
  3
____ _ ____ _ ____ _ ____ _ ____ _ ____ _ ____
 72
    65
 73
     4
 40
2.0
 49
1.25
 49
-0.25
 49
0.25
 49
-0.25
  0
LTYPE
  2
PHANTOM2
 70
     0
  3
___ _ _ ___ _ _ ___ _ _ ___ _ _
 72
    65
 73
     6
 40
1.25
 49
0.625
 49
-0.125
 49
0.125
 49
-0.125
 49
0.125
 49
-0.125
  0
ENDTAB
  0
TABLE
  2
LAYER
 70
     3
  0
LAYER
  2
0
 70
     0
 62
     7
  6
CONTINUOUS
  0
LAYER
  2
1
 70
     0
 62
     1
  6
CENTER
  0
LAYER
  2
3
 70
     0
 62
     3
  6
CONTINUOUS
  0
ENDTAB
  0
TABLE
  2
STYLE
 70
     2
  0
STYLE
  2
STANDARD
 70
     0
 40
0.0
 41
1.0
 50
0.0
 71
     0
 42
0.2
  3
TXT
  4
BIGFONT
  0
STYLE
  2
STANDARD1
 70
     0
 40
0.0
 41
1.0
 50
0.0
 71
     0
 42
3.0
  3
txt
  4

  0
ENDTAB
  0
TABLE
  2
VIEW
 70
     1
  0
VIEW
  2
ALL
 70
     0
 40
270.0
 10
220.99159663865549
 20
135.0
 41
0.0
 11
0.0
 21
0.0
 31
1.0
 12
0.0
 22
0.0
 32
0.0
 42
0.0
 43
0.0
 44
0.0
 50
0.0
 71
     0
  0
ENDTAB
  0
TABLE
  2
UCS
 70
     0
  0
ENDTAB
  0
TABLE
  2
APPID
 70
     3
  0
APPID
  2
ACAD
 70
     0
  0
APPID
  2
ACAD_MLEADERVER
 70
     0
  0
APPID
  2
ACAD_NAV_VCDISPLAY
 70
     0
  0
ENDTAB
  0
TABLE
  2
DIMSTYLE
 70
     1
  0
DIMSTYLE
  2
STANDARD
 70
     0
  3

  4

  5

  6

  7

 40
1.0
 41
0.18
 42
0.0625
 43
0.38
 44
0.18
 45
0.0
 46
0.0
 47
0.0
 48
0.0
140
0.18
141
0.09
142
0.0
143
25.399999999999999
144
1.0
145
0.0
146
1.0
147
0.09
 71
     0
 72
     0
 73
     1
 74
     1
 75
     0
 76
     0
 77
     0
 78
     0
170
     0
171
     2
172
     0
173
     0
174
     0
175
     0
176
     0
177
     0
178
     0
  0
ENDTAB
  0
ENDSEC
  0
SECTION
  2
BLOCKS
  0
BLOCK
  8
0
  2
$MODEL_SPACE
 70
     0
 10
0.0
 20
0.0
 30
0.0
  3
$MODEL_SPACE
  1

  0
ENDBLK
  5
263
  8
0
  0
BLOCK
 67
     1
  8
0
  2
$PAPER_SPACE
 70
     0
 10
0.0
 20
0.0
 30
0.0
  3
$PAPER_SPACE
  1

  0
ENDBLK
  5
261
 67
     1
  8
0
  0
BLOCK
  8
0
  2
NM16B
 70
     0
 10
848.65169425213776
 20
581.44109712230204
 30
0.0
  3
NM16B
  1

  0
ARC
  5
E9
  8
0
 10
848.65167058297504
 20
599.76228077165695
 30
0.0
 40
18.321183649125121
 50
247.78080708366329
 51
292.21930398120821
  0
ARC
  5
EA
  8
0
 10
848.65167058297504
 20
573.11991347287665
 30
0.0
 40
18.321183649125121
 50
67.780696018791787
 51
112.2191929163367
  0
LINE
  5
EB
  8
0
 10
841.72349825229162
 20
590.08062521792863
 30
0.0
 11
841.72349825229162
 21
582.80156902660508
 31
0.0
  0
LINE
  5
EC
  8
0
 10
855.57987579112375
 20
590.08062521792863
 30
0.0
 11
855.5798757911233
 21
582.80156902660508
 31
0.0
  0
LINE
  5
ED
  8
0
 10
860.15169425213776
 20
581.44109712230204
 30
0.0
 11
837.15169425213776
 21
581.44109712230204
 31
0.0
  0
LINE
  5
EE
  8
0
 10
860.15169425213776
 20
591.44109712223178
 30
0.0
 11
837.15169425213776
 21
591.44109712223178
 31
0.0
  0
LINE
  5
EF
  8
0
 10
837.15169425213776
 20
581.44109712230204
 30
0.0
 11
834.79530225244662
 21
582.80156902660508
 31
0.0
  0
LINE
  5
F0
  8
0
 10
834.79530225244662
 20
582.80156902660508
 30
0.0
 11
834.79530225244662
 21
590.08062521792863
 31
0.0
  0
LINE
  5
F1
  8
0
 10
834.79530225244662
 20
590.08062521792863
 30
0.0
 11
837.15169425213776
 21
591.44109712223178
 31
0.0
  0
ARC
  5
F2
  8
0
 10
838.25940748279913
 20
586.35061755938932
 30
0.0
 40
5.0904795628426038
 50
132.8832477136207
 51
132.8832477136207
  0
ARC
  5
F3
  8
0
 10
838.25940748279913
 20
586.35061755938932
 30
0.0
 40
5.0904795628426038
 50
47.11675228637926
 51
89.999984819746615
  0
ARC
  5
F4
  8
0
 10
838.25940748279913
 20
586.53157668514439
 30
0.0
 40
5.0904795628426038
 50
270.00001518025329
 51
312.88324771362068
  0
ARC
  5
F5
  8
0
 10
859.04398102147638
 20
586.53157668514439
 30
0.0
 40
5.0904795628426038
 50
227.1167522863793
 51
269.9999848197466
  0
ARC
  5
F6
  8
0
 10
859.04398102147638
 20
586.35061755938932
 30
0.0
 40
5.0904795628426038
 50
90.000015180253357
 51
132.8832477136207
  0
ARC
  5
F7
  8
0
 10
859.04398102147638
 20
586.35061755938932
 30
0.0
 40
5.0904795628426038
 50
47.11675228637926
 51
47.11675228637926
  0
LINE
  5
F8
  8
0
 10
862.50808625182901
 20
590.08062521792863
 30
0.0
 11
860.15169425213776
 21
591.44109712223178
 31
0.0
  0
LINE
  5
F9
  8
0
 10
862.50808625182901
 20
582.80156902660508
 30
0.0
 11
862.50808625182901
 21
590.08062521792863
 31
0.0
  0
LINE
  5
FA
  8
0
 10
860.15169425213776
 20
581.44109712230204
 30
0.0
 11
862.50808625182901
 21
582.80156902660508
 31
0.0
  0
ENDBLK
  5
FB
  8
0
  0
BLOCK
  8
0
  2
5316002B
 70
     0
 10
2216.0714781886818
 20
1075.0633374687659
 30
0.0
  3
5316002B
  1

  0
LINE
  5
12C
  8
1
 10
2216.0714781886818
 20
1085.0633374687659
 30
0.0
 11
2216.0714781886818
 21
960.06333746876635
 31
0.0
  0
LINE
  5
12D
  8
0
 10
2224.0714781886818
 20
972.06333746876612
 30
0.0
 11
2224.0714781886818
 21
1030.0633374687659
 31
0.0
  0
LINE
  5
12E
  8
3
 10
2222.9889781886818
 20
970.98083746876591
 30
0.0
 11
2222.9889781886818
 21
1027.0633374687659
 31
0.0
  0
LINE
  5
12F
  8
0
 10
2222.0714781886818
 20
970.06333746876624
 30
0.0
 11
2210.0714781886832
 21
970.06333746876624
 31
0.0
  0
LINE
  5
130
  8
0
 10
2230.0714781886818
 20
1043.0633374687659
 30
0.0
 11
2202.0714781886222
 21
1043.0633374687659
 31
0.0
  0
LINE
  5
131
  8
0
 10
2224.0714781886818
 20
1067.0633374687659
 30
0.0
 11
2224.0714781886818
 21
1044.0633374687659
 31
0.0
  0
ARC
  5
132
  8
0
 10
2225.0714781886832
 20
1044.0633374687659
 30
0.0
 40
1.0
 50
180.0
 51
270.0
  0
LINE
  5
133
  8
0
 10
2231.0714781887132
 20
1042.4859871995579
 30
0.0
 11
2231.0714781887132
 21
1030.6406877379741
 31
0.0
  0
LINE
  5
134
  8
0
 10
2230.6150838435092
 20
1042.4859871995579
 30
0.0
 11
2230.6150838435092
 21
1030.6406877379741
 31
0.0
  0
LINE
  5
135
  8
0
 10
2222.7410759695558
 20
1042.4859871995579
 30
0.0
 11
2222.7410759695558
 21
1030.6406877379729
 31
0.0
  0
LINE
  5
136
  8
0
 10
2221.6392425513659
 20
1042.4859871995579
 30
0.0
 11
2221.6392425513659
 21
1030.6406877379729
 31
0.0
  0
LINE
  5
137
  8
0
 10
2230.0714781886832
 20
1043.0633374687659
 30
0.0
 11
2231.0714781887132
 21
1042.4859871995579
 31
0.0
  0
LINE
  5
138
  8
0
 10
2231.0714781887132
 20
1042.4859871995579
 30
0.0
 11
2230.6150838435092
 21
1042.4859871995579
 31
0.0
  0
LINE
  5
139
  8
0
 10
2210.5037138259149
 20
1042.4859871995579
 30
0.0
 11
2210.5037138259149
 21
1030.6406877379779
 31
0.0
  0
LINE
  5
13A
  8
0
 10
2209.4018804078391
 20
1042.4859871995579
 30
0.0
 11
2209.4018804078391
 21
1030.6406877379679
 31
0.0
  0
ARC
  5
13B
  8
0
 10
2226.6780799065218
 20
1029.3512685760561
 30
0.0
 40
13.712068892710271
 50
73.314410111256151
 51
106.68558988866
  0
LINE
  5
13C
  8
0
 10
2222.7410759695558
 20
1042.4859871995579
 30
0.0
 11
2221.6392425513659
 21
1042.4859871995591
 31
0.0
  0
ARC
  5
13D
  8
0
 10
2216.0714781886518
 20
1015.927874819005
 30
0.0
 40
27.135462649765131
 50
78.159726117424441
 51
101.8402738826241
  0
LINE
  5
13E
  8
0
 10
2210.5037138259149
 20
1042.4859871995579
 30
0.0
 11
2209.4018804078391
 21
1042.4859871995579
 31
0.0
  0
ARC
  5
13F
  8
0
 10
2216.0714781886518
 20
1057.1988001185259
 30
0.0
 40
27.135462649765131
 50
258.15972611737578
 51
281.8402738825755
  0
LINE
  5
140
  8
0
 10
2222.7410759695558
 20
1030.6406877379741
 30
0.0
 11
2221.639242551365
 21
1030.6406877379729
 31
0.0
  0
ARC
  5
141
  8
0
 10
2226.6780799065218
 20
1043.7754063614759
 30
0.0
 40
13.712068892710271
 50
253.3144101113399
 51
286.68558988874378
  0
LINE
  5
142
  8
0
 10
2231.0714781887132
 20
1030.6406877379741
 30
0.0
 11
2230.6150838435092
 21
1030.6406877379741
 31
0.0
  0
LINE
  5
143
  8
0
 10
2230.0714781886818
 20
1030.0633374687659
 30
0.0
 11
2231.0714781887132
 21
1030.6406877379741
 31
0.0
  0
LINE
  5
144
  8
0
 10
2230.0714781886818
 20
1030.0633374687659
 30
0.0
 11
2202.0714781886209
 21
1030.0633374687659
 31
0.0
  0
LINE
  5
145
  8
0
 10
2202.0714781886209
 20
1030.0633374687659
 30
0.0
 11
2201.0714781885899
 21
1030.6406877379741
 31
0.0
  0
LINE
  5
146
  8
0
 10
2201.0714781885899
 20
1030.6406877379741
 30
0.0
 11
2201.5278725337948
 21
1030.6406877379741
 31
0.0
  0
LINE
  5
147
  8
0
 10
2201.0714781885908
 20
1042.4859871995579
 30
0.0
 11
2201.5278725337948
 21
1042.4859871995579
 31
0.0
  0
LINE
  5
148
  8
0
 10
2202.0714781886222
 20
1043.0633374687659
 30
0.0
 11
2201.0714781885908
 21
1042.4859871995579
 31
0.0
  0
ARC
  5
149
  8
0
 10
2205.4648764707822
 20
1043.7754063614759
 30
0.0
 40
13.712068892710271
 50
253.31441011125611
 51
286.68558988865999
  0
ARC
  5
14A
  8
0
 10
2205.4648764707822
 20
1029.3512685760561
 30
0.0
 40
13.712068892710271
 50
73.31441011133991
 51
106.68558988874381
  0
LINE
  5
14B
  8
0
 10
2201.5278725337948
 20
1042.4859871995579
 30
0.0
 11
2201.5278725337948
 21
1030.6406877379741
 31
0.0
  0
LINE
  5
14C
  8
0
 10
2201.0714781885908
 20
1042.4859871995579
 30
0.0
 11
2201.0714781885899
 21
1030.6406877379741
 31
0.0
  0
LINE
  5
14D
  8
0
 10
2210.5037138259158
 20
1030.6406877379779
 30
0.0
 11
2209.4018804077491
 21
1030.6406877379679
 31
0.0
  0
ARC
  5
14E
  8
0
 10
2207.071539223778
 20
1044.0633374687659
 30
0.0
 40
1.0
 50
270.0
 51
360.0
  0
LINE
  5
14F
  8
0
 10
2208.071539223778
 20
1067.0633374687659
 30
0.0
 11
2208.071539223778
 21
1044.0633374687659
 31
0.0
  0
ARC
  5
150
  8
0
 10
2216.0714781886818
 20
1067.0633374687659
 30
0.0
 40
8.0
 50
360.0
 51
180.0
  0
LINE
  5
151
  8
0
 10
2224.0714781886818
 20
1027.0633374687659
 30
0.0
 11
2208.0714781886832
 21
1027.0633374687659
 31
0.0
  0
LINE
  5
152
  8
3
 10
2222.9889781886818
 20
1027.0633374687659
 30
0.0
 11
2224.0714781886818
 21
1028.938282467959
 31
0.0
  0
LINE
  5
153
  8
0
 10
2224.0714781886818
 20
972.06333746876612
 30
0.0
 11
2222.0714781886818
 21
970.06333746876624
 31
0.0
  0
LINE
  5
154
  8
0
 10
2208.0714781886832
 20
972.06333746876612
 30
0.0
 11
2210.0714781886832
 21
970.06333746876624
 31
0.0
  0
LINE
  5
155
  8
3
 10
2209.1539781886818
 20
1027.0633374687659
 30
0.0
 11
2208.0714781886832
 21
1028.938282467959
 31
0.0
  0
LINE
  5
156
  8
3
 10
2209.1539781886818
 20
970.98083746876591
 30
0.0
 11
2209.1539781886818
 21
1027.0633374687659
 31
0.0
  0
LINE
  5
157
  8
0
 10
2208.0714781886832
 20
972.06333746876612
 30
0.0
 11
2208.0714781886832
 21
1030.0633374687659
 31
0.0
  0
LINE
  5
158
  8
0
 10
2224.0714781886818
 20
972.06333746876589
 30
0.0
 11
2208.0714781886832
 21
972.06333746876612
 31
0.0
  0
ENDBLK
  5
159
  8
0
  0
ENDSEC
  0
SECTION
  2
ENTITIES
  0
ARC
  5
163
  8
0
 10
180.0
 20
200.0000000000002
 30
0.0
 40
16.0
 50
335.36413480613919
 51
339.6358651937897
  0
CIRCLE
  5
164
  8
0
 10
180.0
 20
200.0
 30
0.0
 40
8.0
  0
CIRCLE
  5
165
  8
0
 10
180.0
 20
200.0
 30
0.0
 40
14.0
  0
ARC
  5
166
  8
0
 10
180.0
 20
200.0000000000002
 30
0.0
 40
16.0
 50
290.36413480599828
 51
294.6358651938616
  0
ARC
  5
167
  8
0
 10
180.0
 20
200.0000000000002
 30
0.0
 40
16.0
 50
245.36413480572179
 51
249.63586519400181
  0
ARC
  5
168
  8
0
 10
180.0
 20
200.0000000000002
 30
0.0
 40
16.0
 50
200.36413480586069
 51
204.6358651942833
  0
ARC
  5
169
  8
0
 10
180.0
 20
200.0000000000002
 30
0.0
 40
16.0
 50
155.36413480599879
 51
159.6358651941442
  0
ARC
  5
16A
  8
0
 10
180.0
 20
200.0000000000002
 30
0.0
 40
16.0
 50
110.36413480599821
 51
114.63586519400221
  0
ARC
  5
16B
  8
0
 10
180.0
 20
200.0000000000002
 30
0.0
 40
16.0
 50
65.36413480655834
 51
69.635865194001724
  0
LINE
  5
16C
  8
0
 10
165.456394345174
 20
206.66959778081471
 30
0.0
 11
173.33040221900819
 21
214.5436056546489
 31
0.0
  0
LINE
  5
16D
  8
0
 10
186.66959778081471
 20
185.4563943451742
 30
0.0
 11
194.54360565479689
 21
193.3304022191567
 31
0.0
  0
LINE
  5
16E
  8
0
 10
165.4563943453513
 20
193.33040221900839
 30
0.0
 11
173.33040221906819
 21
185.45639434529241
 31
0.0
  0
LINE
  5
16F
  8
0
 10
186.6695977808142
 20
214.54360565482651
 30
0.0
 11
194.54360565476671
 21
206.669597780874
 31
0.0
  0
LINE
  5
170
  8
0
 10
174.4322356372536
 20
184.99999999996899
 30
0.0
 11
185.5677643627464
 21
184.99999999996899
 31
0.0
  0
LINE
  5
171
  8
0
 10
174.4322356372536
 20
215.00000000003141
 30
0.0
 11
185.5677643627464
 21
215.00000000003141
 31
0.0
  0
LINE
  5
172
  8
0
 10
195.00000000003109
 20
205.56776436268359
 30
0.0
 11
195.00000000003089
 21
194.43223563723271
 31
0.0
  0
LINE
  5
173
  8
0
 10
164.99999999996911
 20
205.5677643628091
 30
0.0
 11
164.9999999999695
 21
194.4322356371492
 31
0.0
  0
LINE
  5
174
  8
1
 10
180.0
 20
225.00000000003089
 30
0.0
 11
180.0
 21
174.99999999996911
 31
0.0
  0
LINE
  5
175
  8
1
 10
205.00000000003089
 20
200.0000000000002
 30
0.0
 11
154.99999999996899
 21
200.0000000000002
 31
0.0
  0
ARC
  5
176
  8
0
 10
180.0
 20
200.0000000000002
 30
0.0
 40
16.0
 50
20.364134806208469
 51
24.635865193438761
  0
TEXT
  5
31C
  8
0
 62
     3
 10
0.0
 20
0.0
 30
0.0
 40
10.0
  1
BJ331-16002
  7
STANDARD1
  0
LINE
  5
366
  8
1
 10
180.0
 20
160.0
 30
0.0
 11
179.99999999999949
 21
35.000000000000227
 31
0.0
  0
LINE
  5
367
  8
0
 10
187.99999999999949
 20
47.0
 30
0.0
 11
187.99999999999949
 21
75.0
 31
0.0
  0
LINE
  5
368
  8
3
 10
186.91749999999999
 20
45.917499999999777
 30
0.0
 11
186.91749999999999
 21
74.999999999999986
 31
0.0
  0
LINE
  5
369
  8
0
 10
185.99999999999949
 20
45.0
 30
0.0
 11
174.0000000000004
 21
45.0
 31
0.0
  0
LINE
  5
36A
  8
0
 10
194.0
 20
118.0
 30
0.0
 11
165.99999999993949
 21
118.0
 31
0.0
  0
LINE
  5
36B
  8
0
 10
188.0
 20
142.0
 30
0.0
 11
188.0
 21
119.0000000000002
 31
0.0
  0
ARC
  5
36C
  8
0
 10
189.0
 20
119.0000000000002
 30
0.0
 40
1.0
 50
180.0
 51
270.0
  0
LINE
  5
36D
  8
0
 10
195.00000000003141
 20
117.4226497307923
 30
0.0
 11
195.00000000003141
 21
105.5773502692079
 31
0.0
  0
LINE
  5
36E
  8
0
 10
194.54360565482651
 20
117.4226497307925
 30
0.0
 11
194.54360565482651
 21
105.5773502692077
 31
0.0
  0
LINE
  5
36F
  8
0
 10
186.669597780874
 20
117.4226497307923
 30
0.0
 11
186.6695977808736
 21
105.5773502692075
 31
0.0
  0
LINE
  5
370
  8
0
 10
185.56776436268359
 20
117.4226497307923
 30
0.0
 11
185.56776436268359
 21
105.5773502692072
 31
0.0
  0
LINE
  5
371
  8
0
 10
194.0000000000004
 20
117.9999999999997
 30
0.0
 11
195.00000000003141
 21
117.4226497307923
 31
0.0
  0
LINE
  5
372
  8
0
 10
195.00000000003141
 20
117.4226497307923
 30
0.0
 11
194.54360565482651
 21
117.4226497307923
 31
0.0
  0
LINE
  5
373
  8
0
 10
174.43223563723271
 20
117.4226497307923
 30
0.0
 11
174.43223563723271
 21
105.577350269212
 31
0.0
  0
LINE
  5
374
  8
0
 10
173.33040221915641
 20
117.4226497307925
 30
0.0
 11
173.33040221915641
 21
105.577350269202
 31
0.0
  0
ARC
  5
375
  8
0
 10
190.60660171783951
 20
104.28793110728969
 30
0.0
 40
13.712068892710271
 50
73.314410111251689
 51
106.6855898886659
  0
LINE
  5
376
  8
0
 10
186.669597780874
 20
117.4226497307923
 30
0.0
 11
185.56776436268359
 21
117.4226497307927
 31
0.0
  0
ARC
  5
377
  8
0
 10
179.9999999999695
 20
90.864537350239516
 30
0.0
 40
27.135462649765131
 50
78.159726117425834
 51
101.8402738826278
  0
LINE
  5
378
  8
0
 10
174.43223563723271
 20
117.4226497307923
 30
0.0
 11
173.33040221915641
 21
117.4226497307925
 31
0.0
  0
ARC
  5
379
  8
0
 10
179.9999999999695
 20
132.13546264976051
 30
0.0
 40
27.135462649765131
 50
258.1597261173722
 51
281.84027388257408
  0
LINE
  5
37A
  8
0
 10
186.6695977808736
 20
105.5773502692077
 30
0.0
 11
185.56776436268319
 21
105.5773502692072
 31
0.0
  0
ARC
  5
37B
  8
0
 10
190.60660171783951
 20
118.71206889271021
 30
0.0
 40
13.712068892710271
 50
253.31441011133401
 51
286.68558988874832
  0
LINE
  5
37C
  8
0
 10
195.00000000003141
 20
105.5773502692077
 30
0.0
 11
194.54360565482651
 21
105.5773502692077
 31
0.0
  0
LINE
  5
37D
  8
0
 10
194.0
 20
105.0000000000002
 30
0.0
 11
195.00000000003141
 21
105.5773502692077
 31
0.0
  0
LINE
  5
37E
  8
0
 10
193.99999999999949
 20
105.0
 30
0.0
 11
165.99999999993901
 21
105.0000000000002
 31
0.0
  0
LINE
  5
37F
  8
0
 10
165.99999999993901
 20
105.0000000000002
 30
0.0
 11
164.99999999990769
 21
105.5773502692077
 31
0.0
  0
LINE
  5
380
  8
0
 10
164.99999999990769
 20
105.5773502692077
 30
0.0
 11
165.45639434511261
 21
105.5773502692077
 31
0.0
  0
LINE
  5
381
  8
0
 10
164.99999999990811
 20
117.4226497307923
 30
0.0
 11
165.45639434511301
 21
117.4226497307923
 31
0.0
  0
LINE
  5
382
  8
0
 10
165.99999999993949
 20
118.0
 30
0.0
 11
164.99999999990811
 21
117.4226497307923
 31
0.0
  0
ARC
  5
383
  8
0
 10
169.3933982820995
 20
118.71206889271021
 30
0.0
 40
13.712068892710271
 50
253.3144101112517
 51
286.68558988866602
  0
ARC
  5
384
  8
0
 10
169.3933982820995
 20
104.28793110728969
 30
0.0
 40
13.712068892710271
 50
73.314410111334041
 51
106.6855898887483
  0
LINE
  5
385
  8
0
 10
165.45639434511301
 20
117.4226497307925
 30
0.0
 11
165.45639434511301
 21
105.5773502692077
 31
0.0
  0
LINE
  5
386
  8
0
 10
164.99999999990811
 20
117.4226497307923
 30
0.0
 11
164.99999999990769
 21
105.5773502692079
 31
0.0
  0
LINE
  5
387
  8
0
 10
174.43223563723359
 20
105.577350269212
 30
0.0
 11
173.33040221906731
 21
105.577350269202
 31
0.0
  0
ARC
  5
388
  8
0
 10
171.0000610350958
 20
119.0000000000002
 30
0.0
 40
1.0
 50
270.0
 51
0.0
  0
LINE
  5
389
  8
0
 10
172.00006103509571
 20
142.0
 30
0.0
 11
172.00006103509571
 21
119.0000000000002
 31
0.0
  0
ARC
  5
38A
  8
0
 10
180.0
 20
142.0
 30
0.0
 40
8.0
 50
0.0
 51
180.0
  0
LINE
  5
38B
  8
0
 10
187.99999999999949
 20
102.0000000000002
 30
0.0
 11
172.0000000000004
 21
102.0000000000002
 31
0.0
  0
LINE
  5
38C
  8
3
 10
186.91749999999999
 20
102.0000000000004
 30
0.0
 11
187.99999999999949
 21
103.87494499919281
 31
0.0
  0
LINE
  5
38D
  8
0
 10
187.99999999999949
 20
47.0
 30
0.0
 11
185.99999999999949
 21
45.0
 31
0.0
  0
LINE
  5
38E
  8
0
 10
172.0000000000004
 20
47.0
 30
0.0
 11
174.0000000000004
 21
45.0
 31
0.0
  0
LINE
  5
38F
  8
3
 10
173.08250000000001
 20
102.0000000000004
 30
0.0
 11
172.0000000000004
 21
103.87494499919281
 31
0.0
  0
LINE
  5
390
  8
3
 10
173.08250000000001
 20
45.917499999999777
 30
0.0
 11
173.08250000000001
 21
74.999999999999986
 31
0.0
  0
LINE
  5
391
  8
0
 10
172.0000000000004
 20
47.0
 30
0.0
 11
172.0000000000004
 21
75.0
 31
0.0
  0
LINE
  5
392
  8
0
 10
187.99999999999949
 20
46.999999999999773
 30
0.0
 11
172.0000000000004
 21
47.0
 31
0.0
  0
ARC
  5
395
  8
0
 10
179.99997633083669
 20
93.321183649355007
 30
0.0
 40
18.321183649125121
 50
247.780807083664
 51
292.2193039812106
  0
ARC
  5
396
  8
0
 10
179.99997633083669
 20
66.678816350574721
 30
0.0
 40
18.321183649125121
 50
67.780696018789385
 51
112.219192916336
  0
LINE
  5
397
  8
0
 10
173.07180400015341
 20
83.639528095626588
 30
0.0
 11
173.07180400015341
 21
76.360471904303026
 31
0.0
  0
LINE
  5
398
  8
0
 10
186.92818153898551
 20
83.639528095626588
 30
0.0
 11
186.92818153898509
 21
76.360471904303026
 31
0.0
  0
LINE
  5
399
  8
0
 10
191.49999999999949
 20
75.0
 30
0.0
 11
168.4999999999996
 21
75.0
 31
0.0
  0
LINE
  5
39A
  8
0
 10
191.49999999999949
 20
84.999999999929855
 30
0.0
 11
168.4999999999996
 21
84.999999999929855
 31
0.0
  0
LINE
  5
39B
  8
0
 10
168.49999999999949
 20
75.0
 30
0.0
 11
166.1436080003084
 21
76.360471904303026
 31
0.0
  0
LINE
  5
39C
  8
0
 10
166.1436080003084
 20
76.360471904303026
 30
0.0
 11
166.1436080003084
 21
83.639528095626588
 31
0.0
  0
LINE
  5
39D
  8
0
 10
166.1436080003084
 20
83.639528095626588
 30
0.0
 11
168.49999999999949
 21
84.999999999929855
 31
0.0
  0
ARC
  5
39E
  8
0
 10
169.60771323066089
 20
79.909520437087281
 30
0.0
 40
5.0904795628426038
 50
132.88324771361999
 51
132.88324771361999
  0
ARC
  5
39F
  8
0
 10
169.60771323066089
 20
79.909520437087281
 30
0.0
 40
5.0904795628426038
 50
47.116752286379992
 51
89.999984819749287
  0
ARC
  5
3A0
  8
0
 10
169.60771323066089
 20
80.090479562842333
 30
0.0
 40
5.0904795628426038
 50
270.00001518025073
 51
312.88324771361999
  0
ARC
  5
3A1
  8
0
 10
190.39228676933831
 20
80.090479562842333
 30
0.0
 40
5.0904795628426038
 50
227.11675228638001
 51
269.99998481974927
  0
ARC
  5
3A2
  8
0
 10
190.39228676933831
 20
79.909520437087281
 30
0.0
 40
5.0904795628426038
 50
90.000015180250699
 51
132.88324771361999
  0
ARC
  5
3A3
  8
0
 10
190.39228676933831
 20
79.909520437087281
 30
0.0
 40
5.0904795628426038
 50
47.116752286379992
 51
47.116752286379992
  0
LINE
  5
3A4
  8
0
 10
193.8563919996908
 20
83.639528095626588
 30
0.0
 11
191.49999999999949
 21
84.999999999929855
 31
0.0
  0
LINE
  5
3A5
  8
0
 10
193.8563919996908
 20
76.360471904303026
 30
0.0
 11
193.8563919996908
 21
83.639528095626588
 31
0.0
  0
LINE
  5
3A6
  8
0
 10
191.49999999999949
 20
75.0
 30
0.0
 11
193.8563919996908
 21
76.360471904303026
 31
0.0
  0
LINE
  5
3A7
  8
3
 10
186.91749999999999
 20
84.999999999929855
 30
0.0
 11
186.91749999999999
 21
102.0000000000004
 31
0.0
  0
LINE
  5
3A8
  8
0
 10
187.99999999999949
 20
84.999999999929855
 30
0.0
 11
187.99999999999949
 21
105.0
 31
0.0
  0
LINE
  5
3A9
  8
3
 10
173.08250000000001
 20
84.999999999929855
 30
0.0
 11
173.08250000000001
 21
102.0000000000004
 31
0.0
  0
LINE
  5
3AA
  8
0
 10
172.0000000000004
 20
84.999999999929855
 30
0.0
 11
172.0000000000004
 21
105.0
 31
0.0
  0
ENDSEC
  0
EOF
