  0
SECTION
  2
HEADER
  9
$ACADVER
  1
AC1009
  9
$INSBASE
 10
0.0
 20
0.0
 30
0.0
  9
$EXTMIN
 10
0.0
 20
-2.960436562073669
 30
0.0
  9
$EXTMAX
 10
89.582879164866114
 20
120.932080390511
 30
0.0
  9
$LIMMIN
 10
0.0
 20
0.0
  9
$LIMMAX
 10
375.0
 20
270.0
  9
$ORTHOMODE
 70
     0
  9
$REGENMODE
 70
     1
  9
$FILLMODE
 70
     1
  9
$QTEXTMODE
 70
     0
  9
$MIRRTEXT
 70
     0
  9
$DRAGMODE
 70
     2
  9
$LTSCALE
 40
10.0
  9
$OSMODE
 70
    37
  9
$ATTMODE
 70
     1
  9
$TEXTSIZE
 40
0.2
  9
$TRACEWID
 40
0.05
  9
$TEXTSTYLE
  7
STANDARD
  9
$CLAYER
  8
0
  9
$CELTYPE
  6
BYLAYER
  9
$CECOLOR
 62
   256
  9
$DIMSCALE
 40
1.0
  9
$DIMASZ
 40
3.0
  9
$DIMEXO
 40
2.0
  9
$DIMDLI
 40
0.38
  9
$DIMRND
 40
0.0
  9
$DIMDLE
 40
0.0
  9
$DIMEXE
 40
2.0
  9
$DIMTP
 40
0.0
  9
$DIMTM
 40
0.0
  9
$DIMTXT
 40
3.2000000000000002
  9
$DIMCEN
 40
0.0
  9
$DIMTSZ
 40
0.0
  9
$DIMTOL
 70
     0
  9
$DIMLIM
 70
     0
  9
$DIMTIH
 70
     0
  9
$DIMTOH
 70
     0
  9
$DIMSE1
 70
     0
  9
$DIMSE2
 70
     0
  9
$DIMTAD
 70
     1
  9
$DIMZIN
 70
     0
  9
$DIMBLK
  1

  9
$DIMASO
 70
     0
  9
$DIMSHO
 70
     0
  9
$DIMPOST
  1

  9
$DIMAPOST
  1

  9
$DIMALT
 70
     0
  9
$DIMALTD
 70
     2
  9
$DIMALTF
 40
25.399999999999999
  9
$DIMLFAC
 40
1.0
  9
$DIMTOFL
 70
     1
  9
$DIMTVP
 40
1.6000000000000001
  9
$DIMTIX
 70
     1
  9
$DIMSOXD
 70
     0
  9
$DIMSAH
 70
     0
  9
$DIMBLK1
  1

  9
$DIMBLK2
  1

  9
$DIMSTYLE
  2
STANDARD
  9
$DIMCLRD
 70
     0
  9
$DIMCLRE
 70
     0
  9
$DIMCLRT
 70
     0
  9
$DIMTFAC
 40
1.0
  9
$DIMGAP
 40
0.09
  9
$LUNITS
 70
     2
  9
$LUPREC
 70
     1
  9
$SKETCHINC
 40
0.1
  9
$FILLETRAD
 40
0.0
  9
$AUNITS
 70
     0
  9
$AUPREC
 70
     1
  9
$MENU
  1
E:\r13\win\SUPPORT\ACAD
  9
$ELEVATION
 40
0.0
  9
$PELEVATION
 40
0.0
  9
$THICKNESS
 40
0.0
  9
$LIMCHECK
 70
     0
  9
$BLIPMODE
 70
     0
  9
$CHAMFERA
 40
0.0
  9
$CHAMFERB
 40
0.0
  9
$SKPOLY
 70
     0
  9
$TDCREATE
 40
2449839.7609490738
  9
$TDUPDATE
 40
2459675.4365131478
  9
$TDINDWG
 40
0.0797366088
  9
$TDUSRTIMER
 40
0.0797366088
  9
$USRTIMER
 70
     1
  9
$ANGBASE
 50
0.0
  9
$ANGDIR
 70
     0
  9
$PDMODE
 70
     0
  9
$PDSIZE
 40
0.0
  9
$PLINEWID
 40
0.0
  9
$COORDS
 70
     1
  9
$SPLFRAME
 70
     0
  9
$SPLINETYPE
 70
     6
  9
$SPLINESEGS
 70
     8
  9
$ATTDIA
 70
     0
  9
$ATTREQ
 70
     1
  9
$HANDLING
 70
     1
  9
$HANDSEED
  5
AEA
  9
$SURFTAB1
 70
     6
  9
$SURFTAB2
 70
     6
  9
$SURFTYPE
 70
     6
  9
$SURFU
 70
     6
  9
$SURFV
 70
     6
  9
$UCSNAME
  2

  9
$UCSORG
 10
0.0
 20
0.0
 30
0.0
  9
$UCSXDIR
 10
1.0
 20
0.0
 30
0.0
  9
$UCSYDIR
 10
0.0
 20
1.0
 30
0.0
  9
$PUCSNAME
  2

  9
$PUCSORG
 10
0.0
 20
0.0
 30
0.0
  9
$PUCSXDIR
 10
1.0
 20
0.0
 30
0.0
  9
$PUCSYDIR
 10
0.0
 20
1.0
 30
0.0
  9
$USERI1
 70
     0
  9
$USERI2
 70
     1
  9
$USERI3
 70
     0
  9
$USERI4
 70
     0
  9
$USERI5
 70
     0
  9
$USERR1
 40
0.0
  9
$USERR2
 40
0.0
  9
$USERR3
 40
0.0
  9
$USERR4
 40
0.0
  9
$USERR5
 40
0.0
  9
$WORLDVIEW
 70
     1
  9
$SHADEDGE
 70
     3
  9
$SHADEDIF
 70
    70
  9
$TILEMODE
 70
     1
  9
$MAXACTVP
 70
    16
  9
$PLIMCHECK
 70
     0
  9
$PEXTMIN
 10
1.0000000000000000E+020
 20
1.0000000000000000E+020
 30
1.0000000000000000E+020
  9
$PEXTMAX
 10
-1.0000000000000000E+020
 20
-1.0000000000000000E+020
 30
-1.0000000000000000E+020
  9
$PLIMMIN
 10
0.0
 20
0.0
  9
$PLIMMAX
 10
12.0
 20
9.0
  9
$UNITMODE
 70
     0
  9
$VISRETAIN
 70
     0
  9
$PLINEGEN
 70
     0
  9
$PSLTSCALE
 70
     0
  0
ENDSEC
  0
SECTION
  2
TABLES
  0
TABLE
  2
VPORT
 70
     1
  0
VPORT
  2
*ACTIVE
 70
     0
 10
0.0
 20
0.0
 11
1.0
 21
1.0
 12
227.4368231046931
 22
100.0
 13
0.0
 23
0.0
 14
10.0
 24
10.0
 15
10.0
 25
10.0
 16
0.0
 26
0.0
 36
1.0
 17
0.0
 27
0.0
 37
0.0
 40
200.0
 41
2.2743682310469309
 42
50.0
 43
0.0
 44
0.0
 50
0.0
 51
0.0
 71
     0
 72
   500
 73
     1
 74
     0
 75
     0
 76
     0
 77
     0
 78
     2
  0
ENDTAB
  0
TABLE
  2
LTYPE
 70
     3
  0
LTYPE
  2
CONTINUOUS
 70
     0
  3
Solid Line
 72
    65
 73
     0
 40
0.0
  0
LTYPE
  2
CENTER
 70
     0
  3
____ _ ____ _ ____ _ ____ _ ____ _ ____ _ ____
 72
    65
 73
     4
 40
2.0
 49
1.25
 49
-0.25
 49
0.25
 49
-0.25
  0
LTYPE
  2
PHANTOM2
 70
     0
  3
___ _ _ ___ _ _ ___ _ _ ___ _ _
 72
    65
 73
     6
 40
1.25
 49
0.625
 49
-0.125
 49
0.125
 49
-0.125
 49
0.125
 49
-0.125
  0
ENDTAB
  0
TABLE
  2
LAYER
 70
     3
  0
LAYER
  2
0
 70
     0
 62
     7
  6
CONTINUOUS
  0
LAYER
  2
1
 70
     0
 62
     1
  6
CENTER
  0
LAYER
  2
3
 70
     0
 62
     3
  6
CONTINUOUS
  0
ENDTAB
  0
TABLE
  2
STYLE
 70
     2
  0
STYLE
  2
STANDARD
 70
     0
 40
0.0
 41
1.0
 50
0.0
 71
     0
 42
0.2
  3
TXT
  4
BIGFONT
  0
STYLE
  2
STANDARD1
 70
     0
 40
0.0
 41
1.0
 50
0.0
 71
     0
 42
3.0
  3
txt
  4

  0
ENDTAB
  0
TABLE
  2
VIEW
 70
     1
  0
VIEW
  2
ALL
 70
     0
 40
270.0
 10
220.99159663865549
 20
135.0
 41
0.0
 11
0.0
 21
0.0
 31
1.0
 12
0.0
 22
0.0
 32
0.0
 42
0.0
 43
0.0
 44
0.0
 50
0.0
 71
     0
  0
ENDTAB
  0
TABLE
  2
UCS
 70
     0
  0
ENDTAB
  0
TABLE
  2
APPID
 70
     6
  0
APPID
  2
ACAD
 70
     0
  0
APPID
  2
ACAD_MLEADERVER
 70
     0
  0
APPID
  2
ACAD_NAV_VCDISPLAY
 70
     0
  0
APPID
  2
ACAD_DSTYLE_DIMJAG
 70
     0
  0
APPID
  2
ACAD_DSTYLE_DIMTALN
 70
     0
  0
APPID
  2
ACAD_EXEMPT_FROM_CAD_STANDARDS
 70
     0
  0
ENDTAB
  0
TABLE
  2
DIMSTYLE
 70
     1
  0
DIMSTYLE
  2
STANDARD
 70
     0
  3

  4

  5

  6

  7

 40
1.0
 41
0.18
 42
0.0625
 43
0.38
 44
0.18
 45
0.0
 46
0.0
 47
0.0
 48
0.0
140
0.18
141
0.09
142
0.0
143
25.399999999999999
144
1.0
145
0.0
146
1.0
147
0.09
 71
     0
 72
     0
 73
     1
 74
     1
 75
     0
 76
     0
 77
     0
 78
     0
170
     0
171
     2
172
     0
173
     0
174
     0
175
     0
176
     0
177
     0
178
     0
  0
ENDTAB
  0
ENDSEC
  0
SECTION
  2
BLOCKS
  0
BLOCK
  8
0
  2
$MODEL_SPACE
 70
     0
 10
0.0
 20
0.0
 30
0.0
  3
$MODEL_SPACE
  1

  0
ENDBLK
  5
263
  8
0
  0
BLOCK
 67
     1
  8
0
  2
$PAPER_SPACE
 70
     0
 10
0.0
 20
0.0
 30
0.0
  3
$PAPER_SPACE
  1

  0
ENDBLK
  5
261
 67
     1
  8
0
  0
ENDSEC
  0
SECTION
  2
ENTITIES
  0
LINE
  5
6F8
  8
1
 10
43.878584428024197
 20
120.932080390511
 30
0.0
 11
43.878584428024197
 21
94.947887686416351
 31
0.0
  0
LINE
  5
6F9
  8
1
 10
30.88648807597686
 20
107.93998403846371
 30
0.0
 11
56.870680780071581
 21
107.93998403846371
 31
0.0
  0
ARC
  5
6FA
  8
0
 10
43.878584428024197
 20
107.93998403846371
 30
0.0
 40
7.5000000000000053
 50
299.92643486661518
 51
330.07356513338658
  0
LINE
  5
6FB
  8
0
 10
50.378584428024212
 20
104.1983266516897
 30
0.0
 11
50.378584428024212
 21
103.2762945119193
 31
0.0
  0
ARC
  5
6FC
  8
0
 10
43.878584428024197
 20
107.93998403846371
 30
0.0
 40
8.0000000000000018
 50
305.6590876961393
 51
324.3409123038619
  0
LINE
  5
6FD
  8
0
 10
48.542273954568643
 20
101.43998403846371
 30
0.0
 11
47.620241814798177
 21
101.43998403846371
 31
0.0
  0
ARC
  5
6FE
  8
0
 10
43.878584428024197
 20
107.93998403846371
 30
0.0
 40
8.0000000000000302
 50
215.65908769613949
 51
234.34091230386261
  0
LINE
  5
6FF
  8
0
 10
37.378584428024212
 20
103.2762945119193
 30
0.0
 11
37.378584428024212
 21
104.1983266516897
 31
0.0
  0
ARC
  5
700
  8
0
 10
43.878584428024197
 20
107.93998403846371
 30
0.0
 40
7.5000000000000098
 50
209.92643486661569
 51
240.07356513338669
  0
LINE
  5
701
  8
0
 10
40.136927041250267
 20
101.43998403846371
 30
0.0
 11
39.214894901479809
 21
101.43998403846371
 31
0.0
  0
ARC
  5
702
  8
0
 10
43.878584428024197
 20
107.93998403846371
 30
0.0
 40
8.0000000000000213
 50
35.659087696138897
 51
54.340912303861103
  0
LINE
  5
703
  8
0
 10
50.378584428024212
 20
112.60367356500809
 30
0.0
 11
50.378584428024212
 21
111.6816414252376
 31
0.0
  0
ARC
  5
704
  8
0
 10
43.878584428024197
 20
107.93998403846371
 30
0.0
 40
7.4999999999999956
 50
29.926434866614251
 51
60.073565133386673
  0
LINE
  5
705
  8
0
 10
47.620241814798113
 20
114.43998403846371
 30
0.0
 11
48.542273954568593
 21
114.43998403846371
 31
0.0
  0
ARC
  5
706
  8
0
 10
43.878584428024197
 20
107.93998403846371
 30
0.0
 40
7.500000000000024
 50
119.9264348666151
 51
150.0735651333857
  0
LINE
  5
707
  8
0
 10
37.378584428024212
 20
111.6816414252376
 30
0.0
 11
37.378584428024212
 21
112.60367356500809
 31
0.0
  0
ARC
  5
708
  8
0
 10
43.878584428024197
 20
107.93998403846371
 30
0.0
 40
8.0000000000000053
 50
125.6590876961389
 51
144.3409123038611
  0
LINE
  5
709
  8
0
 10
39.214894901479781
 20
114.43998403846371
 30
0.0
 11
40.136927041250239
 21
114.43998403846371
 31
0.0
  0
LINE
  5
70A
  8
0
 10
47.620241814798177
 20
101.43998403846371
 30
0.0
 11
45.620254178826528
 21
101.43998403846371
 31
0.0
  0
LINE
  5
70B
  8
0
 10
42.136914677221888
 20
101.43998403846371
 30
0.0
 11
40.136927041250267
 21
101.43998403846371
 31
0.0
  0
LINE
  5
70C
  8
0
 10
47.620241814798113
 20
114.43998403846371
 30
0.0
 11
45.620254178826457
 21
114.43998403846371
 31
0.0
  0
LINE
  5
70D
  8
0
 10
42.136914677221917
 20
114.43998403846371
 30
0.0
 11
40.136927041250239
 21
114.43998403846371
 31
0.0
  0
POLYLINE
  5
70E
  8
0
 66
     1
 10
0.0
 20
0.0
 30
0.0
 70
   128
  0
VERTEX
  5
995
  8
0
 10
37.378584428024212
 20
103.2762945119193
 30
0.0
  0
VERTEX
  5
996
  8
0
 10
36.990157045205038
 20
103.871867989034
 30
0.0
  0
VERTEX
  5
997
  8
0
 10
36.656146473374761
 20
104.4995785403807
 30
0.0
  0
VERTEX
  5
998
  8
0
 10
36.379191310452157
 20
105.1544674134706
 30
0.0
  0
VERTEX
  5
999
  8
0
 10
36.161479431247457
 20
105.83136115403811
 30
0.0
  0
VERTEX
  5
99A
  8
0
 10
36.00473070381215
 20
106.5249124750042
 30
0.0
  0
VERTEX
  5
99B
  8
0
 10
35.910183402922101
 20
107.2296424986733
 30
0.0
  0
VERTEX
  5
99C
  8
0
 10
35.878584428024212
 20
107.93998403846371
 30
0.0
  0
VERTEX
  5
99D
  8
0
 10
35.910183402922101
 20
108.650325578254
 30
0.0
  0
VERTEX
  5
99E
  8
0
 10
36.00473070381215
 20
109.3550556019232
 30
0.0
  0
VERTEX
  5
99F
  8
0
 10
36.161479431247457
 20
110.04860692288931
 30
0.0
  0
VERTEX
  5
9A0
  8
0
 10
36.379191310452157
 20
110.7255006634568
 30
0.0
  0
VERTEX
  5
9A1
  8
0
 10
36.656146473374761
 20
111.3803895365466
 30
0.0
  0
VERTEX
  5
9A2
  8
0
 10
36.990157045205038
 20
112.0081000878933
 30
0.0
  0
VERTEX
  5
9A3
  8
0
 10
37.378584428024212
 20
112.60367356500809
 30
0.0
  0
SEQEND
  5
9A4
  8
0
  0
POLYLINE
  5
70F
  8
0
 66
     1
 10
0.0
 20
0.0
 30
0.0
 70
   128
  0
VERTEX
  5
9A5
  8
0
 10
50.378584428024212
 20
112.60367356500809
 30
0.0
  0
VERTEX
  5
9A6
  8
0
 10
50.767011810843378
 20
112.0081000878933
 30
0.0
  0
VERTEX
  5
9A7
  8
0
 10
51.101022382673662
 20
111.3803895365466
 30
0.0
  0
VERTEX
  5
9A8
  8
0
 10
51.377977545596274
 20
110.7255006634568
 30
0.0
  0
VERTEX
  5
9A9
  8
0
 10
51.595689424800959
 20
110.04860692288931
 30
0.0
  0
VERTEX
  5
9AA
  8
0
 10
51.75243815223628
 20
109.3550556019232
 30
0.0
  0
VERTEX
  5
9AB
  8
0
 10
51.846985453126322
 20
108.650325578254
 30
0.0
  0
VERTEX
  5
9AC
  8
0
 10
51.878584428024212
 20
107.93998403846371
 30
0.0
  0
VERTEX
  5
9AD
  8
0
 10
51.846985453126322
 20
107.2296424986733
 30
0.0
  0
VERTEX
  5
9AE
  8
0
 10
51.75243815223628
 20
106.5249124750042
 30
0.0
  0
VERTEX
  5
9AF
  8
0
 10
51.595689424800959
 20
105.83136115403811
 30
0.0
  0
VERTEX
  5
9B0
  8
0
 10
51.377977545596274
 20
105.1544674134706
 30
0.0
  0
VERTEX
  5
9B1
  8
0
 10
51.101022382673662
 20
104.4995785403808
 30
0.0
  0
VERTEX
  5
9B2
  8
0
 10
50.767011810843378
 20
103.8718679890341
 30
0.0
  0
VERTEX
  5
9B3
  8
0
 10
50.378584428024212
 20
103.2762945119193
 30
0.0
  0
SEQEND
  5
9B4
  8
0
  0
POLYLINE
  5
710
  8
0
 66
     1
 10
0.0
 20
0.0
 30
0.0
 70
   128
  0
VERTEX
  5
9B5
  8
0
 10
48.542273954568643
 20
101.43998403846371
 30
0.0
  0
VERTEX
  5
9B6
  8
0
 10
47.946700477453859
 20
101.0515566556445
 30
0.0
  0
VERTEX
  5
9B7
  8
0
 10
47.318989926107193
 20
100.7175460838143
 30
0.0
  0
VERTEX
  5
9B8
  8
0
 10
46.664101053017369
 20
100.44059092089169
 30
0.0
  0
VERTEX
  5
9B9
  8
0
 10
45.987207312449819
 20
100.22287904168689
 30
0.0
  0
VERTEX
  5
9BA
  8
0
 10
45.293655991483789
 20
100.06613031425159
 30
0.0
  0
VERTEX
  5
9BB
  8
0
 10
44.588925967814603
 20
99.971583013361624
 30
0.0
  0
VERTEX
  5
9BC
  8
0
 10
43.87858442802424
 20
99.939984038463706
 30
0.0
  0
VERTEX
  5
9BD
  8
0
 10
43.16824288823387
 20
99.971583013361624
 30
0.0
  0
VERTEX
  5
9BE
  8
0
 10
42.463512864564677
 20
100.06613031425159
 30
0.0
  0
VERTEX
  5
9BF
  8
0
 10
41.769961543598647
 20
100.22287904168689
 30
0.0
  0
VERTEX
  5
9C0
  8
0
 10
41.093067803031097
 20
100.44059092089169
 30
0.0
  0
VERTEX
  5
9C1
  8
0
 10
40.438178929941287
 20
100.7175460838143
 30
0.0
  0
VERTEX
  5
9C2
  8
0
 10
39.810468378594592
 20
101.0515566556445
 30
0.0
  0
VERTEX
  5
9C3
  8
0
 10
39.214894901479809
 20
101.43998403846371
 30
0.0
  0
SEQEND
  5
9C4
  8
0
  0
POLYLINE
  5
711
  8
0
 66
     1
 10
0.0
 20
0.0
 30
0.0
 70
   128
  0
VERTEX
  5
9C5
  8
0
 10
39.214894901479781
 20
114.43998403846371
 30
0.0
  0
VERTEX
  5
9C6
  8
0
 10
39.810468378594571
 20
114.82841142128289
 30
0.0
  0
VERTEX
  5
9C7
  8
0
 10
40.438178929941223
 20
115.1624219931131
 30
0.0
  0
VERTEX
  5
9C8
  8
0
 10
41.093067803031069
 20
115.4393771560357
 30
0.0
  0
VERTEX
  5
9C9
  8
0
 10
41.76996154359859
 20
115.6570890352404
 30
0.0
  0
VERTEX
  5
9CA
  8
0
 10
42.463512864564628
 20
115.8138377626757
 30
0.0
  0
VERTEX
  5
9CB
  8
0
 10
43.16824288823382
 20
115.9083850635658
 30
0.0
  0
VERTEX
  5
9CC
  8
0
 10
43.878584428024183
 20
115.93998403846371
 30
0.0
  0
VERTEX
  5
9CD
  8
0
 10
44.588925967814539
 20
115.9083850635658
 30
0.0
  0
VERTEX
  5
9CE
  8
0
 10
45.293655991483732
 20
115.8138377626757
 30
0.0
  0
VERTEX
  5
9CF
  8
0
 10
45.987207312449762
 20
115.6570890352405
 30
0.0
  0
VERTEX
  5
9D0
  8
0
 10
46.664101053017312
 20
115.4393771560357
 30
0.0
  0
VERTEX
  5
9D1
  8
0
 10
47.318989926107129
 20
115.1624219931131
 30
0.0
  0
VERTEX
  5
9D2
  8
0
 10
47.946700477453831
 20
114.82841142128289
 30
0.0
  0
VERTEX
  5
9D3
  8
0
 10
48.542273954568593
 20
114.43998403846371
 30
0.0
  0
SEQEND
  5
9D4
  8
0
  0
LINE
  5
712
  8
0
 10
50.378584428024212
 20
104.1872072887311
 30
0.0
 11
50.378584428024212
 21
111.6927607881962
 31
0.0
  0
LINE
  5
713
  8
0
 10
43.87858442802424
 20
100.4344305389986
 30
0.0
 11
50.378584428024212
 21
104.1872072887311
 31
0.0
  0
LINE
  5
714
  8
0
 10
37.37858442802424
 20
104.1872072887311
 30
0.0
 11
43.87858442802424
 21
100.4344305389986
 31
0.0
  0
LINE
  5
715
  8
0
 10
37.378584428024212
 20
111.6927607881962
 30
0.0
 11
37.37858442802424
 21
104.1872072887311
 31
0.0
  0
CIRCLE
  5
716
  8
0
 10
43.878584428024197
 20
107.93998403846371
 30
0.0
 40
6.3999999999999773
  0
LINE
  5
717
  8
0
 10
50.378584428024212
 20
111.6927607881962
 30
0.0
 11
43.878584428024197
 21
115.4455375379288
 31
0.0
  0
LINE
  5
718
  8
0
 10
43.878584428024197
 20
115.4455375379288
 30
0.0
 11
37.378584428024212
 21
111.6927607881962
 31
0.0
  0
CIRCLE
  5
719
  8
0
 10
43.878584428024197
 20
107.93998403846371
 30
0.0
 40
3.5
  0
CIRCLE
  5
71A
  8
3
 10
43.878584428024197
 20
107.93998403846371
 30
0.0
 40
3.0
  0
CIRCLE
  5
71B
  8
0
 10
43.878584428024197
 20
107.93998403846371
 30
0.0
 40
2.5
  0
TEXT
  5
7DC
  8
0
 62
     3
 10
0.0
 20
0.0
 30
0.0
 40
10.0
  1
BJ333-08040
  7
STANDARD1
  0
LINE
  5
829
  8
0
 10
74.077325665401005
 20
68.578275648983421
 30
0.0
 11
75.182879164866122
 21
67.939984038463692
 31
0.0
  0
LINE
  5
82A
  8
0
 10
87.982879164866134
 20
67.939984038463663
 30
0.0
 11
89.088432664331251
 21
68.578275648983364
 31
0.0
  0
LINE
  5
82B
  8
0
 10
89.088432664331293
 20
77.301692427943934
 30
0.0
 11
87.982879164866205
 21
77.939984038463649
 31
0.0
  0
LINE
  5
82C
  8
0
 10
75.182879164866151
 20
77.939984038463692
 30
0.0
 11
74.077325665401034
 21
77.301692427943991
 31
0.0
  0
ARC
  5
831
  8
0
 10
77.732879164866134
 20
67.339984038463697
 30
0.0
 40
0.6000000000000229
 50
0.0
 51
90.0
  0
ARC
  5
832
  8
0
 10
85.432879164866151
 20
67.339984038463669
 30
0.0
 40
0.5999999999999944
 50
90.0
 51
180.0
  0
LINE
  5
835
  8
0
 10
77.830102415133624
 20
77.301692427943991
 30
0.0
 11
77.830102415133624
 21
68.578275648983421
 31
0.0
  0
POLYLINE
  5
836
  8
0
 66
     1
 10
0.0
 20
0.0
 30
0.0
 70
   128
  0
VERTEX
  5
A0E
  8
0
 10
77.830102415133624
 20
77.301692427943991
 30
0.0
  0
VERTEX
  5
A0F
  8
0
 10
78.784711223472243
 20
77.549288625490405
 30
0.0
  0
VERTEX
  5
A10
  8
0
 10
79.718287369041676
 20
77.730743584099883
 30
0.0
  0
VERTEX
  5
A11
  8
0
 10
80.662231286035123
 20
77.844793028018657
 30
0.0
  0
VERTEX
  5
A12
  8
0
 10
81.635940522680585
 20
77.881741948139975
 30
0.0
  0
VERTEX
  5
A13
  8
0
 10
82.609275724673779
 20
77.835749957566591
 30
0.0
  0
VERTEX
  5
A14
  8
0
 10
83.978478343782314
 20
77.63548847862306
 30
0.0
  0
VERTEX
  5
A15
  8
0
 10
85.335655914598718
 20
77.301692427943962
 30
0.0
  0
SEQEND
  5
A16
  8
0
  0
LINE
  5
837
  8
0
 10
85.335655914598718
 20
77.301692427943962
 30
0.0
 11
85.335655914598675
 21
68.578275648983393
 31
0.0
  0
POLYLINE
  5
838
  8
0
 66
     1
 10
0.0
 20
0.0
 30
0.0
 70
   128
  0
VERTEX
  5
A17
  8
0
 10
85.335655914598675
 20
68.578275648983393
 30
0.0
  0
VERTEX
  5
A18
  8
0
 10
83.991015615191515
 20
68.246988507428554
 30
0.0
  0
VERTEX
  5
A19
  8
0
 10
82.609275724673765
 20
68.044218119360792
 30
0.0
  0
VERTEX
  5
A1A
  8
0
 10
81.660424707608357
 20
67.998331505054622
 30
0.0
  0
VERTEX
  5
A1B
  8
0
 10
80.711052725678499
 20
68.031324993090706
 30
0.0
  0
VERTEX
  5
A1C
  8
0
 10
79.742484647276356
 20
68.145415819781732
 30
0.0
  0
VERTEX
  5
A1D
  8
0
 10
78.784711223472229
 20
68.330679451437007
 30
0.0
  0
VERTEX
  5
A1E
  8
0
 10
77.830102415133624
 20
68.578275648983421
 30
0.0
  0
SEQEND
  5
A1F
  8
0
  0
POLYLINE
  5
839
  8
0
 66
     1
 10
0.0
 20
0.0
 30
0.0
 70
   128
  0
VERTEX
  5
A20
  8
0
 10
77.830102415133624
 20
68.578275648983421
 30
0.0
  0
VERTEX
  5
A21
  8
0
 10
77.342157532676381
 20
68.325873429774262
 30
0.0
  0
VERTEX
  5
A22
  8
0
 10
76.847231672217546
 20
68.136963856975555
 30
0.0
  0
VERTEX
  5
A23
  8
0
 10
76.335213151573114
 20
68.02390477058151
 30
0.0
  0
VERTEX
  5
A24
  8
0
 10
75.820305148137223
 20
68.000879470342525
 30
0.0
  0
VERTEX
  5
A25
  8
0
 10
75.382339330089238
 20
68.055462663934733
 30
0.0
  0
VERTEX
  5
A26
  8
0
 10
74.947440891289446
 20
68.173484988678481
 30
0.0
  0
VERTEX
  5
A27
  8
0
 10
74.077325665401005
 20
68.578275648983421
 30
0.0
  0
SEQEND
  5
A28
  8
0
  0
POLYLINE
  5
83A
  8
0
 66
     1
 10
0.0
 20
0.0
 30
0.0
 70
   128
  0
VERTEX
  5
A29
  8
0
 10
89.088432664331251
 20
68.578275648983364
 30
0.0
  0
VERTEX
  5
A2A
  8
0
 10
88.600487781874065
 20
68.325873429774191
 30
0.0
  0
VERTEX
  5
A2B
  8
0
 10
88.105561921415244
 20
68.136963856975484
 30
0.0
  0
VERTEX
  5
A2C
  8
0
 10
87.593543400770784
 20
68.023904770581453
 30
0.0
  0
VERTEX
  5
A2D
  8
0
 10
87.078635397334907
 20
68.000879470342497
 30
0.0
  0
VERTEX
  5
A2E
  8
0
 10
86.640669579286893
 20
68.055462663934705
 30
0.0
  0
VERTEX
  5
A2F
  8
0
 10
86.205771140487101
 20
68.173484988678453
 30
0.0
  0
VERTEX
  5
A30
  8
0
 10
85.335655914598675
 20
68.578275648983393
 30
0.0
  0
SEQEND
  5
A31
  8
0
  0
LINE
  5
83B
  8
0
 10
81.582879164866156
 20
67.939984038463692
 30
0.0
 11
87.982879164866134
 21
67.939984038463663
 31
0.0
  0
LINE
  5
83C
  8
0
 10
75.182879164866122
 20
67.939984038463692
 30
0.0
 11
81.582879164866156
 21
67.939984038463692
 31
0.0
  0
LINE
  5
83D
  8
0
 10
74.077325665401034
 20
77.301692427943991
 30
0.0
 11
74.077325665401005
 21
68.578275648983421
 31
0.0
  0
POLYLINE
  5
83E
  8
0
 66
     1
 10
0.0
 20
0.0
 30
0.0
 70
   128
  0
VERTEX
  5
A32
  8
0
 10
74.077325665401034
 20
77.301692427943991
 30
0.0
  0
VERTEX
  5
A33
  8
0
 10
74.565270547858248
 20
77.554094647153164
 30
0.0
  0
VERTEX
  5
A34
  8
0
 10
75.060196408317054
 20
77.743004219951857
 30
0.0
  0
VERTEX
  5
A35
  8
0
 10
75.572214928961486
 20
77.856063306345902
 30
0.0
  0
VERTEX
  5
A36
  8
0
 10
76.087122932397364
 20
77.879088606584887
 30
0.0
  0
VERTEX
  5
A37
  8
0
 10
76.525088750445363
 20
77.824505412992679
 30
0.0
  0
VERTEX
  5
A38
  8
0
 10
76.959987189245183
 20
77.70648308824893
 30
0.0
  0
VERTEX
  5
A39
  8
0
 10
77.830102415133624
 20
77.301692427943991
 30
0.0
  0
SEQEND
  5
A3A
  8
0
  0
POLYLINE
  5
83F
  8
0
 66
     1
 10
0.0
 20
0.0
 30
0.0
 70
   128
  0
VERTEX
  5
A3B
  8
0
 10
85.335655914598718
 20
77.301692427943962
 30
0.0
  0
VERTEX
  5
A3C
  8
0
 10
85.823600797055917
 20
77.554094647153164
 30
0.0
  0
VERTEX
  5
A3D
  8
0
 10
86.318526657514724
 20
77.743004219951843
 30
0.0
  0
VERTEX
  5
A3E
  8
0
 10
86.830545178159198
 20
77.856063306345874
 30
0.0
  0
VERTEX
  5
A3F
  8
0
 10
87.345453181595104
 20
77.879088606584844
 30
0.0
  0
VERTEX
  5
A40
  8
0
 10
87.783418999643104
 20
77.824505412992636
 30
0.0
  0
VERTEX
  5
A41
  8
0
 10
88.218317438442895
 20
77.706483088248874
 30
0.0
  0
VERTEX
  5
A42
  8
0
 10
89.088432664331293
 20
77.301692427943934
 30
0.0
  0
SEQEND
  5
A43
  8
0
  0
LINE
  5
840
  8
0
 10
89.088432664331293
 20
77.301692427943934
 30
0.0
 11
89.088432664331251
 21
68.578275648983364
 31
0.0
  0
LINE
  5
841
  8
0
 10
81.582879164866185
 20
77.939984038463692
 30
0.0
 11
87.982879164866205
 21
77.939984038463649
 31
0.0
  0
LINE
  5
842
  8
0
 10
75.182879164866151
 20
77.939984038463692
 30
0.0
 11
81.582879164866185
 21
77.939984038463692
 31
0.0
  0
LINE
  5
845
  8
0
 10
84.832879164866156
 20
67.339984038463669
 30
0.0
 11
78.332879164866171
 21
67.33998403846374
 31
0.0
  0
LINE
  5
862
  8
1
 10
81.582879164866
 20
20.339984038463701
 30
0.0
 11
81.582879164865986
 21
82.882249011544658
 31
0.0
  0
LINE
  5
863
  8
3
 10
78.25937916486599
 20
25.913484038463711
 30
0.0
 11
78.259379164865919
 21
37.33998403846369
 31
0.0
  0
LINE
  5
864
  8
3
 10
84.906379164865996
 20
25.91348403846375
 30
0.0
 11
84.906379164865925
 21
37.339984038463733
 31
0.0
  0
LINE
  5
865
  8
0
 10
73.582879164866057
 20
37.83998403846374
 30
0.0
 11
74.082879164866057
 21
37.339984038463733
 31
0.0
  0
LINE
  5
866
  8
0
 10
89.082879164866057
 20
37.339984038463683
 30
0.0
 11
89.582879164866057
 21
37.839984038463683
 31
0.0
  0
LINE
  5
867
  8
0
 10
89.582879164866057
 20
37.839984038463683
 30
0.0
 11
89.582879164866114
 21
53.473958634679228
 31
0.0
  0
LINE
  5
868
  8
0
 10
73.582879164866114
 20
53.473958634679292
 30
0.0
 11
73.582879164866057
 21
37.83998403846374
 31
0.0
  0
LINE
  5
869
  8
0
 10
74.077325665400991
 20
63.064878189361892
 30
0.0
 11
75.332879164866142
 21
62.33998403846374
 31
0.0
  0
LINE
  5
86A
  8
0
 10
87.832879164866142
 20
62.339984038463683
 30
0.0
 11
89.088432664331236
 21
63.064878189361849
 31
0.0
  0
LINE
  5
86B
  8
0
 10
89.088432664331236
 20
66.615089887565532
 30
0.0
 11
87.832879164866142
 21
67.339984038463683
 31
0.0
  0
LINE
  5
86C
  8
0
 10
75.332879164866171
 20
67.339984038463726
 30
0.0
 11
74.07732566540102
 21
66.615089887565574
 31
0.0
  0
LINE
  5
86D
  8
0
 10
77.582879164866
 20
26.58998403846374
 30
0.0
 11
78.832879164866
 21
25.339984038463719
 31
0.0
  0
LINE
  5
86E
  8
0
 10
84.332879164866
 20
25.339984038463701
 30
0.0
 11
85.582879164866
 21
26.589984038463712
 31
0.0
  0
LINE
  5
86F
  8
0
 10
77.582879164866057
 20
37.33998403846374
 30
0.0
 11
77.582879164866
 21
26.58998403846374
 31
0.0
  0
LINE
  5
870
  8
0
 10
85.582879164866
 20
26.589984038463712
 30
0.0
 11
85.582879164866029
 21
37.339984038463712
 31
0.0
  0
LINE
  5
871
  8
0
 10
81.582879164866057
 20
37.83998403846374
 30
0.0
 11
89.582879164866057
 21
37.839984038463683
 31
0.0
  0
LINE
  5
872
  8
0
 10
73.582879164866057
 20
37.83998403846374
 30
0.0
 11
81.582879164866057
 21
37.83998403846374
 31
0.0
  0
LINE
  5
873
  8
0
 10
81.582879164866057
 20
37.339984038463733
 30
0.0
 11
74.082879164866057
 21
37.339984038463733
 31
0.0
  0
LINE
  5
874
  8
0
 10
89.082879164866057
 20
37.339984038463683
 30
0.0
 11
81.582879164866057
 21
37.339984038463733
 31
0.0
  0
LINE
  5
875
  8
0
 10
76.919189638321683
 20
54.33998403846374
 30
0.0
 11
76.919189638321711
 21
61.83998403846374
 31
0.0
  0
POLYLINE
  5
876
  8
0
 66
     1
 10
0.0
 20
0.0
 30
0.0
 70
   128
  0
VERTEX
  5
A44
  8
0
 10
86.246568691410474
 20
54.339984038463712
 30
0.0
  0
VERTEX
  5
A45
  8
0
 10
85.650995214295705
 20
54.115725384432437
 30
0.0
  0
VERTEX
  5
A46
  8
0
 10
85.023284662949024
 20
53.922884290874073
 30
0.0
  0
VERTEX
  5
A47
  8
0
 10
84.368395789859235
 20
53.762984153007231
 30
0.0
  0
VERTEX
  5
A48
  8
0
 10
83.691502049291685
 20
53.63728814094263
 30
0.0
  0
VERTEX
  5
A49
  8
0
 10
82.997950728325634
 20
53.546789220962722
 30
0.0
  0
VERTEX
  5
A4A
  8
0
 10
82.293220704656477
 20
53.492202311342709
 30
0.0
  0
VERTEX
  5
A4B
  8
0
 10
81.582879164866114
 20
53.473958634679292
 30
0.0
  0
VERTEX
  5
A4C
  8
0
 10
80.872537625075722
 20
53.492202311342709
 30
0.0
  0
VERTEX
  5
A4D
  8
0
 10
80.167807601406565
 20
53.546789220962722
 30
0.0
  0
VERTEX
  5
A4E
  8
0
 10
79.474256280440528
 20
53.637288140942637
 30
0.0
  0
VERTEX
  5
A4F
  8
0
 10
78.797362539872978
 20
53.762984153007253
 30
0.0
  0
VERTEX
  5
A50
  8
0
 10
78.142473666783161
 20
53.922884290874087
 30
0.0
  0
VERTEX
  5
A51
  8
0
 10
77.514763115436466
 20
54.115725384432459
 30
0.0
  0
VERTEX
  5
A52
  8
0
 10
76.919189638321683
 20
54.33998403846374
 30
0.0
  0
SEQEND
  5
A53
  8
0
  0
LINE
  5
877
  8
0
 10
86.246568691410573
 20
61.839984038463712
 30
0.0
 11
86.246568691410474
 21
54.339984038463712
 31
0.0
  0
LINE
  5
878
  8
0
 10
88.082879164866185
 20
61.839984038463712
 30
0.0
 11
86.246568691410573
 21
61.839984038463712
 31
0.0
  0
LINE
  5
879
  8
0
 10
88.082879164866114
 20
54.339984038463712
 30
0.0
 11
88.082879164866185
 21
61.839984038463712
 31
0.0
  0
LINE
  5
87A
  8
0
 10
89.582879164866114
 20
53.473958634679228
 30
0.0
 11
88.082879164866114
 21
54.339984038463712
 31
0.0
  0
LINE
  5
87B
  8
0
 10
75.082879164866142
 20
54.33998403846374
 30
0.0
 11
73.582879164866114
 21
53.473958634679292
 31
0.0
  0
LINE
  5
87C
  8
0
 10
75.082879164866171
 20
61.83998403846374
 30
0.0
 11
75.082879164866142
 21
54.33998403846374
 31
0.0
  0
LINE
  5
87D
  8
0
 10
76.919189638321711
 20
61.83998403846374
 30
0.0
 11
75.082879164866171
 21
61.83998403846374
 31
0.0
  0
LINE
  5
87E
  8
0
 10
76.919189638321683
 20
54.33998403846374
 30
0.0
 11
86.246568691410474
 21
54.339984038463712
 31
0.0
  0
LINE
  5
87F
  8
0
 10
77.841221778092176
 20
62.33998403846374
 30
0.0
 11
76.919189638321711
 21
61.83998403846374
 31
0.0
  0
LINE
  5
880
  8
0
 10
77.841221778092176
 20
62.33998403846374
 30
0.0
 11
85.324536551640051
 21
62.339984038463719
 31
0.0
  0
LINE
  5
881
  8
0
 10
86.246568691410573
 20
61.839984038463712
 30
0.0
 11
85.324536551640051
 21
62.339984038463719
 31
0.0
  0
LINE
  5
882
  8
0
 10
75.082879164866142
 20
62.33998403846374
 30
0.0
 11
77.841221778092176
 21
62.33998403846374
 31
0.0
  0
LINE
  5
883
  8
0
 10
75.082879164866171
 20
61.83998403846374
 30
0.0
 11
75.082879164866142
 21
62.33998403846374
 31
0.0
  0
LINE
  5
884
  8
0
 10
85.324536551640051
 20
62.339984038463719
 30
0.0
 11
88.082879164866185
 21
62.339984038463697
 31
0.0
  0
LINE
  5
885
  8
0
 10
88.082879164866185
 20
62.339984038463697
 30
0.0
 11
88.082879164866185
 21
61.839984038463712
 31
0.0
  0
POLYLINE
  5
886
  8
0
 66
     1
 10
0.0
 20
0.0
 30
0.0
 70
   128
  0
VERTEX
  5
A54
  8
0
 10
85.335655914598675
 20
66.61508988756556
 30
0.0
  0
VERTEX
  5
A55
  8
0
 10
83.994738892640356
 20
66.945629723583167
 30
0.0
  0
VERTEX
  5
A56
  8
0
 10
82.616953420901623
 20
67.148453503168881
 30
0.0
  0
VERTEX
  5
A57
  8
0
 10
81.66861849144837
 20
67.194975411416181
 30
0.0
  0
VERTEX
  5
A58
  8
0
 10
80.719708149094956
 20
67.162701616304972
 30
0.0
  0
VERTEX
  5
A59
  8
0
 10
79.751554957817063
 20
67.049371921881644
 30
0.0
  0
VERTEX
  5
A5A
  8
0
 10
78.794151548547177
 20
66.864838124523402
 30
0.0
  0
VERTEX
  5
A5B
  8
0
 10
77.830102415133581
 20
66.615089887565574
 30
0.0
  0
SEQEND
  5
A5C
  8
0
  0
LINE
  5
887
  8
0
 10
85.335655914598675
 20
66.61508988756556
 30
0.0
 11
85.335655914598675
 21
63.06487818936187
 31
0.0
  0
POLYLINE
  5
888
  8
0
 66
     1
 10
0.0
 20
0.0
 30
0.0
 70
   128
  0
VERTEX
  5
A5D
  8
0
 10
77.830102415133609
 20
63.064878189361899
 30
0.0
  0
VERTEX
  5
A5E
  8
0
 10
78.794151548547177
 20
62.815129952404078
 30
0.0
  0
VERTEX
  5
A5F
  8
0
 10
79.727361210408361
 20
62.634386809400333
 30
0.0
  0
VERTEX
  5
A60
  8
0
 10
80.670896311260094
 20
62.521079248064588
 30
0.0
  0
VERTEX
  5
A61
  8
0
 10
81.644140568482413
 20
62.484869466097521
 30
0.0
  0
VERTEX
  5
A62
  8
0
 10
82.616953420901609
 20
62.531514573758578
 30
0.0
  0
VERTEX
  5
A63
  8
0
 10
83.98232285727056
 20
62.731850262411911
 30
0.0
  0
VERTEX
  5
A64
  8
0
 10
85.335655914598675
 20
63.06487818936187
 30
0.0
  0
SEQEND
  5
A65
  8
0
  0
LINE
  5
889
  8
0
 10
77.830102415133581
 20
66.615089887565574
 30
0.0
 11
77.830102415133609
 21
63.064878189361899
 31
0.0
  0
POLYLINE
  5
88A
  8
0
 66
     1
 10
0.0
 20
0.0
 30
0.0
 70
   128
  0
VERTEX
  5
A66
  8
0
 10
89.088432664331236
 20
66.615089887565503
 30
0.0
  0
VERTEX
  5
A67
  8
0
 10
88.600487781874051
 20
66.867492106774719
 30
0.0
  0
VERTEX
  5
A68
  8
0
 10
88.105561921415273
 20
67.056401679573398
 30
0.0
  0
VERTEX
  5
A69
  8
0
 10
87.593543400770784
 20
67.169460765967443
 30
0.0
  0
VERTEX
  5
A6A
  8
0
 10
87.078635397334935
 20
67.192486066206413
 30
0.0
  0
VERTEX
  5
A6B
  8
0
 10
86.640669579286936
 20
67.137902872614234
 30
0.0
  0
VERTEX
  5
A6C
  8
0
 10
86.205771140487116
 20
67.019880547870471
 30
0.0
  0
VERTEX
  5
A6D
  8
0
 10
85.335655914598675
 20
66.61508988756556
 30
0.0
  0
SEQEND
  5
A6E
  8
0
  0
LINE
  5
88B
  8
0
 10
89.088432664331236
 20
66.615089887565503
 30
0.0
 11
89.088432664331236
 21
63.064878189361849
 31
0.0
  0
POLYLINE
  5
88C
  8
0
 66
     1
 10
0.0
 20
0.0
 30
0.0
 70
   128
  0
VERTEX
  5
A6F
  8
0
 10
85.335655914598675
 20
63.06487818936187
 30
0.0
  0
VERTEX
  5
A70
  8
0
 10
85.823600797055917
 20
62.81247597015269
 30
0.0
  0
VERTEX
  5
A71
  8
0
 10
86.318526657514695
 20
62.623566397353983
 30
0.0
  0
VERTEX
  5
A72
  8
0
 10
86.830545178159127
 20
62.510507310959973
 30
0.0
  0
VERTEX
  5
A73
  8
0
 10
87.345453181595019
 20
62.487482010720981
 30
0.0
  0
VERTEX
  5
A74
  8
0
 10
87.783418999643033
 20
62.542065204313168
 30
0.0
  0
VERTEX
  5
A75
  8
0
 10
88.218317438442824
 20
62.660087529056902
 30
0.0
  0
VERTEX
  5
A76
  8
0
 10
89.088432664331236
 20
63.064878189361849
 30
0.0
  0
SEQEND
  5
A77
  8
0
  0
POLYLINE
  5
88D
  8
0
 66
     1
 10
0.0
 20
0.0
 30
0.0
 70
   128
  0
VERTEX
  5
A78
  8
0
 10
77.830102415133581
 20
66.615089887565574
 30
0.0
  0
VERTEX
  5
A79
  8
0
 10
77.342157532676367
 20
66.867492106774762
 30
0.0
  0
VERTEX
  5
A7A
  8
0
 10
76.847231672217561
 20
67.056401679573455
 30
0.0
  0
VERTEX
  5
A7B
  8
0
 10
76.335213151573129
 20
67.169460765967486
 30
0.0
  0
VERTEX
  5
A7C
  8
0
 10
75.820305148137209
 20
67.192486066206442
 30
0.0
  0
VERTEX
  5
A7D
  8
0
 10
75.382339330089252
 20
67.137902872614234
 30
0.0
  0
VERTEX
  5
A7E
  8
0
 10
74.947440891289432
 20
67.0198805478705
 30
0.0
  0
VERTEX
  5
A7F
  8
0
 10
74.07732566540102
 20
66.615089887565574
 30
0.0
  0
SEQEND
  5
A80
  8
0
  0
POLYLINE
  5
88E
  8
0
 66
     1
 10
0.0
 20
0.0
 30
0.0
 70
   128
  0
VERTEX
  5
A81
  8
0
 10
74.077325665400991
 20
63.064878189361892
 30
0.0
  0
VERTEX
  5
A82
  8
0
 10
74.565270547858205
 20
62.812475970152718
 30
0.0
  0
VERTEX
  5
A83
  8
0
 10
75.06019640831704
 20
62.62356639735404
 30
0.0
  0
VERTEX
  5
A84
  8
0
 10
75.572214928961444
 20
62.51050731095998
 30
0.0
  0
VERTEX
  5
A85
  8
0
 10
76.087122932397335
 20
62.487482010721017
 30
0.0
  0
VERTEX
  5
A86
  8
0
 10
76.52508875044532
 20
62.542065204313232
 30
0.0
  0
VERTEX
  5
A87
  8
0
 10
76.95998718924514
 20
62.660087529056987
 30
0.0
  0
VERTEX
  5
A88
  8
0
 10
77.830102415133609
 20
63.064878189361899
 30
0.0
  0
SEQEND
  5
A89
  8
0
  0
LINE
  5
88F
  8
0
 10
74.07732566540102
 20
66.615089887565574
 30
0.0
 11
74.077325665400991
 21
63.064878189361892
 31
0.0
  0
LINE
  5
890
  8
0
 10
87.832879164866142
 20
67.339984038463683
 30
0.0
 11
75.332879164866171
 21
67.339984038463726
 31
0.0
  0
LINE
  5
891
  8
0
 10
81.582879164866
 20
26.58998403846374
 30
0.0
 11
85.582879164866
 21
26.589984038463712
 31
0.0
  0
LINE
  5
892
  8
0
 10
77.582879164866
 20
26.58998403846374
 30
0.0
 11
81.582879164866
 21
26.58998403846374
 31
0.0
  0
LINE
  5
893
  8
0
 10
81.582879164866
 20
25.339984038463719
 30
0.0
 11
84.332879164866
 21
25.339984038463701
 31
0.0
  0
LINE
  5
894
  8
0
 10
78.832879164866
 20
25.339984038463719
 30
0.0
 11
81.582879164866
 21
25.339984038463719
 31
0.0
  0
LINE
  5
89E
  8
0
 10
37.37858442802407
 20
67.997719065382611
 30
0.0
 11
37.478584428024071
 21
67.939984038463663
 31
0.0
  0
LINE
  5
89F
  8
0
 10
50.27858442802404
 20
67.939984038463749
 30
0.0
 11
50.37858442802407
 21
67.997719065382711
 31
0.0
  0
LINE
  5
8A0
  8
0
 10
50.378584428023991
 20
77.882249011544786
 30
0.0
 11
50.27858442802399
 21
77.939984038463749
 31
0.0
  0
LINE
  5
8A1
  8
0
 10
37.478584428024007
 20
77.939984038463663
 30
0.0
 11
37.378584428023977
 21
77.882249011544701
 31
0.0
  0
ARC
  5
8A6
  8
0
 10
40.028584428024068
 20
67.339984038463669
 30
0.0
 40
0.6000000000000086
 50
0.0
 51
90.000000000003254
  0
ARC
  5
8A7
  8
0
 10
47.728584428024057
 20
67.339984038463726
 30
0.0
 40
0.6000000000000086
 50
90.0
 51
180.0
  0
LINE
  5
8AA
  8
0
 10
43.878584428024013
 20
77.301692427944019
 30
0.0
 11
43.878584428024062
 21
68.57827564898345
 31
0.0
  0
POLYLINE
  5
8AB
  8
0
 66
     1
 10
0.0
 20
0.0
 30
0.0
 70
   128
  0
VERTEX
  5
A8A
  8
0
 10
43.878584428024013
 20
77.301692427944019
 30
0.0
  0
VERTEX
  5
A8B
  8
0
 10
44.72372975573311
 20
77.554094647153207
 30
0.0
  0
VERTEX
  5
A8C
  8
0
 10
45.580966492027507
 20
77.743004219951899
 30
0.0
  0
VERTEX
  5
A8D
  8
0
 10
46.467808584199943
 20
77.856063306345931
 30
0.0
  0
VERTEX
  5
A8E
  8
0
 10
47.35965540737471
 20
77.879088606584915
 30
0.0
  0
VERTEX
  5
A8F
  8
0
 10
48.118234456212328
 20
77.824505412992721
 30
0.0
  0
VERTEX
  5
A90
  8
0
 10
48.871500648345993
 20
77.706483088248945
 30
0.0
  0
VERTEX
  5
A91
  8
0
 10
50.378584428023991
 20
77.301692427944047
 30
0.0
  0
SEQEND
  5
A92
  8
0
  0
LINE
  5
8AC
  8
0
 10
50.378584428023991
 20
77.301692427944047
 30
0.0
 11
50.378584428024041
 21
68.578275648983464
 31
0.0
  0
POLYLINE
  5
8AD
  8
0
 66
     1
 10
0.0
 20
0.0
 30
0.0
 70
   128
  0
VERTEX
  5
A93
  8
0
 10
50.378584428024041
 20
68.578275648983464
 30
0.0
  0
VERTEX
  5
A94
  8
0
 10
49.533439100314929
 20
68.32587342977429
 30
0.0
  0
VERTEX
  5
A95
  8
0
 10
48.676202364020533
 20
68.136963856975598
 30
0.0
  0
VERTEX
  5
A96
  8
0
 10
47.789360271848111
 20
68.023904770581552
 30
0.0
  0
VERTEX
  5
A97
  8
0
 10
46.897513448673337
 20
68.000879470342582
 30
0.0
  0
VERTEX
  5
A98
  8
0
 10
46.138934399835719
 20
68.055462663934776
 30
0.0
  0
VERTEX
  5
A99
  8
0
 10
45.385668207702061
 20
68.173484988678524
 30
0.0
  0
VERTEX
  5
A9A
  8
0
 10
43.878584428024062
 20
68.57827564898345
 30
0.0
  0
SEQEND
  5
A9B
  8
0
  0
LINE
  5
8AE
  8
0
 10
37.378584428024013
 20
77.301692427943962
 30
0.0
 11
37.37858442802407
 21
68.578275648983393
 31
0.0
  0
POLYLINE
  5
8AF
  8
0
 66
     1
 10
0.0
 20
0.0
 30
0.0
 70
   128
  0
VERTEX
  5
A9C
  8
0
 10
37.378584428024013
 20
77.301692427943962
 30
0.0
  0
VERTEX
  5
A9D
  8
0
 10
38.223729755733117
 20
77.55409464715315
 30
0.0
  0
VERTEX
  5
A9E
  8
0
 10
39.080966492027521
 20
77.743004219951843
 30
0.0
  0
VERTEX
  5
A9F
  8
0
 10
39.967808584199943
 20
77.856063306345902
 30
0.0
  0
VERTEX
  5
AA0
  8
0
 10
40.85965540737471
 20
77.879088606584887
 30
0.0
  0
VERTEX
  5
AA1
  8
0
 10
41.618234456212328
 20
77.824505412992693
 30
0.0
  0
VERTEX
  5
AA2
  8
0
 10
42.371500648345979
 20
77.70648308824893
 30
0.0
  0
VERTEX
  5
AA3
  8
0
 10
43.878584428024013
 20
77.301692427944019
 30
0.0
  0
SEQEND
  5
AA4
  8
0
  0
POLYLINE
  5
8B0
  8
0
 66
     1
 10
0.0
 20
0.0
 30
0.0
 70
   128
  0
VERTEX
  5
AA5
  8
0
 10
43.878584428024062
 20
68.57827564898345
 30
0.0
  0
VERTEX
  5
AA6
  8
0
 10
43.033439100314929
 20
68.325873429774262
 30
0.0
  0
VERTEX
  5
AA7
  8
0
 10
42.176202364020568
 20
68.136963856975541
 30
0.0
  0
VERTEX
  5
AA8
  8
0
 10
41.289360271848132
 20
68.023904770581495
 30
0.0
  0
VERTEX
  5
AA9
  8
0
 10
40.39751344867333
 20
68.000879470342525
 30
0.0
  0
VERTEX
  5
AAA
  8
0
 10
39.638934399835719
 20
68.055462663934733
 30
0.0
  0
VERTEX
  5
AAB
  8
0
 10
38.885668207702103
 20
68.173484988678453
 30
0.0
  0
VERTEX
  5
AAC
  8
0
 10
37.37858442802407
 20
68.578275648983393
 30
0.0
  0
SEQEND
  5
AAD
  8
0
  0
LINE
  5
8B1
  8
0
 10
50.378584428024041
 20
68.578275648983464
 30
0.0
 11
50.37858442802407
 21
67.998226128787465
 31
0.0
  0
LINE
  5
8B2
  8
0
 10
37.37858442802407
 20
68.578275648983393
 30
0.0
 11
37.37858442802407
 21
67.99833150505458
 31
0.0
  0
LINE
  5
8B3
  8
0
 10
37.478584428024071
 20
67.939984038463663
 30
0.0
 11
50.27858442802404
 21
67.939984038463749
 31
0.0
  0
LINE
  5
8B4
  8
0
 10
37.378584428024013
 20
77.301692427943962
 30
0.0
 11
37.378584428023977
 21
77.881741948139933
 31
0.0
  0
LINE
  5
8B5
  8
0
 10
50.378584428023991
 20
77.301692427944047
 30
0.0
 11
50.378584428023991
 21
77.881636571872818
 31
0.0
  0
LINE
  5
8B6
  8
0
 10
37.478584428024007
 20
77.939984038463663
 30
0.0
 11
50.27858442802399
 21
77.939984038463749
 31
0.0
  0
LINE
  5
8B9
  8
0
 10
47.128584428024062
 20
67.339984038463726
 30
0.0
 11
40.62858442802407
 21
67.339984038463683
 31
0.0
  0
LINE
  5
8C9
  8
1
 10
43.878584428024197
 20
20.339984038463701
 30
0.0
 11
43.878584428024197
 21
82.882249011544687
 31
0.0
  0
LINE
  5
8CA
  8
3
 10
40.555084428024209
 20
25.9134840384637
 30
0.0
 11
40.555084428024138
 21
37.339984038463683
 31
0.0
  0
LINE
  5
8CB
  8
3
 10
47.202084428024207
 20
25.913484038463739
 30
0.0
 11
47.202084428024143
 21
37.339984038463733
 31
0.0
  0
LINE
  5
8CC
  8
0
 10
51.878584428024112
 20
37.839984038463761
 30
0.0
 11
51.878584428024027
 21
53.47395863467932
 31
0.0
  0
LINE
  5
8CD
  8
0
 10
35.878584428024027
 20
53.4739586346792
 30
0.0
 11
35.878584428024112
 21
37.839984038463662
 31
0.0
  0
LINE
  5
8CE
  8
0
 10
35.878584428024112
 20
37.839984038463662
 30
0.0
 11
36.378584428024141
 21
37.339984038463662
 31
0.0
  0
LINE
  5
8CF
  8
0
 10
51.378584428024141
 20
37.339984038463761
 30
0.0
 11
51.878584428024112
 21
37.839984038463761
 31
0.0
  0
LINE
  5
8D0
  8
0
 10
37.37858442802397
 20
62.484321605761082
 30
0.0
 11
37.62858442802397
 21
62.339984038463669
 31
0.0
  0
LINE
  5
8D1
  8
0
 10
50.128584428023942
 20
62.33998403846374
 30
0.0
 11
50.378584428023942
 21
62.484321605761153
 31
0.0
  0
LINE
  5
8D2
  8
0
 10
50.37858442802392
 20
67.195646471166341
 30
0.0
 11
50.128584428023913
 21
67.339984038463754
 31
0.0
  0
LINE
  5
8D3
  8
0
 10
37.628584428023942
 20
67.339984038463655
 30
0.0
 11
37.378584428023942
 21
67.195646471166256
 31
0.0
  0
LINE
  5
8D4
  8
0
 10
39.878584428024233
 20
26.589984038463701
 30
0.0
 11
41.128584428024219
 21
25.33998403846369
 31
0.0
  0
LINE
  5
8D5
  8
0
 10
46.628584428024233
 20
25.339984038463729
 30
0.0
 11
47.87858442802419
 21
26.589984038463751
 31
0.0
  0
LINE
  5
8D6
  8
0
 10
39.878584428024141
 20
37.339984038463697
 30
0.0
 11
39.878584428024233
 21
26.589984038463701
 31
0.0
  0
LINE
  5
8D7
  8
0
 10
47.87858442802419
 20
26.589984038463751
 30
0.0
 11
47.878584428024141
 21
37.339984038463761
 31
0.0
  0
LINE
  5
8D8
  8
0
 10
35.878584428024112
 20
37.839984038463662
 30
0.0
 11
51.878584428024112
 21
37.839984038463761
 31
0.0
  0
LINE
  5
8D9
  8
0
 10
37.378584428024027
 20
54.339984038463683
 30
0.0
 11
35.878584428024027
 21
53.4739586346792
 31
0.0
  0
LINE
  5
8DA
  8
0
 10
37.37858442802397
 20
61.839984038463683
 30
0.0
 11
37.378584428024027
 21
54.339984038463683
 31
0.0
  0
LINE
  5
8DB
  8
0
 10
39.214894901479568
 20
61.839984038463697
 30
0.0
 11
37.37858442802397
 21
61.839984038463683
 31
0.0
  0
LINE
  5
8DC
  8
0
 10
39.214894901479617
 20
54.339984038463712
 30
0.0
 11
39.214894901479568
 21
61.839984038463697
 31
0.0
  0
POLYLINE
  5
8DD
  8
0
 66
     1
 10
0.0
 20
0.0
 30
0.0
 70
   128
  0
VERTEX
  5
AAE
  8
0
 10
48.542273954568429
 20
54.339984038463747
 30
0.0
  0
VERTEX
  5
AAF
  8
0
 10
47.946700477453639
 20
54.11572538443248
 30
0.0
  0
VERTEX
  5
AB0
  8
0
 10
47.318989926106973
 20
53.922884290874087
 30
0.0
  0
VERTEX
  5
AB1
  8
0
 10
46.664101053017163
 20
53.762984153007267
 30
0.0
  0
VERTEX
  5
AB2
  8
0
 10
45.987207312449613
 20
53.637288140942637
 30
0.0
  0
VERTEX
  5
AB3
  8
0
 10
45.293655991483568
 20
53.546789220962722
 30
0.0
  0
VERTEX
  5
AB4
  8
0
 10
44.588925967814411
 20
53.492202311342709
 30
0.0
  0
VERTEX
  5
AB5
  8
0
 10
43.878584428024048
 20
53.473958634679292
 30
0.0
  0
VERTEX
  5
AB6
  8
0
 10
43.168242888233657
 20
53.492202311342687
 30
0.0
  0
VERTEX
  5
AB7
  8
0
 10
42.463512864564507
 20
53.546789220962708
 30
0.0
  0
VERTEX
  5
AB8
  8
0
 10
41.76996154359847
 20
53.637288140942623
 30
0.0
  0
VERTEX
  5
AB9
  8
0
 10
41.09306780303092
 20
53.762984153007231
 30
0.0
  0
VERTEX
  5
ABA
  8
0
 10
40.438178929941103
 20
53.922884290874038
 30
0.0
  0
VERTEX
  5
ABB
  8
0
 10
39.810468378594408
 20
54.115725384432423
 30
0.0
  0
VERTEX
  5
ABC
  8
0
 10
39.214894901479617
 20
54.339984038463712
 30
0.0
  0
SEQEND
  5
ABD
  8
0
  0
LINE
  5
8DE
  8
0
 10
48.542273954568373
 20
61.839984038463768
 30
0.0
 11
48.542273954568429
 21
54.339984038463768
 31
0.0
  0
LINE
  5
8DF
  8
0
 10
50.378584428023942
 20
61.839984038463768
 30
0.0
 11
48.542273954568373
 21
61.839984038463768
 31
0.0
  0
LINE
  5
8E0
  8
0
 10
50.378584428023998
 20
54.339984038463768
 30
0.0
 11
50.378584428023942
 21
61.839984038463768
 31
0.0
  0
LINE
  5
8E1
  8
0
 10
51.878584428024027
 20
53.47395863467932
 30
0.0
 11
50.378584428023998
 21
54.339984038463768
 31
0.0
  0
LINE
  5
8E2
  8
0
 10
51.378584428024141
 20
37.339984038463761
 30
0.0
 11
36.378584428024141
 21
37.339984038463662
 31
0.0
  0
LINE
  5
8E3
  8
0
 10
39.214894901479617
 20
54.339984038463712
 30
0.0
 11
48.542273954568429
 21
54.339984038463768
 31
0.0
  0
POLYLINE
  5
8E4
  8
0
 66
     1
 10
0.0
 20
0.0
 30
0.0
 70
   128
  0
VERTEX
  5
ABE
  8
0
 10
40.136927041250033
 20
62.339984038463712
 30
0.0
  0
VERTEX
  5
ABF
  8
0
 10
39.672109034236541
 20
62.097604866753016
 30
0.0
  0
VERTEX
  5
AC0
  8
0
 10
39.214894901479568
 20
61.839984038463697
 30
0.0
  0
SEQEND
  5
AC1
  8
0
  0
LINE
  5
8E5
  8
0
 10
40.136927041250033
 20
62.339984038463712
 30
0.0
 11
47.620241814797943
 21
62.339984038463768
 31
0.0
  0
POLYLINE
  5
8E6
  8
0
 66
     1
 10
0.0
 20
0.0
 30
0.0
 70
   128
  0
VERTEX
  5
AC2
  8
0
 10
48.542273954568373
 20
61.839984038463768
 30
0.0
  0
VERTEX
  5
AC3
  8
0
 10
48.239859745627818
 20
62.012422323859347
 30
0.0
  0
VERTEX
  5
AC4
  8
0
 10
47.620241814797943
 20
62.339984038463768
 30
0.0
  0
SEQEND
  5
AC5
  8
0
  0
LINE
  5
8E7
  8
0
 10
47.620241814797943
 20
62.339984038463768
 30
0.0
 11
50.378584428023942
 21
62.339984038463768
 31
0.0
  0
LINE
  5
8E8
  8
0
 10
50.378584428023942
 20
62.339984038463768
 30
0.0
 11
50.378584428023942
 21
61.839984038463768
 31
0.0
  0
LINE
  5
8E9
  8
0
 10
37.37858442802397
 20
61.839984038463683
 30
0.0
 11
37.37858442802397
 21
62.339984038463683
 31
0.0
  0
LINE
  5
8EA
  8
0
 10
37.37858442802397
 20
62.339984038463683
 30
0.0
 11
40.136927041250033
 21
62.339984038463712
 31
0.0
  0
POLYLINE
  5
8EB
  8
0
 66
     1
 10
0.0
 20
0.0
 30
0.0
 70
   128
  0
VERTEX
  5
AC6
  8
0
 10
50.37858442802392
 20
66.615089887565617
 30
0.0
  0
VERTEX
  5
AC7
  8
0
 10
49.533439100314808
 20
66.86749210677479
 30
0.0
  0
VERTEX
  5
AC8
  8
0
 10
48.676202364020412
 20
67.056401679573469
 30
0.0
  0
VERTEX
  5
AC9
  8
0
 10
47.789360271847983
 20
67.169460765967514
 30
0.0
  0
VERTEX
  5
ACA
  8
0
 10
46.89751344867318
 20
67.192486066206484
 30
0.0
  0
VERTEX
  5
ACB
  8
0
 10
46.138934399835563
 20
67.137902872614276
 30
0.0
  0
VERTEX
  5
ACC
  8
0
 10
45.38566820770194
 20
67.019880547870514
 30
0.0
  0
VERTEX
  5
ACD
  8
0
 10
43.878584428023942
 20
66.615089887565574
 30
0.0
  0
SEQEND
  5
ACE
  8
0
  0
LINE
  5
8EC
  8
0
 10
50.37858442802392
 20
66.615089887565617
 30
0.0
 11
50.378584428023942
 21
63.064878189361941
 31
0.0
  0
POLYLINE
  5
8ED
  8
0
 66
     1
 10
0.0
 20
0.0
 30
0.0
 70
   128
  0
VERTEX
  5
ACF
  8
0
 10
43.878584428023942
 20
63.064878189361892
 30
0.0
  0
VERTEX
  5
AD0
  8
0
 10
44.723729755733068
 20
62.812475970152718
 30
0.0
  0
VERTEX
  5
AD1
  8
0
 10
45.580966492027471
 20
62.62356639735404
 30
0.0
  0
VERTEX
  5
AD2
  8
0
 10
46.467808584199886
 20
62.51050731095998
 30
0.0
  0
VERTEX
  5
AD3
  8
0
 10
47.359655407374667
 20
62.487482010721031
 30
0.0
  0
VERTEX
  5
AD4
  8
0
 10
48.118234456212292
 20
62.542065204313232
 30
0.0
  0
VERTEX
  5
AD5
  8
0
 10
48.871500648345943
 20
62.660087529056987
 30
0.0
  0
VERTEX
  5
AD6
  8
0
 10
50.378584428023942
 20
63.064878189361941
 30
0.0
  0
SEQEND
  5
AD7
  8
0
  0
LINE
  5
8EE
  8
0
 10
43.878584428023942
 20
66.615089887565574
 30
0.0
 11
43.878584428023942
 21
63.064878189361892
 31
0.0
  0
POLYLINE
  5
8EF
  8
0
 66
     1
 10
0.0
 20
0.0
 30
0.0
 70
   128
  0
VERTEX
  5
AD8
  8
0
 10
43.878584428023942
 20
66.615089887565574
 30
0.0
  0
VERTEX
  5
AD9
  8
0
 10
43.033439100314808
 20
66.867492106774748
 30
0.0
  0
VERTEX
  5
ADA
  8
0
 10
42.176202364020412
 20
67.056401679573426
 30
0.0
  0
VERTEX
  5
ADB
  8
0
 10
41.289360271847983
 20
67.169460765967472
 30
0.0
  0
VERTEX
  5
ADC
  8
0
 10
40.39751344867318
 20
67.192486066206442
 30
0.0
  0
VERTEX
  5
ADD
  8
0
 10
39.638934399835591
 20
67.13790287261422
 30
0.0
  0
VERTEX
  5
ADE
  8
0
 10
38.88566820770194
 20
67.019880547870471
 30
0.0
  0
VERTEX
  5
ADF
  8
0
 10
37.378584428023942
 20
66.615089887565503
 30
0.0
  0
SEQEND
  5
AE0
  8
0
  0
POLYLINE
  5
8F0
  8
0
 66
     1
 10
0.0
 20
0.0
 30
0.0
 70
   128
  0
VERTEX
  5
AE1
  8
0
 10
37.37858442802397
 20
63.064878189361849
 30
0.0
  0
VERTEX
  5
AE2
  8
0
 10
38.223729755733082
 20
62.812475970152661
 30
0.0
  0
VERTEX
  5
AE3
  8
0
 10
39.080966492027471
 20
62.623566397353983
 30
0.0
  0
VERTEX
  5
AE4
  8
0
 10
39.967808584199901
 20
62.510507310959952
 30
0.0
  0
VERTEX
  5
AE5
  8
0
 10
40.859655407374703
 20
62.487482010720981
 30
0.0
  0
VERTEX
  5
AE6
  8
0
 10
41.618234456212292
 20
62.542065204313189
 30
0.0
  0
VERTEX
  5
AE7
  8
0
 10
42.371500648345943
 20
62.660087529056973
 30
0.0
  0
VERTEX
  5
AE8
  8
0
 10
43.878584428023942
 20
63.064878189361892
 30
0.0
  0
SEQEND
  5
AE9
  8
0
  0
LINE
  5
8F1
  8
0
 10
37.378584428023942
 20
66.615089887565503
 30
0.0
 11
37.37858442802397
 21
63.064878189361849
 31
0.0
  0
LINE
  5
8F2
  8
0
 10
50.378584428023942
 20
63.064878189361941
 30
0.0
 11
50.378584428023942
 21
62.484992665511299
 31
0.0
  0
LINE
  5
8F3
  8
0
 10
37.37858442802397
 20
63.064878189361849
 30
0.0
 11
37.37858442802397
 21
62.48486946609745
 31
0.0
  0
LINE
  5
8F4
  8
0
 10
37.378584428023942
 20
66.615089887565503
 30
0.0
 11
37.378584428023942
 21
67.194975411416124
 31
0.0
  0
LINE
  5
8F5
  8
0
 10
50.37858442802392
 20
66.615089887565617
 30
0.0
 11
50.37858442802392
 21
67.195098610829973
 31
0.0
  0
LINE
  5
8F6
  8
0
 10
50.128584428023913
 20
67.339984038463754
 30
0.0
 11
37.628584428023942
 21
67.339984038463655
 31
0.0
  0
LINE
  5
8F7
  8
0
 10
39.878584428024233
 20
26.589984038463701
 30
0.0
 11
47.87858442802419
 21
26.589984038463751
 31
0.0
  0
LINE
  5
8F8
  8
0
 10
41.128584428024219
 20
25.33998403846369
 30
0.0
 11
46.628584428024233
 21
25.339984038463729
 31
0.0
  0
LINE
  5
96A
  8
3
 10
39.214894901479568
 20
61.839984038463697
 30
0.0
 11
48.542273954568458
 21
54.339984038463768
 31
0.0
  0
LINE
  5
96B
  8
3
 10
48.542273954568373
 20
61.839984038463768
 30
0.0
 11
39.214894901479617
 21
54.339984038463712
 31
0.0
  0
LINE
  5
96C
  8
3
 10
76.919189638321711
 20
61.83998403846374
 30
0.0
 11
86.246568691410474
 21
54.339984038463712
 31
0.0
  0
LINE
  5
96D
  8
3
 10
86.246568691410573
 20
61.839984038463712
 30
0.0
 11
76.919189638321683
 21
54.33998403846374
 31
0.0
  0
ENDSEC
  0
EOF
