  0
SECTION
  2
HEADER
  9
$ACADVER
  1
AC1009
  9
$INSBASE
 10
0.0
 20
0.0
 30
0.0
  9
$EXTMIN
 10
0.0
 20
-2.960436562073669
 30
0.0
  9
$EXTMAX
 10
84.812540828596951
 20
129.60503462135711
 30
0.0
  9
$LIMMIN
 10
0.0
 20
0.0
  9
$LIMMAX
 10
375.0
 20
270.0
  9
$ORTHOMODE
 70
     1
  9
$REGENMODE
 70
     1
  9
$FILLMODE
 70
     1
  9
$QTEXTMODE
 70
     0
  9
$MIRRTEXT
 70
     0
  9
$DRAGMODE
 70
     2
  9
$LTSCALE
 40
10.0
  9
$OSMODE
 70
    37
  9
$ATTMODE
 70
     1
  9
$TEXTSIZE
 40
0.2
  9
$TRACEWID
 40
0.05
  9
$TEXTSTYLE
  7
STANDARD
  9
$CLAYER
  8
0
  9
$CELTYPE
  6
BYLAYER
  9
$CECOLOR
 62
   256
  9
$DIMSCALE
 40
1.0
  9
$DIMASZ
 40
3.0
  9
$DIMEXO
 40
2.0
  9
$DIMDLI
 40
0.38
  9
$DIMRND
 40
0.0
  9
$DIMDLE
 40
0.0
  9
$DIMEXE
 40
2.0
  9
$DIMTP
 40
0.0
  9
$DIMTM
 40
0.0
  9
$DIMTXT
 40
3.2000000000000002
  9
$DIMCEN
 40
0.0
  9
$DIMTSZ
 40
0.0
  9
$DIMTOL
 70
     0
  9
$DIMLIM
 70
     0
  9
$DIMTIH
 70
     0
  9
$DIMTOH
 70
     0
  9
$DIMSE1
 70
     0
  9
$DIMSE2
 70
     0
  9
$DIMTAD
 70
     1
  9
$DIMZIN
 70
     0
  9
$DIMBLK
  1

  9
$DIMASO
 70
     0
  9
$DIMSHO
 70
     0
  9
$DIMPOST
  1

  9
$DIMAPOST
  1

  9
$DIMALT
 70
     0
  9
$DIMALTD
 70
     2
  9
$DIMALTF
 40
25.399999999999999
  9
$DIMLFAC
 40
1.0
  9
$DIMTOFL
 70
     1
  9
$DIMTVP
 40
1.6000000000000001
  9
$DIMTIX
 70
     1
  9
$DIMSOXD
 70
     0
  9
$DIMSAH
 70
     0
  9
$DIMBLK1
  1

  9
$DIMBLK2
  1

  9
$DIMSTYLE
  2
STANDARD
  9
$DIMCLRD
 70
     0
  9
$DIMCLRE
 70
     0
  9
$DIMCLRT
 70
     0
  9
$DIMTFAC
 40
1.0
  9
$DIMGAP
 40
0.09
  9
$LUNITS
 70
     2
  9
$LUPREC
 70
     1
  9
$SKETCHINC
 40
0.1
  9
$FILLETRAD
 40
0.0
  9
$AUNITS
 70
     0
  9
$AUPREC
 70
     1
  9
$MENU
  1
E:\r13\win\SUPPORT\ACAD
  9
$ELEVATION
 40
0.0
  9
$PELEVATION
 40
0.0
  9
$THICKNESS
 40
0.0
  9
$LIMCHECK
 70
     0
  9
$BLIPMODE
 70
     0
  9
$CHAMFERA
 40
0.0
  9
$CHAMFERB
 40
0.0
  9
$SKPOLY
 70
     0
  9
$TDCREATE
 40
2449839.7609490738
  9
$TDUPDATE
 40
2459675.4365213658
  9
$TDINDWG
 40
0.0530729514
  9
$TDUSRTIMER
 40
0.0530729514
  9
$USRTIMER
 70
     1
  9
$ANGBASE
 50
0.0
  9
$ANGDIR
 70
     0
  9
$PDMODE
 70
     0
  9
$PDSIZE
 40
0.0
  9
$PLINEWID
 40
0.0
  9
$COORDS
 70
     1
  9
$SPLFRAME
 70
     0
  9
$SPLINETYPE
 70
     6
  9
$SPLINESEGS
 70
     8
  9
$ATTDIA
 70
     0
  9
$ATTREQ
 70
     1
  9
$HANDLING
 70
     1
  9
$HANDSEED
  5
CF4
  9
$SURFTAB1
 70
     6
  9
$SURFTAB2
 70
     6
  9
$SURFTYPE
 70
     6
  9
$SURFU
 70
     6
  9
$SURFV
 70
     6
  9
$UCSNAME
  2

  9
$UCSORG
 10
0.0
 20
0.0
 30
0.0
  9
$UCSXDIR
 10
1.0
 20
0.0
 30
0.0
  9
$UCSYDIR
 10
0.0
 20
1.0
 30
0.0
  9
$PUCSNAME
  2

  9
$PUCSORG
 10
0.0
 20
0.0
 30
0.0
  9
$PUCSXDIR
 10
1.0
 20
0.0
 30
0.0
  9
$PUCSYDIR
 10
0.0
 20
1.0
 30
0.0
  9
$USERI1
 70
     0
  9
$USERI2
 70
     1
  9
$USERI3
 70
     0
  9
$USERI4
 70
     0
  9
$USERI5
 70
     0
  9
$USERR1
 40
0.0
  9
$USERR2
 40
0.0
  9
$USERR3
 40
0.0
  9
$USERR4
 40
0.0
  9
$USERR5
 40
0.0
  9
$WORLDVIEW
 70
     1
  9
$SHADEDGE
 70
     3
  9
$SHADEDIF
 70
    70
  9
$TILEMODE
 70
     1
  9
$MAXACTVP
 70
    16
  9
$PLIMCHECK
 70
     0
  9
$PEXTMIN
 10
1.0000000000000000E+020
 20
1.0000000000000000E+020
 30
1.0000000000000000E+020
  9
$PEXTMAX
 10
-1.0000000000000000E+020
 20
-1.0000000000000000E+020
 30
-1.0000000000000000E+020
  9
$PLIMMIN
 10
0.0
 20
0.0
  9
$PLIMMAX
 10
12.0
 20
9.0
  9
$UNITMODE
 70
     0
  9
$VISRETAIN
 70
     0
  9
$PLINEGEN
 70
     0
  9
$PSLTSCALE
 70
     0
  0
ENDSEC
  0
SECTION
  2
TABLES
  0
TABLE
  2
VPORT
 70
     1
  0
VPORT
  2
*ACTIVE
 70
     0
 10
0.0
 20
0.0
 11
1.0
 21
1.0
 12
227.4368231046931
 22
100.0
 13
0.0
 23
0.0
 14
10.0
 24
10.0
 15
10.0
 25
10.0
 16
0.0
 26
0.0
 36
1.0
 17
0.0
 27
0.0
 37
0.0
 40
200.0
 41
2.2743682310469309
 42
50.0
 43
0.0
 44
0.0
 50
0.0
 51
0.0
 71
     0
 72
   500
 73
     1
 74
     0
 75
     0
 76
     0
 77
     0
 78
     2
  0
ENDTAB
  0
TABLE
  2
LTYPE
 70
     3
  0
LTYPE
  2
CONTINUOUS
 70
     0
  3
Solid Line
 72
    65
 73
     0
 40
0.0
  0
LTYPE
  2
CENTER
 70
     0
  3
____ _ ____ _ ____ _ ____ _ ____ _ ____ _ ____
 72
    65
 73
     4
 40
2.0
 49
1.25
 49
-0.25
 49
0.25
 49
-0.25
  0
LTYPE
  2
PHANTOM2
 70
     0
  3
___ _ _ ___ _ _ ___ _ _ ___ _ _
 72
    65
 73
     6
 40
1.25
 49
0.625
 49
-0.125
 49
0.125
 49
-0.125
 49
0.125
 49
-0.125
  0
ENDTAB
  0
TABLE
  2
LAYER
 70
     3
  0
LAYER
  2
0
 70
     0
 62
     7
  6
CONTINUOUS
  0
LAYER
  2
1
 70
     0
 62
     1
  6
CENTER
  0
LAYER
  2
3
 70
     0
 62
     3
  6
CONTINUOUS
  0
ENDTAB
  0
TABLE
  2
STYLE
 70
     2
  0
STYLE
  2
STANDARD
 70
     0
 40
0.0
 41
1.0
 50
0.0
 71
     0
 42
0.2
  3
TXT
  4
BIGFONT
  0
STYLE
  2
STANDARD1
 70
     0
 40
0.0
 41
1.0
 50
0.0
 71
     0
 42
3.0
  3
txt
  4

  0
ENDTAB
  0
TABLE
  2
VIEW
 70
     1
  0
VIEW
  2
ALL
 70
     0
 40
270.0
 10
220.99159663865549
 20
135.0
 41
0.0
 11
0.0
 21
0.0
 31
1.0
 12
0.0
 22
0.0
 32
0.0
 42
0.0
 43
0.0
 44
0.0
 50
0.0
 71
     0
  0
ENDTAB
  0
TABLE
  2
UCS
 70
     0
  0
ENDTAB
  0
TABLE
  2
APPID
 70
     6
  0
APPID
  2
ACAD
 70
     0
  0
APPID
  2
ACAD_MLEADERVER
 70
     0
  0
APPID
  2
ACAD_EXEMPT_FROM_CAD_STANDARDS
 70
     0
  0
APPID
  2
ACAD_DSTYLE_DIMJAG
 70
     0
  0
APPID
  2
ACAD_DSTYLE_DIMTALN
 70
     0
  0
APPID
  2
ACAD_NAV_VCDISPLAY
 70
     0
  0
ENDTAB
  0
TABLE
  2
DIMSTYLE
 70
     1
  0
DIMSTYLE
  2
STANDARD
 70
     0
  3

  4

  5

  6

  7

 40
1.0
 41
0.18
 42
0.0625
 43
0.38
 44
0.18
 45
0.0
 46
0.0
 47
0.0
 48
0.0
140
0.18
141
0.09
142
0.0
143
25.399999999999999
144
1.0
145
0.0
146
1.0
147
0.09
 71
     0
 72
     0
 73
     1
 74
     1
 75
     0
 76
     0
 77
     0
 78
     0
170
     0
171
     2
172
     0
173
     0
174
     0
175
     0
176
     0
177
     0
178
     0
  0
ENDTAB
  0
ENDSEC
  0
SECTION
  2
BLOCKS
  0
BLOCK
  8
0
  2
$MODEL_SPACE
 70
     0
 10
0.0
 20
0.0
 30
0.0
  3
$MODEL_SPACE
  1

  0
ENDBLK
  5
263
  8
0
  0
BLOCK
 67
     1
  8
0
  2
$PAPER_SPACE
 70
     0
 10
0.0
 20
0.0
 30
0.0
  3
$PAPER_SPACE
  1

  0
ENDBLK
  5
261
 67
     1
  8
0
  0
ENDSEC
  0
SECTION
  2
ENTITIES
  0
LINE
  5
70C
  8
1
 10
23.608814512807928
 20
129.60503462135711
 30
0.0
 11
23.608814512807928
 21
99.623245778997571
 31
0.0
  0
LINE
  5
70D
  8
1
 10
38.599708933987721
 20
114.6141402001773
 30
0.0
 11
8.6179200916281342
 21
114.6141402001773
 31
0.0
  0
ARC
  5
70E
  8
0
 10
23.608814512807928
 20
114.6141402001773
 30
0.0
 40
9.4999999999999982
 50
213.8837400781189
 51
243.4746479833924
  0
ARC
  5
70F
  8
0
 10
23.608814512807928
 20
114.6141402001773
 30
0.0
 40
9.5000000000000036
 50
116.5253520166098
 51
146.2265621792107
  0
LINE
  5
710
  8
0
 10
27.851455199927191
 20
123.1141402001773
 30
0.0
 11
25.886382648472619
 21
123.1141402001773
 31
0.0
  0
LINE
  5
711
  8
0
 10
21.331246377143259
 20
123.1141402001773
 30
0.0
 11
19.36617382568863
 21
123.1141402001773
 31
0.0
  0
ARC
  5
712
  8
0
 10
23.608814512807928
 20
114.6141402001773
 30
0.0
 40
9.5000000000000213
 50
33.883740078118741
 51
63.474647983390177
  0
ARC
  5
713
  8
0
 10
23.608814512807928
 20
114.6141402001773
 30
0.0
 40
9.5000000000000284
 50
296.52535201661129
 51
326.22656217921241
  0
LINE
  5
714
  8
0
 10
27.851455199927269
 20
106.1141402001773
 30
0.0
 11
25.886382648472651
 21
106.1141402001773
 31
0.0
  0
LINE
  5
715
  8
0
 10
21.331246377143231
 20
106.1141402001773
 30
0.0
 11
19.366173825688659
 21
106.1141402001773
 31
0.0
  0
ARC
  5
716
  8
0
 10
23.608814512807928
 20
114.6141402001773
 30
0.0
 40
10.000000000000011
 50
31.78833061705085
 51
58.211669382949808
  0
LINE
  5
717
  8
0
 10
32.108814512807953
 20
119.8819670766037
 30
0.0
 11
32.108814512807953
 21
119.6020161548572
 31
0.0
  0
LINE
  5
718
  8
0
 10
27.851455199927191
 20
123.1141402001773
 30
0.0
 11
28.876641389234258
 21
123.1141402001773
 31
0.0
  0
ARC
  5
719
  8
0
 10
23.608814512807928
 20
114.6141402001773
 30
0.0
 40
10.000000000000011
 50
211.7883306170524
 51
238.21166938294979
  0
LINE
  5
71A
  8
0
 10
15.108814512807919
 20
109.34631332375091
 30
0.0
 11
15.108814512807919
 21
109.6262642454974
 31
0.0
  0
LINE
  5
71B
  8
0
 10
19.366173825688659
 20
106.1141402001773
 30
0.0
 11
18.34098763638158
 21
106.1141402001773
 31
0.0
  0
LINE
  5
71C
  8
0
 10
32.108814512807953
 20
109.6262642454974
 30
0.0
 11
32.108814512807953
 21
109.34631332375091
 31
0.0
  0
ARC
  5
71D
  8
0
 10
23.608814512807928
 20
114.6141402001773
 30
0.0
 40
10.000000000000041
 50
301.78833061705251
 51
328.21166938294908
  0
LINE
  5
71E
  8
0
 10
28.876641389234351
 20
106.1141402001774
 30
0.0
 11
27.851455199927269
 21
106.1141402001773
 31
0.0
  0
ARC
  5
71F
  8
0
 10
23.608814512807928
 20
114.6141402001773
 30
0.0
 40
10.0
 50
121.7883306170521
 51
148.2116693829476
  0
LINE
  5
720
  8
0
 10
15.108814512807919
 20
119.6020161548572
 30
0.0
 11
15.108814512807919
 21
119.8819670766037
 31
0.0
  0
LINE
  5
721
  8
0
 10
18.340987636381548
 20
123.1141402001773
 30
0.0
 11
19.36617382568863
 21
123.1141402001773
 31
0.0
  0
POLYLINE
  5
722
  8
0
 66
     1
 10
0.0
 20
0.0
 30
0.0
 70
   128
  0
VERTEX
  5
B94
  8
0
 10
15.108814512807919
 20
109.34631332375091
 30
0.0
  0
VERTEX
  5
B95
  8
0
 10
14.69066693906214
 20
110.09013270096909
 30
0.0
  0
VERTEX
  5
B96
  8
0
 10
14.3374537051437
 20
110.86689203997931
 30
0.0
  0
VERTEX
  5
B97
  8
0
 10
14.0517466083875
 20
111.6709356421663
 30
0.0
  0
VERTEX
  5
B98
  8
0
 10
13.835625924047889
 20
112.4964091481949
 30
0.0
  0
VERTEX
  5
B99
  8
0
 10
13.690665258509419
 20
113.33730216445881
 30
0.0
  0
VERTEX
  5
B9A
  8
0
 10
13.61792009162815
 20
114.1874920256369
 30
0.0
  0
VERTEX
  5
B9B
  8
0
 10
13.61792009162815
 20
115.04078837471771
 30
0.0
  0
VERTEX
  5
B9C
  8
0
 10
13.690665258509419
 20
115.8909782358959
 30
0.0
  0
VERTEX
  5
B9D
  8
0
 10
13.835625924047889
 20
116.73187125215971
 30
0.0
  0
VERTEX
  5
B9E
  8
0
 10
14.0517466083875
 20
117.55734475818829
 30
0.0
  0
VERTEX
  5
B9F
  8
0
 10
14.3374537051437
 20
118.3613883603753
 30
0.0
  0
VERTEX
  5
BA0
  8
0
 10
14.69066693906214
 20
119.1381476993855
 30
0.0
  0
VERTEX
  5
BA1
  8
0
 10
15.108814512807919
 20
119.8819670766037
 30
0.0
  0
SEQEND
  5
BA2
  8
0
  0
POLYLINE
  5
723
  8
0
 66
     1
 10
0.0
 20
0.0
 30
0.0
 70
   128
  0
VERTEX
  5
BA3
  8
0
 10
28.876641389234351
 20
106.1141402001773
 30
0.0
  0
VERTEX
  5
BA4
  8
0
 10
28.132822012016192
 20
105.6959926264315
 30
0.0
  0
VERTEX
  5
BA5
  8
0
 10
27.356062673006019
 20
105.34277939251309
 30
0.0
  0
VERTEX
  5
BA6
  8
0
 10
26.552019070819028
 20
105.0570722957569
 30
0.0
  0
VERTEX
  5
BA7
  8
0
 10
25.726545564790371
 20
104.8409516114173
 30
0.0
  0
VERTEX
  5
BA8
  8
0
 10
24.88565254852654
 20
104.6959909458788
 30
0.0
  0
VERTEX
  5
BA9
  8
0
 10
24.035462687348399
 20
104.6232457789975
 30
0.0
  0
VERTEX
  5
BAA
  8
0
 10
23.18216633826756
 20
104.6232457789975
 30
0.0
  0
VERTEX
  5
BAB
  8
0
 10
22.33197647708943
 20
104.6959909458788
 30
0.0
  0
VERTEX
  5
BAC
  8
0
 10
21.491083460825589
 20
104.8409516114173
 30
0.0
  0
VERTEX
  5
BAD
  8
0
 10
20.66560995479691
 20
105.0570722957569
 30
0.0
  0
VERTEX
  5
BAE
  8
0
 10
19.861566352609941
 20
105.34277939251309
 30
0.0
  0
VERTEX
  5
BAF
  8
0
 10
19.08480701359974
 20
105.6959926264315
 30
0.0
  0
VERTEX
  5
BB0
  8
0
 10
18.34098763638158
 20
106.1141402001773
 30
0.0
  0
SEQEND
  5
BB1
  8
0
  0
POLYLINE
  5
724
  8
0
 66
     1
 10
0.0
 20
0.0
 30
0.0
 70
   128
  0
VERTEX
  5
BB2
  8
0
 10
32.108814512807953
 20
119.8819670766037
 30
0.0
  0
VERTEX
  5
BB3
  8
0
 10
32.526962086553738
 20
119.1381476993855
 30
0.0
  0
VERTEX
  5
BB4
  8
0
 10
32.880175320472183
 20
118.3613883603753
 30
0.0
  0
VERTEX
  5
BB5
  8
0
 10
33.165882417228381
 20
117.55734475818829
 30
0.0
  0
VERTEX
  5
BB6
  8
0
 10
33.382003101567989
 20
116.73187125215971
 30
0.0
  0
VERTEX
  5
BB7
  8
0
 10
33.526963767106452
 20
115.8909782358959
 30
0.0
  0
VERTEX
  5
BB8
  8
0
 10
33.599708933987728
 20
115.04078837471771
 30
0.0
  0
VERTEX
  5
BB9
  8
0
 10
33.599708933987728
 20
114.1874920256369
 30
0.0
  0
VERTEX
  5
BBA
  8
0
 10
33.526963767106452
 20
113.33730216445881
 30
0.0
  0
VERTEX
  5
BBB
  8
0
 10
33.382003101567989
 20
112.4964091481949
 30
0.0
  0
VERTEX
  5
BBC
  8
0
 10
33.165882417228381
 20
111.6709356421663
 30
0.0
  0
VERTEX
  5
BBD
  8
0
 10
32.880175320472183
 20
110.86689203997931
 30
0.0
  0
VERTEX
  5
BBE
  8
0
 10
32.526962086553738
 20
110.09013270096909
 30
0.0
  0
VERTEX
  5
BBF
  8
0
 10
32.108814512807953
 20
109.34631332375091
 30
0.0
  0
SEQEND
  5
BC0
  8
0
  0
POLYLINE
  5
725
  8
0
 66
     1
 10
0.0
 20
0.0
 30
0.0
 70
   128
  0
VERTEX
  5
BC1
  8
0
 10
18.340987636381548
 20
123.1141402001773
 30
0.0
  0
VERTEX
  5
BC2
  8
0
 10
19.084807013599679
 20
123.5322877739231
 30
0.0
  0
VERTEX
  5
BC3
  8
0
 10
19.861566352609881
 20
123.8855010078416
 30
0.0
  0
VERTEX
  5
BC4
  8
0
 10
20.665609954796849
 20
124.1712081045977
 30
0.0
  0
VERTEX
  5
BC5
  8
0
 10
21.491083460825511
 20
124.3873287889374
 30
0.0
  0
VERTEX
  5
BC6
  8
0
 10
22.33197647708937
 20
124.5322894544758
 30
0.0
  0
VERTEX
  5
BC7
  8
0
 10
23.18216633826751
 20
124.60503462135711
 30
0.0
  0
VERTEX
  5
BC8
  8
0
 10
24.035462687348321
 20
124.60503462135711
 30
0.0
  0
VERTEX
  5
BC9
  8
0
 10
24.885652548526451
 20
124.5322894544758
 30
0.0
  0
VERTEX
  5
BCA
  8
0
 10
25.726545564790321
 20
124.3873287889374
 30
0.0
  0
VERTEX
  5
BCB
  8
0
 10
26.552019070818972
 20
124.1712081045978
 30
0.0
  0
VERTEX
  5
BCC
  8
0
 10
27.35606267300594
 20
123.8855010078416
 30
0.0
  0
VERTEX
  5
BCD
  8
0
 10
28.132822012016138
 20
123.5322877739231
 30
0.0
  0
VERTEX
  5
BCE
  8
0
 10
28.876641389234301
 20
123.1141402001773
 30
0.0
  0
SEQEND
  5
BCF
  8
0
  0
LINE
  5
726
  8
0
 10
32.108814512807953
 20
114.6141402001773
 30
0.0
 11
32.108814512807953
 21
119.52161748828919
 31
0.0
  0
ARC
  5
727
  8
0
 10
23.608814512807928
 20
114.6141402001773
 30
0.0
 40
8.5000000000000284
 50
0.0
 51
60.000000000000419
  0
LINE
  5
728
  8
0
 10
32.108814512807953
 20
119.52161748828919
 30
0.0
 11
27.85881451280796
 21
121.975356132345
 31
0.0
  0
ARC
  5
729
  8
0
 10
23.608814512807928
 20
114.6141402001773
 30
0.0
 40
8.5000000000000231
 50
240.0
 51
299.9999999999996
  0
LINE
  5
72A
  8
0
 10
19.358814512807921
 20
107.25292426800959
 30
0.0
 11
23.608814512807928
 21
104.7991856239537
 31
0.0
  0
LINE
  5
72B
  8
0
 10
23.608814512807928
 20
104.7991856239537
 30
0.0
 11
27.85881451280796
 21
107.25292426800959
 31
0.0
  0
ARC
  5
72C
  8
0
 10
23.608814512807928
 20
114.6141402001773
 30
0.0
 40
8.5000000000000089
 50
180.0
 51
240.0
  0
LINE
  5
72D
  8
0
 10
15.108814512807919
 20
114.6141402001773
 30
0.0
 11
15.108814512807919
 21
109.7066629120655
 31
0.0
  0
LINE
  5
72E
  8
0
 10
15.108814512807919
 20
109.7066629120655
 30
0.0
 11
19.358814512807921
 21
107.25292426800959
 31
0.0
  0
ARC
  5
72F
  8
0
 10
23.608814512807928
 20
114.6141402001773
 30
0.0
 40
8.4999999999999734
 50
60.000000000000419
 51
119.9999999999996
  0
LINE
  5
730
  8
0
 10
27.85881451280796
 20
121.975356132345
 30
0.0
 11
23.608814512807928
 21
124.429094776401
 31
0.0
  0
LINE
  5
731
  8
0
 10
23.608814512807928
 20
124.429094776401
 30
0.0
 11
19.358814512807921
 21
121.975356132345
 31
0.0
  0
ARC
  5
732
  8
0
 10
23.608814512807928
 20
114.6141402001773
 30
0.0
 40
8.5000000000000284
 50
299.9999999999996
 51
0.0
  0
LINE
  5
733
  8
0
 10
32.108814512807953
 20
109.7066629120655
 30
0.0
 11
32.108814512807953
 21
114.6141402001773
 31
0.0
  0
LINE
  5
734
  8
0
 10
27.85881451280796
 20
107.25292426800959
 30
0.0
 11
32.108814512807953
 21
109.7066629120655
 31
0.0
  0
ARC
  5
735
  8
0
 10
23.608814512807928
 20
114.6141402001773
 30
0.0
 40
8.5
 50
119.9999999999996
 51
180.0
  0
LINE
  5
736
  8
0
 10
15.108814512807919
 20
119.52161748828919
 30
0.0
 11
15.108814512807919
 21
114.6141402001773
 31
0.0
  0
LINE
  5
737
  8
0
 10
19.358814512807921
 20
121.975356132345
 30
0.0
 11
15.108814512807919
 21
119.52161748828919
 31
0.0
  0
CIRCLE
  5
738
  8
0
 10
23.608814512807928
 20
114.6141402001773
 30
0.0
 40
4.5999999999999943
  0
CIRCLE
  5
739
  8
3
 10
23.608814512807928
 20
114.6141402001773
 30
0.0
 40
4.0
  0
CIRCLE
  5
73A
  8
0
 10
23.608814512807928
 20
114.6141402001773
 30
0.0
 40
3.4000000000000048
  0
LINE
  5
8DC
  8
0
 10
27.85881451280769
 20
83.814140200177448
 30
0.0
 11
32.108814512807683
 21
83.814140200177548
 31
0.0
  0
LINE
  5
8DD
  8
0
 10
32.108814512807683
 20
83.054950821622683
 30
0.0
 11
32.108814512807683
 21
83.814140200177548
 31
0.0
  0
LINE
  5
8DE
  8
0
 10
15.108814512807649
 20
83.814140200177334
 30
0.0
 11
19.358814512807651
 21
83.814140200177448
 31
0.0
  0
LINE
  5
8DF
  8
0
 10
15.108814512807649
 20
83.814140200177334
 30
0.0
 11
15.108814512807649
 21
83.054950821622569
 31
0.0
  0
LINE
  5
8E1
  8
0
 10
32.108814512807768
 20
69.814140200177505
 30
0.0
 11
32.108814512807768
 21
70.573329578732313
 31
0.0
  0
LINE
  5
8E2
  8
0
 10
15.10881451280774
 20
69.814140200177391
 30
0.0
 11
32.108814512807768
 21
69.81414020017742
 31
0.0
  0
LINE
  5
8E3
  8
0
 10
15.10881451280774
 20
70.573329578732213
 30
0.0
 11
15.10881451280774
 21
69.814140200177391
 31
0.0
  0
LINE
  5
8E4
  8
0
 10
19.358814512807651
 20
83.814140200177448
 30
0.0
 11
27.85881451280769
 21
83.814140200177448
 31
0.0
  0
POLYLINE
  5
8E5
  8
0
 66
     1
 10
0.0
 20
0.0
 30
0.0
 70
   128
  0
VERTEX
  5
BD0
  8
0
 10
19.358814512807651
 20
83.814140200177448
 30
0.0
  0
VERTEX
  5
BD1
  8
0
 10
19.66103217593307
 20
83.810006052522212
 30
0.0
  0
VERTEX
  5
BD2
  8
0
 10
20.650396578979912
 20
83.739173454655528
 30
0.0
  0
VERTEX
  5
BD3
  8
0
 10
21.638037015310129
 20
83.584287649380798
 30
0.0
  0
VERTEX
  5
BD4
  8
0
 10
23.60881451280768
 20
83.054950821622626
 30
0.0
  0
SEQEND
  5
BD5
  8
0
  0
POLYLINE
  5
8E6
  8
0
 66
     1
 10
0.0
 20
0.0
 30
0.0
 70
   128
  0
VERTEX
  5
BD6
  8
0
 10
15.108814512807649
 20
83.054950821622569
 30
0.0
  0
VERTEX
  5
BD7
  8
0
 10
16.141058762418719
 20
83.365771167816987
 30
0.0
  0
VERTEX
  5
BD8
  8
0
 10
17.191009619063308
 20
83.605765085877465
 30
0.0
  0
VERTEX
  5
BD9
  8
0
 10
18.26776818043599
 20
83.760529699893524
 30
0.0
  0
VERTEX
  5
BDA
  8
0
 10
19.358814512807651
 20
83.814140200177448
 30
0.0
  0
SEQEND
  5
BDB
  8
0
  0
LINE
  5
8E7
  8
0
 10
15.108814512807649
 20
83.054950821622569
 30
0.0
 11
15.10881451280774
 21
70.573329578732213
 31
0.0
  0
POLYLINE
  5
8E8
  8
0
 66
     1
 10
0.0
 20
0.0
 30
0.0
 70
   128
  0
VERTEX
  5
BDC
  8
0
 10
19.35881451280774
 20
69.814140200177434
 30
0.0
  0
VERTEX
  5
BDD
  8
0
 10
19.05659684968235
 20
69.818274347832684
 30
0.0
  0
VERTEX
  5
BDE
  8
0
 10
18.067232446635511
 20
69.889106945699368
 30
0.0
  0
VERTEX
  5
BDF
  8
0
 10
17.079592010305291
 20
70.043992750974084
 30
0.0
  0
VERTEX
  5
BE0
  8
0
 10
15.10881451280774
 20
70.573329578732213
 30
0.0
  0
SEQEND
  5
BE1
  8
0
  0
POLYLINE
  5
8E9
  8
0
 66
     1
 10
0.0
 20
0.0
 30
0.0
 70
   128
  0
VERTEX
  5
BE2
  8
0
 10
23.608814512807768
 20
70.573329578732313
 30
0.0
  0
VERTEX
  5
BE3
  8
0
 10
22.576570263196668
 20
70.262509232537894
 30
0.0
  0
VERTEX
  5
BE4
  8
0
 10
21.526619406552118
 20
70.022515314477445
 30
0.0
  0
VERTEX
  5
BE5
  8
0
 10
20.44986084517943
 20
69.867750700461414
 30
0.0
  0
VERTEX
  5
BE6
  8
0
 10
19.35881451280774
 20
69.814140200177434
 30
0.0
  0
SEQEND
  5
BE7
  8
0
  0
POLYLINE
  5
8EB
  8
0
 66
     1
 10
0.0
 20
0.0
 30
0.0
 70
   128
  0
VERTEX
  5
BE8
  8
0
 10
32.108814512807768
 20
70.573329578732313
 30
0.0
  0
VERTEX
  5
BE9
  8
0
 10
31.0765702631967
 20
70.262509232537894
 30
0.0
  0
VERTEX
  5
BEA
  8
0
 10
30.026619406552118
 20
70.022515314477559
 30
0.0
  0
VERTEX
  5
BEB
  8
0
 10
28.94986084517943
 20
69.867750700461414
 30
0.0
  0
VERTEX
  5
BEC
  8
0
 10
27.858814512807768
 20
69.814140200177505
 30
0.0
  0
SEQEND
  5
BED
  8
0
  0
LINE
  5
8EC
  8
0
 10
32.108814512807683
 20
83.054950821622683
 30
0.0
 11
32.108814512807768
 21
70.573329578732313
 31
0.0
  0
POLYLINE
  5
8ED
  8
0
 66
     1
 10
0.0
 20
0.0
 30
0.0
 70
   128
  0
VERTEX
  5
BEE
  8
0
 10
27.85881451280769
 20
83.814140200177448
 30
0.0
  0
VERTEX
  5
BEF
  8
0
 10
28.16103217593307
 20
83.810006052522269
 30
0.0
  0
VERTEX
  5
BF0
  8
0
 10
29.15039657897994
 20
83.739173454655585
 30
0.0
  0
VERTEX
  5
BF1
  8
0
 10
30.138037015310129
 20
83.584287649380869
 30
0.0
  0
VERTEX
  5
BF2
  8
0
 10
32.108814512807683
 20
83.054950821622683
 30
0.0
  0
SEQEND
  5
BF3
  8
0
  0
POLYLINE
  5
8EE
  8
0
 66
     1
 10
0.0
 20
0.0
 30
0.0
 70
   128
  0
VERTEX
  5
BF4
  8
0
 10
23.60881451280768
 20
83.054950821622626
 30
0.0
  0
VERTEX
  5
BF5
  8
0
 10
24.641058762418751
 20
83.365771167817087
 30
0.0
  0
VERTEX
  5
BF6
  8
0
 10
25.69100961906334
 20
83.605765085877465
 30
0.0
  0
VERTEX
  5
BF7
  8
0
 10
26.76776818043599
 20
83.760529699893567
 30
0.0
  0
VERTEX
  5
BF8
  8
0
 10
27.85881451280769
 20
83.814140200177448
 30
0.0
  0
SEQEND
  5
BF9
  8
0
  0
LINE
  5
8EF
  8
0
 10
23.60881451280768
 20
83.054950821622626
 30
0.0
 11
23.608814512807768
 21
70.573329578732313
 31
0.0
  0
POLYLINE
  5
8F0
  8
0
 66
     1
 10
0.0
 20
0.0
 30
0.0
 70
   128
  0
VERTEX
  5
BFA
  8
0
 10
27.858814512807768
 20
69.814140200177505
 30
0.0
  0
VERTEX
  5
BFB
  8
0
 10
27.55659684968235
 20
69.818274347832741
 30
0.0
  0
VERTEX
  5
BFC
  8
0
 10
26.567232446635519
 20
69.889106945699368
 30
0.0
  0
VERTEX
  5
BFD
  8
0
 10
25.579592010305291
 20
70.043992750974141
 30
0.0
  0
VERTEX
  5
BFE
  8
0
 10
23.608814512807768
 20
70.573329578732313
 30
0.0
  0
SEQEND
  5
BFF
  8
0
  0
LINE
  5
904
  8
0
 10
15.70881451280758
 20
69.814140200177349
 30
0.0
 11
31.508814512807589
 21
69.814140200177462
 31
0.0
  0
LINE
  5
905
  8
0
 10
32.108814512807697
 20
68.708540660108838
 30
0.0
 11
32.108814512807669
 21
69.466977525823978
 31
0.0
  0
LINE
  5
906
  8
0
 10
15.10881451280752
 20
68.708540660108696
 30
0.0
 11
15.1088145128075
 21
69.467173744423803
 31
0.0
  0
LINE
  5
907
  8
0
 10
15.10881451280752
 20
68.708540660108696
 30
0.0
 11
15.10881451280755
 21
64.919739740246015
 31
0.0
  0
POLYLINE
  5
908
  8
0
 66
     1
 10
0.0
 20
0.0
 30
0.0
 70
   128
  0
VERTEX
  5
C00
  8
0
 10
15.10881451280752
 20
68.708540660108696
 30
0.0
  0
VERTEX
  5
C01
  8
0
 10
16.214015804358269
 20
69.03860804258278
 30
0.0
  0
VERTEX
  5
C02
  8
0
 10
17.335029232413859
 20
69.285644723384081
 30
0.0
  0
VERTEX
  5
C03
  8
0
 10
18.494758440153991
 20
69.433489917154589
 30
0.0
  0
VERTEX
  5
C04
  8
0
 10
19.66103217593297
 20
69.463595891008339
 30
0.0
  0
VERTEX
  5
C05
  8
0
 10
20.65300839171914
 20
69.392215021640197
 30
0.0
  0
VERTEX
  5
C06
  8
0
 10
21.638037015310029
 20
69.237877487866967
 30
0.0
  0
VERTEX
  5
C07
  8
0
 10
23.60881451280758
 20
68.708540660108781
 30
0.0
  0
SEQEND
  5
C08
  8
0
  0
LINE
  5
909
  8
0
 10
15.10881451280755
 20
64.919739740246015
 30
0.0
 11
15.10881451280755
 21
64.161057088907683
 31
0.0
  0
LINE
  5
90A
  8
0
 10
32.108814512807697
 20
64.919739740246143
 30
0.0
 11
32.108814512807733
 21
64.161217709754538
 31
0.0
  0
POLYLINE
  5
90B
  8
0
 66
     1
 10
0.0
 20
0.0
 30
0.0
 70
   128
  0
VERTEX
  5
C09
  8
0
 10
15.10881451280755
 20
64.919739740246015
 30
0.0
  0
VERTEX
  5
C0A
  8
0
 10
16.21401580435829
 20
64.589672357771946
 30
0.0
  0
VERTEX
  5
C0B
  8
0
 10
17.335029232413881
 20
64.342635676970701
 30
0.0
  0
VERTEX
  5
C0C
  8
0
 10
18.494758440154008
 20
64.194790483200194
 30
0.0
  0
VERTEX
  5
C0D
  8
0
 10
19.661032175932998
 20
64.164684509346472
 30
0.0
  0
VERTEX
  5
C0E
  8
0
 10
20.653008391719169
 20
64.236065378714613
 30
0.0
  0
VERTEX
  5
C0F
  8
0
 10
21.638037015310061
 20
64.3904029124879
 30
0.0
  0
VERTEX
  5
C10
  8
0
 10
23.608814512807609
 20
64.919739740246115
 30
0.0
  0
SEQEND
  5
C11
  8
0
  0
LINE
  5
90C
  8
0
 10
23.60881451280758
 20
68.708540660108781
 30
0.0
 11
23.608814512807609
 21
64.919739740246115
 31
0.0
  0
POLYLINE
  5
90D
  8
0
 66
     1
 10
0.0
 20
0.0
 30
0.0
 70
   128
  0
VERTEX
  5
C12
  8
0
 10
23.608814512807609
 20
64.919739740246115
 30
0.0
  0
VERTEX
  5
C13
  8
0
 10
24.714015804358379
 20
64.589672357772031
 30
0.0
  0
VERTEX
  5
C14
  8
0
 10
25.835029232413969
 20
64.342635676970758
 30
0.0
  0
VERTEX
  5
C15
  8
0
 10
26.994758440154101
 20
64.194790483200251
 30
0.0
  0
VERTEX
  5
C16
  8
0
 10
28.161032175933091
 20
64.164684509346529
 30
0.0
  0
VERTEX
  5
C17
  8
0
 10
29.153008391719251
 20
64.23606537871467
 30
0.0
  0
VERTEX
  5
C18
  8
0
 10
30.138037015310172
 20
64.390402912487929
 30
0.0
  0
VERTEX
  5
C19
  8
0
 10
32.108814512807697
 20
64.919739740246143
 30
0.0
  0
SEQEND
  5
C1A
  8
0
  0
LINE
  5
90E
  8
0
 10
32.108814512807697
 20
68.708540660108838
 30
0.0
 11
32.108814512807697
 21
64.919739740246143
 31
0.0
  0
POLYLINE
  5
90F
  8
0
 66
     1
 10
0.0
 20
0.0
 30
0.0
 70
   128
  0
VERTEX
  5
C1B
  8
0
 10
23.60881451280758
 20
68.708540660108781
 30
0.0
  0
VERTEX
  5
C1C
  8
0
 10
24.714015804358329
 20
69.038608042582865
 30
0.0
  0
VERTEX
  5
C1D
  8
0
 10
25.83502923241392
 20
69.285644723384166
 30
0.0
  0
VERTEX
  5
C1E
  8
0
 10
26.994758440154051
 20
69.433489917154645
 30
0.0
  0
VERTEX
  5
C1F
  8
0
 10
28.16103217593303
 20
69.463595891008396
 30
0.0
  0
VERTEX
  5
C20
  8
0
 10
29.153008391719201
 20
69.392215021640254
 30
0.0
  0
VERTEX
  5
C21
  8
0
 10
30.138037015310118
 20
69.237877487867024
 30
0.0
  0
VERTEX
  5
C22
  8
0
 10
32.108814512807697
 20
68.708540660108838
 30
0.0
  0
SEQEND
  5
C23
  8
0
  0
LINE
  5
910
  8
0
 10
20.10881451280795
 20
19.314140200177381
 30
0.0
 11
27.10881451280795
 21
19.31414020017743
 31
0.0
  0
LINE
  5
911
  8
0
 10
18.608814512807921
 20
20.814140200177381
 30
0.0
 11
28.608814512807928
 21
20.814140200177441
 31
0.0
  0
LINE
  5
912
  8
0
 10
15.10881451280761
 20
63.814140200177349
 30
0.0
 11
19.366173825688382
 21
63.814140200177398
 31
0.0
  0
LINE
  5
913
  8
0
 10
15.10881451280761
 20
63.314140200177349
 30
0.0
 11
15.10881451280761
 21
63.814140200177349
 31
0.0
  0
LINE
  5
914
  8
0
 10
32.108814512807641
 20
63.814140200177491
 30
0.0
 11
32.108814512807641
 21
63.314140200177491
 31
0.0
  0
LINE
  5
915
  8
0
 10
27.85145519992696
 20
63.814140200177462
 30
0.0
 11
32.108814512807641
 21
63.814140200177491
 31
0.0
  0
LINE
  5
916
  8
0
 10
28.876641389234042
 20
63.314140200177462
 30
0.0
 11
27.85145519992696
 21
63.814140200177462
 31
0.0
  0
LINE
  5
917
  8
0
 10
19.366173825688382
 20
63.814140200177398
 30
0.0
 11
27.85145519992696
 21
63.814140200177462
 31
0.0
  0
LINE
  5
918
  8
0
 10
19.366173825688382
 20
63.814140200177398
 30
0.0
 11
18.3409876363813
 21
63.314140200177398
 31
0.0
  0
LINE
  5
919
  8
0
 10
18.34098763638136
 20
53.814140200177398
 30
0.0
 11
28.876641389234099
 21
53.814140200177462
 31
0.0
  0
LINE
  5
91A
  8
0
 10
33.108814512807839
 20
33.814140200177462
 30
0.0
 11
14.108814512807839
 21
33.814140200177349
 31
0.0
  0
LINE
  5
91B
  8
0
 10
33.608814512807733
 20
52.948114796393007
 30
0.0
 11
32.108814512807697
 21
53.814140200177491
 31
0.0
  0
LINE
  5
91C
  8
0
 10
32.108814512807697
 20
53.814140200177491
 30
0.0
 11
32.108814512807641
 21
63.314140200177491
 31
0.0
  0
LINE
  5
91D
  8
0
 10
32.108814512807641
 20
63.314140200177491
 30
0.0
 11
28.876641389234042
 21
63.314140200177462
 31
0.0
  0
LINE
  5
91E
  8
0
 10
28.876641389234042
 20
63.314140200177462
 30
0.0
 11
28.876641389234099
 21
53.814140200177462
 31
0.0
  0
POLYLINE
  5
91F
  8
0
 66
     1
 10
0.0
 20
0.0
 30
0.0
 70
   128
  0
VERTEX
  5
C24
  8
0
 10
28.876641389234099
 20
53.814140200177462
 30
0.0
  0
VERTEX
  5
C25
  8
0
 10
28.132822012015971
 20
53.572722585914327
 30
0.0
  0
VERTEX
  5
C26
  8
0
 10
27.35606267300577
 20
53.368794830230172
 30
0.0
  0
VERTEX
  5
C27
  8
0
 10
26.552019070818801
 20
53.20384176100859
 30
0.0
  0
VERTEX
  5
C28
  8
0
 10
25.72654556479014
 20
53.079064425727658
 30
0.0
  0
VERTEX
  5
C29
  8
0
 10
24.885652548526281
 20
52.995371346457119
 30
0.0
  0
VERTEX
  5
C2A
  8
0
 10
24.03546268734814
 20
52.953371904775963
 30
0.0
  0
VERTEX
  5
C2B
  8
0
 10
23.18216633826734
 20
52.953371904775963
 30
0.0
  0
VERTEX
  5
C2C
  8
0
 10
22.331976477089199
 20
52.995371346457091
 30
0.0
  0
VERTEX
  5
C2D
  8
0
 10
21.49108346082534
 20
53.079064425727637
 30
0.0
  0
VERTEX
  5
C2E
  8
0
 10
20.665609954796679
 20
53.203841761008562
 30
0.0
  0
VERTEX
  5
C2F
  8
0
 10
19.86156635260971
 20
53.368794830230108
 30
0.0
  0
VERTEX
  5
C30
  8
0
 10
19.084807013599509
 20
53.572722585914278
 30
0.0
  0
VERTEX
  5
C31
  8
0
 10
18.34098763638136
 20
53.814140200177398
 30
0.0
  0
SEQEND
  5
C32
  8
0
  0
LINE
  5
920
  8
0
 10
18.34098763638136
 20
53.814140200177398
 30
0.0
 11
18.3409876363813
 21
63.314140200177398
 31
0.0
  0
LINE
  5
921
  8
0
 10
18.3409876363813
 20
63.314140200177398
 30
0.0
 11
15.10881451280761
 21
63.314140200177349
 31
0.0
  0
LINE
  5
922
  8
0
 10
15.10881451280761
 20
63.314140200177349
 30
0.0
 11
15.108814512807699
 21
53.814140200177377
 31
0.0
  0
LINE
  5
923
  8
0
 10
15.108814512807699
 20
53.814140200177349
 30
0.0
 11
13.608814512807699
 21
52.9481147963929
 31
0.0
  0
LINE
  5
924
  8
0
 10
13.608814512807839
 20
34.31414020017732
 30
0.0
 11
33.608814512807839
 21
34.314140200177491
 31
0.0
  0
LINE
  5
925
  8
0
 10
15.70881451280758
 20
69.814140200177349
 30
0.0
 11
15.1088145128075
 21
69.467730038663547
 31
0.0
  0
LINE
  5
926
  8
0
 10
32.108814512807669
 20
69.467730038663632
 30
0.0
 11
31.508814512807589
 21
69.814140200177462
 31
0.0
  0
LINE
  5
927
  8
0
 10
31.50881451280765
 20
63.814140200177462
 30
0.0
 11
32.108814512807733
 21
64.160550361691293
 31
0.0
  0
LINE
  5
928
  8
0
 10
15.10881451280755
 20
64.160550361691179
 30
0.0
 11
15.70881451280763
 21
63.814140200177349
 31
0.0
  0
LINE
  5
929
  8
0
 10
28.608814512807928
 20
20.814140200177441
 30
0.0
 11
28.608814512807839
 21
33.814140200177462
 31
0.0
  0
LINE
  5
92A
  8
0
 10
18.608814512807839
 20
33.814140200177413
 30
0.0
 11
18.608814512807921
 21
20.814140200177381
 31
0.0
  0
LINE
  5
92B
  8
0
 10
27.10881451280795
 20
19.31414020017743
 30
0.0
 11
28.608814512807928
 21
20.814140200177441
 31
0.0
  0
LINE
  5
92C
  8
0
 10
18.608814512807921
 20
20.814140200177381
 30
0.0
 11
20.10881451280795
 21
19.314140200177381
 31
0.0
  0
LINE
  5
92D
  8
0
 10
33.108814512807839
 20
33.814140200177462
 30
0.0
 11
33.608814512807839
 21
34.314140200177491
 31
0.0
  0
LINE
  5
92E
  8
0
 10
13.608814512807839
 20
34.31414020017732
 30
0.0
 11
14.108814512807839
 21
33.814140200177349
 31
0.0
  0
LINE
  5
92F
  8
0
 10
13.608814512807699
 20
52.9481147963929
 30
0.0
 11
13.608814512807839
 21
34.31414020017732
 31
0.0
  0
LINE
  5
930
  8
0
 10
33.608814512807839
 20
34.314140200177491
 30
0.0
 11
33.608814512807733
 21
52.948114796393007
 31
0.0
  0
LINE
  5
931
  8
1
 10
23.608814512807928
 20
14.314140200177381
 30
0.0
 11
23.608814512807928
 21
88.81414020017732
 31
0.0
  0
LINE
  5
932
  8
3
 10
19.420814512807919
 20
33.814140200177413
 30
0.0
 11
19.420814512807919
 21
20.002140200177401
 31
0.0
  0
LINE
  5
933
  8
3
 10
27.79681451280792
 20
33.814140200177462
 30
0.0
 11
27.79681451280792
 21
20.002140200177401
 31
0.0
  0
LINE
  5
973
  8
1
 10
74.812540828597093
 20
14.314140200177381
 30
0.0
 11
74.812540828597037
 21
88.81414020017732
 31
0.0
  0
LINE
  5
974
  8
3
 10
79.000540828597025
 20
33.814140200177498
 30
0.0
 11
79.000540828597025
 21
20.00214020017744
 31
0.0
  0
LINE
  5
975
  8
3
 10
70.624540828597034
 20
33.814140200177448
 30
0.0
 11
70.624540828597034
 21
20.00214020017744
 31
0.0
  0
LINE
  5
976
  8
0
 10
84.812540828596951
 20
34.314140200177533
 30
0.0
 11
84.812540828596823
 21
52.948114796393057
 31
0.0
  0
LINE
  5
977
  8
0
 10
64.812540828596809
 20
52.948114796392943
 30
0.0
 11
64.812540828596951
 21
34.314140200177363
 31
0.0
  0
LINE
  5
978
  8
0
 10
64.812540828596951
 20
34.314140200177363
 30
0.0
 11
65.312540828596951
 21
33.814140200177391
 31
0.0
  0
LINE
  5
979
  8
0
 10
84.312540828596951
 20
33.814140200177498
 30
0.0
 11
84.812540828596951
 21
34.314140200177533
 31
0.0
  0
LINE
  5
97A
  8
0
 10
69.812540828597037
 20
20.81414020017742
 30
0.0
 11
71.312540828597065
 21
19.31414020017742
 31
0.0
  0
LINE
  5
97B
  8
0
 10
78.312540828597065
 20
19.314140200177469
 30
0.0
 11
79.812540828597037
 21
20.81414020017748
 31
0.0
  0
LINE
  5
97C
  8
0
 10
69.812540828596951
 20
33.814140200177448
 30
0.0
 11
69.812540828597037
 21
20.81414020017742
 31
0.0
  0
LINE
  5
97D
  8
0
 10
79.812540828597037
 20
20.81414020017748
 30
0.0
 11
79.812540828596951
 21
33.814140200177498
 31
0.0
  0
LINE
  5
982
  8
0
 10
64.812540828596951
 20
34.314140200177363
 30
0.0
 11
84.812540828596951
 21
34.314140200177533
 31
0.0
  0
LINE
  5
983
  8
0
 10
66.312540828596809
 20
53.814140200177391
 30
0.0
 11
64.812540828596809
 21
52.948114796392943
 31
0.0
  0
LINE
  5
984
  8
0
 10
66.312540828596724
 20
63.314140200177391
 30
0.0
 11
66.312540828596809
 21
53.81414020017742
 31
0.0
  0
LINE
  5
985
  8
0
 10
69.544713952170412
 20
63.314140200177448
 30
0.0
 11
66.312540828596724
 21
63.314140200177391
 31
0.0
  0
LINE
  5
986
  8
0
 10
69.544713952170468
 20
53.814140200177448
 30
0.0
 11
69.544713952170412
 21
63.314140200177448
 31
0.0
  0
POLYLINE
  5
987
  8
0
 66
     1
 10
0.0
 20
0.0
 30
0.0
 70
   128
  0
VERTEX
  5
C33
  8
0
 10
80.080367705023207
 20
53.814140200177498
 30
0.0
  0
VERTEX
  5
C34
  8
0
 10
79.336548327805076
 20
53.572722585914377
 30
0.0
  0
VERTEX
  5
C35
  8
0
 10
78.559788988794878
 20
53.368794830230222
 30
0.0
  0
VERTEX
  5
C36
  8
0
 10
77.755745386607913
 20
53.203841761008633
 30
0.0
  0
VERTEX
  5
C37
  8
0
 10
76.930271880579255
 20
53.079064425727708
 30
0.0
  0
VERTEX
  5
C38
  8
0
 10
76.089378864315393
 20
52.995371346457162
 30
0.0
  0
VERTEX
  5
C39
  8
0
 10
75.239189003137255
 20
52.953371904775999
 30
0.0
  0
VERTEX
  5
C3A
  8
0
 10
74.385892654056448
 20
52.953371904775999
 30
0.0
  0
VERTEX
  5
C3B
  8
0
 10
73.535702792878311
 20
52.995371346457141
 30
0.0
  0
VERTEX
  5
C3C
  8
0
 10
72.694809776614434
 20
53.07906442572768
 30
0.0
  0
VERTEX
  5
C3D
  8
0
 10
71.869336270585791
 20
53.203841761008597
 30
0.0
  0
VERTEX
  5
C3E
  8
0
 10
71.065292668398826
 20
53.368794830230151
 30
0.0
  0
VERTEX
  5
C3F
  8
0
 10
70.288533329388613
 20
53.57272258591432
 30
0.0
  0
VERTEX
  5
C40
  8
0
 10
69.544713952170468
 20
53.814140200177448
 30
0.0
  0
SEQEND
  5
C41
  8
0
  0
LINE
  5
988
  8
0
 10
80.080367705023136
 20
63.314140200177498
 30
0.0
 11
80.080367705023207
 21
53.814140200177498
 31
0.0
  0
LINE
  5
989
  8
0
 10
83.312540828596752
 20
63.314140200177533
 30
0.0
 11
80.080367705023136
 21
63.314140200177498
 31
0.0
  0
LINE
  5
98A
  8
0
 10
83.312540828596809
 20
53.81414020017754
 30
0.0
 11
83.312540828596752
 21
63.314140200177533
 31
0.0
  0
LINE
  5
98B
  8
0
 10
84.812540828596823
 20
52.948114796393057
 30
0.0
 11
83.312540828596809
 21
53.81414020017754
 31
0.0
  0
LINE
  5
98C
  8
0
 10
84.312540828596951
 20
33.814140200177498
 30
0.0
 11
65.312540828596951
 21
33.814140200177391
 31
0.0
  0
LINE
  5
98D
  8
0
 10
69.544713952170468
 20
53.814140200177448
 30
0.0
 11
80.080367705023207
 21
53.814140200177498
 31
0.0
  0
LINE
  5
98E
  8
0
 10
70.56990014147749
 20
63.814140200177448
 30
0.0
 11
69.544713952170412
 21
63.314140200177448
 31
0.0
  0
LINE
  5
990
  8
0
 10
80.080367705023136
 20
63.314140200177498
 30
0.0
 11
79.055181515716072
 21
63.814140200177498
 31
0.0
  0
LINE
  5
991
  8
0
 10
66.312540828596724
 20
63.814140200177391
 30
0.0
 11
83.312540828596752
 21
63.81414020017754
 31
0.0
  0
LINE
  5
992
  8
0
 10
83.312540828596752
 20
63.81414020017754
 30
0.0
 11
83.312540828596752
 21
63.314140200177533
 31
0.0
  0
LINE
  5
993
  8
0
 10
66.312540828596724
 20
63.314140200177391
 30
0.0
 11
66.312540828596724
 21
63.814140200177391
 31
0.0
  0
LINE
  5
995
  8
0
 10
69.812540828597037
 20
20.81414020017742
 30
0.0
 11
79.812540828597037
 21
20.81414020017748
 31
0.0
  0
LINE
  5
996
  8
0
 10
71.312540828597065
 20
19.31414020017742
 30
0.0
 11
78.312540828597065
 21
19.314140200177469
 31
0.0
  0
LINE
  5
9C3
  8
0
 10
66.912540828596605
 20
69.814140200177434
 30
0.0
 11
64.997586252372855
 21
68.708540660108767
 31
0.0
  0
POLYLINE
  5
9C4
  8
0
 66
     1
 10
0.0
 20
0.0
 30
0.0
 70
   128
  0
VERTEX
  5
C42
  8
0
 10
64.997586252372855
 20
68.708540660108767
 30
0.0
  0
VERTEX
  5
C43
  8
0
 10
65.635674515558435
 20
69.038608042582879
 30
0.0
  0
VERTEX
  5
C44
  8
0
 10
66.282891920011537
 20
69.285644723384152
 30
0.0
  0
VERTEX
  5
C45
  8
0
 10
66.952461890287395
 20
69.43348991715466
 30
0.0
  0
VERTEX
  5
C46
  8
0
 10
67.62581034558815
 20
69.46359589100841
 30
0.0
  0
VERTEX
  5
C47
  8
0
 10
68.767234621791715
 20
69.237877487866982
 30
0.0
  0
VERTEX
  5
C48
  8
0
 10
69.905063540484775
 20
68.708540660108795
 30
0.0
  0
SEQEND
  5
C49
  8
0
  0
LINE
  5
9C5
  8
0
 10
64.997586252372855
 20
68.708540660108767
 30
0.0
 11
64.997586252372855
 21
64.919739740246129
 31
0.0
  0
LINE
  5
9C6
  8
0
 10
64.997586252372855
 20
64.919739740246129
 30
0.0
 11
66.912540828596605
 21
63.814140200177469
 31
0.0
  0
POLYLINE
  5
9C7
  8
0
 66
     1
 10
0.0
 20
0.0
 30
0.0
 70
   128
  0
VERTEX
  5
C4A
  8
0
 10
64.997586252372855
 20
64.919739740246129
 30
0.0
  0
VERTEX
  5
C4B
  8
0
 10
65.635674515558435
 20
64.589672357772045
 30
0.0
  0
VERTEX
  5
C4C
  8
0
 10
66.282891920011465
 20
64.342635676970744
 30
0.0
  0
VERTEX
  5
C4D
  8
0
 10
66.952461890287339
 20
64.194790483200237
 30
0.0
  0
VERTEX
  5
C4E
  8
0
 10
67.62581034558815
 20
64.164684509346515
 30
0.0
  0
VERTEX
  5
C4F
  8
0
 10
68.767234621791715
 20
64.390402912487943
 30
0.0
  0
VERTEX
  5
C50
  8
0
 10
69.905063540484775
 20
64.919739740246129
 30
0.0
  0
SEQEND
  5
C51
  8
0
  0
LINE
  5
9C8
  8
0
 10
69.905063540484775
 20
68.708540660108795
 30
0.0
 11
69.905063540484775
 21
64.919739740246129
 31
0.0
  0
POLYLINE
  5
9C9
  8
0
 66
     1
 10
0.0
 20
0.0
 30
0.0
 70
   128
  0
VERTEX
  5
C52
  8
0
 10
69.905063540484775
 20
64.919739740246129
 30
0.0
  0
VERTEX
  5
C53
  8
0
 10
71.725492788934446
 20
64.47417977615963
 30
0.0
  0
VERTEX
  5
C54
  8
0
 10
73.598386774896369
 20
64.210362994027136
 30
0.0
  0
VERTEX
  5
C55
  8
0
 10
74.847939532829685
 20
64.161057088907782
 30
0.0
  0
VERTEX
  5
C56
  8
0
 10
76.097251403636335
 20
64.21628712839042
 30
0.0
  0
VERTEX
  5
C57
  8
0
 10
77.370864275372298
 20
64.378217776179184
 30
0.0
  0
VERTEX
  5
C58
  8
0
 10
78.629626163335217
 20
64.632668487507786
 30
0.0
  0
VERTEX
  5
C59
  8
0
 10
79.720018116708445
 20
64.919739740246101
 30
0.0
  0
SEQEND
  5
C5A
  8
0
  0
POLYLINE
  5
9CA
  8
0
 66
     1
 10
0.0
 20
0.0
 30
0.0
 70
   128
  0
VERTEX
  5
C5B
  8
0
 10
69.905063540484775
 20
68.708540660108795
 30
0.0
  0
VERTEX
  5
C5C
  8
0
 10
71.73286755405104
 20
69.155552565588337
 30
0.0
  0
VERTEX
  5
C5D
  8
0
 10
73.613617829667191
 20
69.419153239185135
 30
0.0
  0
VERTEX
  5
C5E
  8
0
 10
74.864228176294716
 20
69.467173744423931
 30
0.0
  0
VERTEX
  5
C5F
  8
0
 10
76.11448627393321
 20
69.410496460987034
 30
0.0
  0
VERTEX
  5
C60
  8
0
 10
77.388947397835466
 20
69.247046336366182
 30
0.0
  0
VERTEX
  5
C61
  8
0
 10
78.648471841019713
 20
68.991145454543371
 30
0.0
  0
VERTEX
  5
C62
  8
0
 10
79.720018116708502
 20
68.708540660108767
 30
0.0
  0
SEQEND
  5
C63
  8
0
  0
POLYLINE
  5
9CB
  8
0
 66
     1
 10
0.0
 20
0.0
 30
0.0
 70
   128
  0
VERTEX
  5
C64
  8
0
 10
79.720018116708445
 20
64.919739740246101
 30
0.0
  0
VERTEX
  5
C65
  8
0
 10
80.358106379894025
 20
64.589672357772017
 30
0.0
  0
VERTEX
  5
C66
  8
0
 10
81.005323784347055
 20
64.342635676970687
 30
0.0
  0
VERTEX
  5
C67
  8
0
 10
81.674893754622929
 20
64.19479048320018
 30
0.0
  0
VERTEX
  5
C68
  8
0
 10
82.34824220992374
 20
64.164684509346458
 30
0.0
  0
VERTEX
  5
C69
  8
0
 10
83.489666486127305
 20
64.390402912487858
 30
0.0
  0
VERTEX
  5
C6A
  8
0
 10
84.627495404820365
 20
64.919739740246044
 30
0.0
  0
SEQEND
  5
C6B
  8
0
  0
POLYLINE
  5
9CC
  8
0
 66
     1
 10
0.0
 20
0.0
 30
0.0
 70
   128
  0
VERTEX
  5
C6C
  8
0
 10
79.720018116708502
 20
68.708540660108767
 30
0.0
  0
VERTEX
  5
C6D
  8
0
 10
80.358106379894025
 20
69.038608042582851
 30
0.0
  0
VERTEX
  5
C6E
  8
0
 10
81.005323784347127
 20
69.285644723384124
 30
0.0
  0
VERTEX
  5
C6F
  8
0
 10
81.674893754622985
 20
69.433489917154631
 30
0.0
  0
VERTEX
  5
C70
  8
0
 10
82.34824220992374
 20
69.463595891008353
 30
0.0
  0
VERTEX
  5
C71
  8
0
 10
83.489666486127305
 20
69.237877487866925
 30
0.0
  0
VERTEX
  5
C72
  8
0
 10
84.627495404820365
 20
68.70854066010871
 30
0.0
  0
SEQEND
  5
C73
  8
0
  0
LINE
  5
9CD
  8
0
 10
79.720018116708502
 20
68.708540660108767
 30
0.0
 11
79.720018116708445
 21
64.919739740246101
 31
0.0
  0
LINE
  5
9CE
  8
0
 10
82.712540828596616
 20
63.81414020017742
 30
0.0
 11
84.627495404820365
 21
64.919739740246044
 31
0.0
  0
LINE
  5
9CF
  8
0
 10
84.627495404820365
 20
68.70854066010871
 30
0.0
 11
82.712540828596687
 21
69.814140200177391
 31
0.0
  0
LINE
  5
9D0
  8
0
 10
84.627495404820365
 20
68.70854066010871
 30
0.0
 11
84.627495404820365
 21
64.919739740246044
 31
0.0
  0
LINE
  5
A38
  8
0
 10
83.312540828596994
 20
69.814140200177562
 30
0.0
 11
84.627495404820635
 21
70.573329578732313
 31
0.0
  0
LINE
  5
A39
  8
0
 10
64.997586252373324
 20
70.573329578732441
 30
0.0
 11
66.312540828596966
 21
69.814140200177562
 31
0.0
  0
LINE
  5
A3A
  8
0
 10
84.627495404820706
 20
83.054950821622683
 30
0.0
 11
83.312540828597037
 21
83.814140200177548
 31
0.0
  0
LINE
  5
A3B
  8
0
 10
66.312540828597037
 20
83.814140200177548
 30
0.0
 11
64.997586252373395
 21
83.054950821622725
 31
0.0
  0
POLYLINE
  5
A3E
  8
0
 66
     1
 10
0.0
 20
0.0
 30
0.0
 70
   128
  0
VERTEX
  5
C74
  8
0
 10
74.81254082859698
 20
69.814140200177562
 30
0.0
  0
VERTEX
  5
C75
  8
0
 10
72.978854965645894
 20
69.927034871857458
 30
0.0
  0
VERTEX
  5
C76
  8
0
 10
71.145169102694751
 20
70.251430302574803
 30
0.0
  0
VERTEX
  5
C77
  8
0
 10
69.905063540485145
 20
70.573329578732441
 30
0.0
  0
SEQEND
  5
C78
  8
0
  0
LINE
  5
A3F
  8
0
 10
67.451324896429242
 20
69.814140200177562
 30
0.0
 11
74.81254082859698
 21
69.814140200177562
 31
0.0
  0
POLYLINE
  5
A40
  8
0
 66
     1
 10
0.0
 20
0.0
 30
0.0
 70
   128
  0
VERTEX
  5
C79
  8
0
 10
69.905063540485145
 20
70.573329578732441
 30
0.0
  0
VERTEX
  5
C7A
  8
0
 10
69.30909704510276
 20
70.262509232538022
 30
0.0
  0
VERTEX
  5
C7B
  8
0
 10
68.702907635383127
 20
70.022515314477616
 30
0.0
  0
VERTEX
  5
C7C
  8
0
 10
68.081240790122393
 20
69.867750700461542
 30
0.0
  0
VERTEX
  5
C7D
  8
0
 10
67.451324896429242
 20
69.814140200177562
 30
0.0
  0
SEQEND
  5
C7E
  8
0
  0
LINE
  5
A41
  8
0
 10
74.81254082859698
 20
69.814140200177562
 30
0.0
 11
82.173756760764704
 21
69.814140200177562
 31
0.0
  0
POLYLINE
  5
A42
  8
0
 66
     1
 10
0.0
 20
0.0
 30
0.0
 70
   128
  0
VERTEX
  5
C7F
  8
0
 10
79.720018116708843
 20
70.573329578732441
 30
0.0
  0
VERTEX
  5
C80
  8
0
 10
77.95839831320859
 20
70.139457554621671
 30
0.0
  0
VERTEX
  5
C81
  8
0
 10
76.148061654445314
 20
69.874345667512031
 30
0.0
  0
VERTEX
  5
C82
  8
0
 10
74.81254082859698
 20
69.814140200177562
 30
0.0
  0
SEQEND
  5
C83
  8
0
  0
POLYLINE
  5
A43
  8
0
 66
     1
 10
0.0
 20
0.0
 30
0.0
 70
   128
  0
VERTEX
  5
C84
  8
0
 10
82.173756760764704
 20
69.814140200177562
 30
0.0
  0
VERTEX
  5
C85
  8
0
 10
81.999271311605398
 20
69.818274347832798
 30
0.0
  0
VERTEX
  5
C86
  8
0
 10
81.428061507179677
 20
69.889106945699481
 30
0.0
  0
VERTEX
  5
C87
  8
0
 10
80.857847035401889
 20
70.043992750974184
 30
0.0
  0
VERTEX
  5
C88
  8
0
 10
79.720018116708843
 20
70.573329578732441
 30
0.0
  0
SEQEND
  5
C89
  8
0
  0
POLYLINE
  5
A44
  8
0
 66
     1
 10
0.0
 20
0.0
 30
0.0
 70
   128
  0
VERTEX
  5
C8A
  8
0
 10
67.451324896429242
 20
69.814140200177562
 30
0.0
  0
VERTEX
  5
C8B
  8
0
 10
67.276839447269936
 20
69.818274347832855
 30
0.0
  0
VERTEX
  5
C8C
  8
0
 10
66.705629642844229
 20
69.889106945699481
 30
0.0
  0
VERTEX
  5
C8D
  8
0
 10
66.135415171066384
 20
70.043992750974184
 30
0.0
  0
VERTEX
  5
C8E
  8
0
 10
64.997586252373324
 20
70.573329578732441
 30
0.0
  0
SEQEND
  5
C8F
  8
0
  0
LINE
  5
A45
  8
0
 10
64.997586252373395
 20
83.054950821622725
 30
0.0
 11
64.997586252373324
 21
70.573329578732441
 31
0.0
  0
POLYLINE
  5
A46
  8
0
 66
     1
 10
0.0
 20
0.0
 30
0.0
 70
   128
  0
VERTEX
  5
C90
  8
0
 10
64.997586252373395
 20
83.054950821622725
 30
0.0
  0
VERTEX
  5
C91
  8
0
 10
65.59355274775578
 20
83.365771167817215
 30
0.0
  0
VERTEX
  5
C92
  8
0
 10
66.199742157475413
 20
83.605765085877565
 30
0.0
  0
VERTEX
  5
C93
  8
0
 10
66.821409002736146
 20
83.760529699893695
 30
0.0
  0
VERTEX
  5
C94
  8
0
 10
67.451324896429298
 20
83.814140200177548
 30
0.0
  0
SEQEND
  5
C95
  8
0
  0
POLYLINE
  5
A47
  8
0
 66
     1
 10
0.0
 20
0.0
 30
0.0
 70
   128
  0
VERTEX
  5
C96
  8
0
 10
67.451324896429298
 20
83.814140200177548
 30
0.0
  0
VERTEX
  5
C97
  8
0
 10
67.625810345588633
 20
83.810006052522368
 30
0.0
  0
VERTEX
  5
C98
  8
0
 10
68.197020150014339
 20
83.739173454655685
 30
0.0
  0
VERTEX
  5
C99
  8
0
 10
68.767234621792142
 20
83.584287649380926
 30
0.0
  0
VERTEX
  5
C9A
  8
0
 10
69.905063540485202
 20
83.054950821622796
 30
0.0
  0
SEQEND
  5
C9B
  8
0
  0
LINE
  5
A48
  8
0
 10
69.905063540485202
 20
83.054950821622796
 30
0.0
 11
69.905063540485145
 21
70.573329578732441
 31
0.0
  0
POLYLINE
  5
A49
  8
0
 66
     1
 10
0.0
 20
0.0
 30
0.0
 70
   128
  0
VERTEX
  5
C9C
  8
0
 10
69.905063540485202
 20
83.054950821622796
 30
0.0
  0
VERTEX
  5
C9D
  8
0
 10
70.522620821379178
 20
83.224545126012444
 30
0.0
  0
VERTEX
  5
C9E
  8
0
 10
71.145169102694808
 20
83.376850097780334
 30
0.0
  0
VERTEX
  5
C9F
  8
0
 10
72.044996346851576
 20
83.560567774053624
 30
0.0
  0
VERTEX
  5
CA0
  8
0
 10
72.955326890110541
 20
83.698363442908416
 30
0.0
  0
VERTEX
  5
CA1
  8
0
 10
73.880425280836221
 20
83.784721047731622
 30
0.0
  0
VERTEX
  5
CA2
  8
0
 10
74.812540828597037
 20
83.814140200177548
 30
0.0
  0
SEQEND
  5
CA3
  8
0
  0
POLYLINE
  5
A4A
  8
0
 66
     1
 10
0.0
 20
0.0
 30
0.0
 70
   128
  0
VERTEX
  5
CA4
  8
0
 10
74.812540828597037
 20
83.814140200177548
 30
0.0
  0
VERTEX
  5
CA5
  8
0
 10
76.148061654445371
 20
83.753934732843149
 30
0.0
  0
VERTEX
  5
CA6
  8
0
 10
77.941897160576616
 20
83.492121940517436
 30
0.0
  0
VERTEX
  5
CA7
  8
0
 10
79.7200181167089
 20
83.054950821622725
 30
0.0
  0
SEQEND
  5
CA8
  8
0
  0
LINE
  5
A4B
  8
0
 10
79.7200181167089
 20
83.054950821622725
 30
0.0
 11
79.720018116708843
 21
70.573329578732441
 31
0.0
  0
POLYLINE
  5
A4C
  8
0
 66
     1
 10
0.0
 20
0.0
 30
0.0
 70
   128
  0
VERTEX
  5
CA9
  8
0
 10
79.7200181167089
 20
83.054950821622725
 30
0.0
  0
VERTEX
  5
CAA
  8
0
 10
80.315984612091185
 20
83.365771167817087
 30
0.0
  0
VERTEX
  5
CAB
  8
0
 10
80.922174021810861
 20
83.605765085877565
 30
0.0
  0
VERTEX
  5
CAC
  8
0
 10
81.543840867071665
 20
83.760529699893638
 30
0.0
  0
VERTEX
  5
CAD
  8
0
 10
82.173756760764775
 20
83.814140200177548
 30
0.0
  0
SEQEND
  5
CAE
  8
0
  0
POLYLINE
  5
A4D
  8
0
 66
     1
 10
0.0
 20
0.0
 30
0.0
 70
   128
  0
VERTEX
  5
CAF
  8
0
 10
82.173756760764775
 20
83.814140200177548
 30
0.0
  0
VERTEX
  5
CB0
  8
0
 10
82.348242209924081
 20
83.810006052522326
 30
0.0
  0
VERTEX
  5
CB1
  8
0
 10
82.919452014349815
 20
83.739173454655642
 30
0.0
  0
VERTEX
  5
CB2
  8
0
 10
83.489666486127575
 20
83.584287649380869
 30
0.0
  0
VERTEX
  5
CB3
  8
0
 10
84.627495404820706
 20
83.054950821622683
 30
0.0
  0
SEQEND
  5
CB4
  8
0
  0
LINE
  5
A4E
  8
0
 10
84.627495404820706
 20
83.054950821622683
 30
0.0
 11
84.627495404820635
 21
70.573329578732313
 31
0.0
  0
POLYLINE
  5
A4F
  8
0
 66
     1
 10
0.0
 20
0.0
 30
0.0
 70
   128
  0
VERTEX
  5
CB5
  8
0
 10
84.627495404820635
 20
70.573329578732313
 30
0.0
  0
VERTEX
  5
CB6
  8
0
 10
84.031528909438236
 20
70.262509232537894
 30
0.0
  0
VERTEX
  5
CB7
  8
0
 10
83.425339499718575
 20
70.022515314477559
 30
0.0
  0
VERTEX
  5
CB8
  8
0
 10
82.803672654457884
 20
69.867750700461485
 30
0.0
  0
VERTEX
  5
CB9
  8
0
 10
82.173756760764704
 20
69.814140200177562
 30
0.0
  0
SEQEND
  5
CBA
  8
0
  0
LINE
  5
A50
  8
0
 10
67.451324896429298
 20
83.814140200177548
 30
0.0
 11
74.812540828597037
 21
83.814140200177548
 31
0.0
  0
LINE
  5
A51
  8
0
 10
74.812540828597037
 20
83.814140200177548
 30
0.0
 11
82.173756760764775
 21
83.814140200177548
 31
0.0
  0
LINE
  5
A52
  8
0
 10
82.173756760764704
 20
69.814140200177562
 30
0.0
 11
83.312540828596994
 21
69.814140200177562
 31
0.0
  0
LINE
  5
A53
  8
0
 10
66.312540828596966
 20
69.814140200177562
 30
0.0
 11
67.451324896429242
 21
69.814140200177562
 31
0.0
  0
LINE
  5
A54
  8
0
 10
82.173756760764775
 20
83.814140200177548
 30
0.0
 11
83.312540828597037
 21
83.814140200177548
 31
0.0
  0
LINE
  5
A55
  8
0
 10
66.312540828597037
 20
83.814140200177548
 30
0.0
 11
67.451324896429298
 21
83.814140200177548
 31
0.0
  0
TEXT
  5
B13
  8
0
 62
     3
 10
0.0
 20
0.0
 30
0.0
 40
10.0
  1
BJ333-10050
  7
STANDARD1
  0
LINE
  5
B64
  8
3
 10
18.3409876363813
 20
63.314140200177398
 30
0.0
 11
28.876641389234099
 21
53.814140200177462
 31
0.0
  0
LINE
  5
B65
  8
3
 10
28.876641389234042
 20
63.314140200177462
 30
0.0
 11
18.34098763638136
 21
53.814140200177398
 31
0.0
  0
LINE
  5
B66
  8
3
 10
69.544713952170412
 20
63.314140200177448
 30
0.0
 11
80.080367705023207
 21
53.814140200177498
 31
0.0
  0
LINE
  5
B67
  8
3
 10
80.080367705023136
 20
63.314140200177498
 30
0.0
 11
69.544713952170468
 21
53.814140200177448
 31
0.0
  0
ENDSEC
  0
EOF
