  0
SECTION
  2
HEADER
  9
$ACADVER
  1
AC1009
  9
$INSBASE
 10
0.0
 20
0.0
 30
0.0
  9
$EXTMIN
 10
0.0
 20
-2.960436562073669
 30
0.0
  9
$EXTMAX
 10
136.37879072186979
 20
136.1666828115128
 30
0.0
  9
$LIMMIN
 10
0.0
 20
0.0
  9
$LIMMAX
 10
375.0
 20
270.0
  9
$ORTHOMODE
 70
     0
  9
$REGENMODE
 70
     1
  9
$FILLMODE
 70
     1
  9
$QTEXTMODE
 70
     0
  9
$MIRRTEXT
 70
     0
  9
$DRAGMODE
 70
     2
  9
$LTSCALE
 40
10.0
  9
$OSMODE
 70
    37
  9
$ATTMODE
 70
     1
  9
$TEXTSIZE
 40
0.2
  9
$TRACEWID
 40
0.05
  9
$TEXTSTYLE
  7
STANDARD
  9
$CLAYER
  8
0
  9
$CELTYPE
  6
BYLAYER
  9
$CECOLOR
 62
   256
  9
$DIMSCALE
 40
1.0
  9
$DIMASZ
 40
3.0
  9
$DIMEXO
 40
2.0
  9
$DIMDLI
 40
0.38
  9
$DIMRND
 40
0.0
  9
$DIMDLE
 40
0.0
  9
$DIMEXE
 40
2.0
  9
$DIMTP
 40
0.0
  9
$DIMTM
 40
0.0
  9
$DIMTXT
 40
3.2000000000000002
  9
$DIMCEN
 40
0.0
  9
$DIMTSZ
 40
0.0
  9
$DIMTOL
 70
     0
  9
$DIMLIM
 70
     0
  9
$DIMTIH
 70
     0
  9
$DIMTOH
 70
     0
  9
$DIMSE1
 70
     0
  9
$DIMSE2
 70
     0
  9
$DIMTAD
 70
     1
  9
$DIMZIN
 70
     0
  9
$DIMBLK
  1

  9
$DIMASO
 70
     0
  9
$DIMSHO
 70
     0
  9
$DIMPOST
  1

  9
$DIMAPOST
  1

  9
$DIMALT
 70
     0
  9
$DIMALTD
 70
     2
  9
$DIMALTF
 40
25.399999999999999
  9
$DIMLFAC
 40
1.0
  9
$DIMTOFL
 70
     1
  9
$DIMTVP
 40
1.6000000000000001
  9
$DIMTIX
 70
     1
  9
$DIMSOXD
 70
     0
  9
$DIMSAH
 70
     0
  9
$DIMBLK1
  1

  9
$DIMBLK2
  1

  9
$DIMSTYLE
  2
STANDARD
  9
$DIMCLRD
 70
     0
  9
$DIMCLRE
 70
     0
  9
$DIMCLRT
 70
     0
  9
$DIMTFAC
 40
1.0
  9
$DIMGAP
 40
0.09
  9
$LUNITS
 70
     2
  9
$LUPREC
 70
     1
  9
$SKETCHINC
 40
0.1
  9
$FILLETRAD
 40
0.0
  9
$AUNITS
 70
     0
  9
$AUPREC
 70
     1
  9
$MENU
  1
E:\r13\win\SUPPORT\ACAD
  9
$ELEVATION
 40
0.0
  9
$PELEVATION
 40
0.0
  9
$THICKNESS
 40
0.0
  9
$LIMCHECK
 70
     0
  9
$BLIPMODE
 70
     0
  9
$CHAMFERA
 40
0.0
  9
$CHAMFERB
 40
0.0
  9
$SKPOLY
 70
     0
  9
$TDCREATE
 40
2449839.7609490738
  9
$TDUPDATE
 40
2459675.436525417
  9
$TDINDWG
 40
0.0245375347
  9
$TDUSRTIMER
 40
0.0245375347
  9
$USRTIMER
 70
     1
  9
$ANGBASE
 50
0.0
  9
$ANGDIR
 70
     0
  9
$PDMODE
 70
     0
  9
$PDSIZE
 40
0.0
  9
$PLINEWID
 40
0.0
  9
$COORDS
 70
     1
  9
$SPLFRAME
 70
     0
  9
$SPLINETYPE
 70
     6
  9
$SPLINESEGS
 70
     8
  9
$ATTDIA
 70
     0
  9
$ATTREQ
 70
     1
  9
$HANDLING
 70
     1
  9
$HANDSEED
  5
AC3
  9
$SURFTAB1
 70
     6
  9
$SURFTAB2
 70
     6
  9
$SURFTYPE
 70
     6
  9
$SURFU
 70
     6
  9
$SURFV
 70
     6
  9
$UCSNAME
  2

  9
$UCSORG
 10
0.0
 20
0.0
 30
0.0
  9
$UCSXDIR
 10
1.0
 20
0.0
 30
0.0
  9
$UCSYDIR
 10
0.0
 20
1.0
 30
0.0
  9
$PUCSNAME
  2

  9
$PUCSORG
 10
0.0
 20
0.0
 30
0.0
  9
$PUCSXDIR
 10
1.0
 20
0.0
 30
0.0
  9
$PUCSYDIR
 10
0.0
 20
1.0
 30
0.0
  9
$USERI1
 70
     0
  9
$USERI2
 70
     1
  9
$USERI3
 70
     0
  9
$USERI4
 70
     0
  9
$USERI5
 70
     0
  9
$USERR1
 40
0.0
  9
$USERR2
 40
0.0
  9
$USERR3
 40
0.0
  9
$USERR4
 40
0.0
  9
$USERR5
 40
0.0
  9
$WORLDVIEW
 70
     1
  9
$SHADEDGE
 70
     3
  9
$SHADEDIF
 70
    70
  9
$TILEMODE
 70
     1
  9
$MAXACTVP
 70
    16
  9
$PLIMCHECK
 70
     0
  9
$PEXTMIN
 10
1.0000000000000000E+020
 20
1.0000000000000000E+020
 30
1.0000000000000000E+020
  9
$PEXTMAX
 10
-1.0000000000000000E+020
 20
-1.0000000000000000E+020
 30
-1.0000000000000000E+020
  9
$PLIMMIN
 10
0.0
 20
0.0
  9
$PLIMMAX
 10
12.0
 20
9.0
  9
$UNITMODE
 70
     0
  9
$VISRETAIN
 70
     0
  9
$PLINEGEN
 70
     0
  9
$PSLTSCALE
 70
     0
  0
ENDSEC
  0
SECTION
  2
TABLES
  0
TABLE
  2
VPORT
 70
     1
  0
VPORT
  2
*ACTIVE
 70
     0
 10
0.0
 20
0.0
 11
1.0
 21
1.0
 12
284.2960288808664
 22
125.0
 13
0.0
 23
0.0
 14
10.0
 24
10.0
 15
10.0
 25
10.0
 16
0.0
 26
0.0
 36
1.0
 17
0.0
 27
0.0
 37
0.0
 40
250.0
 41
2.2743682310469309
 42
50.0
 43
0.0
 44
0.0
 50
0.0
 51
0.0
 71
     0
 72
   500
 73
     1
 74
     0
 75
     0
 76
     0
 77
     0
 78
     2
  0
ENDTAB
  0
TABLE
  2
LTYPE
 70
     3
  0
LTYPE
  2
CONTINUOUS
 70
     0
  3
Solid Line
 72
    65
 73
     0
 40
0.0
  0
LTYPE
  2
CENTER
 70
     0
  3
____ _ ____ _ ____ _ ____ _ ____ _ ____ _ ____
 72
    65
 73
     4
 40
2.0
 49
1.25
 49
-0.25
 49
0.25
 49
-0.25
  0
LTYPE
  2
PHANTOM2
 70
     0
  3
___ _ _ ___ _ _ ___ _ _ ___ _ _
 72
    65
 73
     6
 40
1.25
 49
0.625
 49
-0.125
 49
0.125
 49
-0.125
 49
0.125
 49
-0.125
  0
ENDTAB
  0
TABLE
  2
LAYER
 70
     3
  0
LAYER
  2
0
 70
     0
 62
     7
  6
CONTINUOUS
  0
LAYER
  2
1
 70
     0
 62
     1
  6
CENTER
  0
LAYER
  2
3
 70
     0
 62
     3
  6
CONTINUOUS
  0
ENDTAB
  0
TABLE
  2
STYLE
 70
     2
  0
STYLE
  2
STANDARD
 70
     0
 40
0.0
 41
1.0
 50
0.0
 71
     0
 42
0.2
  3
TXT
  4
BIGFONT
  0
STYLE
  2
STANDARD1
 70
     0
 40
0.0
 41
1.0
 50
0.0
 71
     0
 42
3.0
  3
txt
  4

  0
ENDTAB
  0
TABLE
  2
VIEW
 70
     1
  0
VIEW
  2
ALL
 70
     0
 40
270.0
 10
220.99159663865549
 20
135.0
 41
0.0
 11
0.0
 21
0.0
 31
1.0
 12
0.0
 22
0.0
 32
0.0
 42
0.0
 43
0.0
 44
0.0
 50
0.0
 71
     0
  0
ENDTAB
  0
TABLE
  2
UCS
 70
     0
  0
ENDTAB
  0
TABLE
  2
APPID
 70
     6
  0
APPID
  2
ACAD
 70
     0
  0
APPID
  2
ACAD_MLEADERVER
 70
     0
  0
APPID
  2
ACAD_EXEMPT_FROM_CAD_STANDARDS
 70
     0
  0
APPID
  2
ACAD_DSTYLE_DIMJAG
 70
     0
  0
APPID
  2
ACAD_DSTYLE_DIMTALN
 70
     0
  0
APPID
  2
ACAD_NAV_VCDISPLAY
 70
     0
  0
ENDTAB
  0
TABLE
  2
DIMSTYLE
 70
     1
  0
DIMSTYLE
  2
STANDARD
 70
     0
  3

  4

  5

  6

  7

 40
1.0
 41
0.18
 42
0.0625
 43
0.38
 44
0.18
 45
0.0
 46
0.0
 47
0.0
 48
0.0
140
0.18
141
0.09
142
0.0
143
25.399999999999999
144
1.0
145
0.0
146
1.0
147
0.09
 71
     0
 72
     0
 73
     1
 74
     1
 75
     0
 76
     0
 77
     0
 78
     0
170
     0
171
     2
172
     0
173
     0
174
     0
175
     0
176
     0
177
     0
178
     0
  0
ENDTAB
  0
ENDSEC
  0
SECTION
  2
BLOCKS
  0
BLOCK
  8
0
  2
$MODEL_SPACE
 70
     0
 10
0.0
 20
0.0
 30
0.0
  3
$MODEL_SPACE
  1

  0
ENDBLK
  5
263
  8
0
  0
BLOCK
 67
     1
  8
0
  2
$PAPER_SPACE
 70
     0
 10
0.0
 20
0.0
 30
0.0
  3
$PAPER_SPACE
  1

  0
ENDBLK
  5
261
 67
     1
  8
0
  0
ENDSEC
  0
SECTION
  2
ENTITIES
  0
LINE
  5
718
  8
1
 10
85.080769031866438
 20
121.175788390333
 30
0.0
 11
55.098980189506861
 21
121.175788390333
 31
0.0
  0
LINE
  5
719
  8
1
 10
70.08987461068665
 20
136.1666828115128
 30
0.0
 11
70.08987461068665
 21
106.18489396915319
 31
0.0
  0
ARC
  5
71A
  8
0
 10
70.08987461068665
 20
121.175788390333
 30
0.0
 40
9.5000000000000409
 50
214.03063044101549
 51
243.4746479833924
  0
ARC
  5
71B
  8
0
 10
70.08987461068665
 20
121.175788390333
 30
0.0
 40
9.5000000000000018
 50
116.5253520166098
 51
145.9151641188856
  0
LINE
  5
71C
  8
0
 10
74.332515297805912
 20
129.675788390333
 30
0.0
 11
72.367442746351173
 21
129.675788390333
 31
0.0
  0
LINE
  5
71D
  8
0
 10
67.812306475022126
 20
129.675788390333
 30
0.0
 11
65.847233923567387
 21
129.675788390333
 31
0.0
  0
ARC
  5
71E
  8
0
 10
70.08987461068665
 20
121.175788390333
 30
0.0
 40
9.5000000000000071
 50
34.030630441013827
 51
63.474647983390128
  0
ARC
  5
71F
  8
0
 10
70.08987461068665
 20
121.175788390333
 30
0.0
 40
9.5000000000000142
 50
296.52535201660987
 51
325.9151641188875
  0
LINE
  5
720
  8
0
 10
74.332515297805969
 20
112.675788390333
 30
0.0
 11
72.367442746351173
 21
112.675788390333
 31
0.0
  0
LINE
  5
721
  8
0
 10
67.812306475022126
 20
112.675788390333
 30
0.0
 11
65.847233923567387
 21
112.675788390333
 31
0.0
  0
LINE
  5
722
  8
0
 10
61.58987461068665
 20
126.1826352570947
 30
0.0
 11
61.58987461068665
 21
126.44361526675939
 31
0.0
  0
ARC
  5
723
  8
0
 10
70.08987461068665
 20
121.175788390333
 30
0.0
 40
10.000000000000011
 50
121.78833061705259
 51
148.21166938294749
  0
LINE
  5
724
  8
0
 10
64.822047734260252
 20
129.675788390333
 30
0.0
 11
65.847233923567387
 21
129.675788390333
 31
0.0
  0
LINE
  5
725
  8
0
 10
78.589874610686635
 20
116.16894152357131
 30
0.0
 11
78.589874610686635
 21
115.9079615139066
 31
0.0
  0
ARC
  5
726
  8
0
 10
70.08987461068665
 20
121.175788390333
 30
0.0
 40
10.000000000000011
 50
301.78833061705262
 51
328.21166938294931
  0
LINE
  5
727
  8
0
 10
75.357701487113033
 20
112.675788390333
 30
0.0
 11
74.332515297805969
 21
112.675788390333
 31
0.0
  0
ARC
  5
728
  8
0
 10
70.08987461068665
 20
121.175788390333
 30
0.0
 40
10.00000000000003
 50
211.7883306170524
 51
238.21166938294979
  0
LINE
  5
729
  8
0
 10
61.58987461068665
 20
115.9079615139066
 30
0.0
 11
61.58987461068665
 21
116.16894152357131
 31
0.0
  0
LINE
  5
72A
  8
0
 10
65.847233923567387
 20
112.675788390333
 30
0.0
 11
64.822047734260309
 21
112.675788390333
 31
0.0
  0
ARC
  5
72B
  8
0
 10
70.08987461068665
 20
121.175788390333
 30
0.0
 40
9.9999999999999858
 50
31.78833061705123
 51
58.211669382949793
  0
LINE
  5
72C
  8
0
 10
78.589874610686635
 20
126.44361526675939
 30
0.0
 11
78.589874610686635
 21
126.1826352570947
 31
0.0
  0
LINE
  5
72D
  8
0
 10
74.332515297805912
 20
129.675788390333
 30
0.0
 11
75.35770148711299
 21
129.675788390333
 31
0.0
  0
POLYLINE
  5
72E
  8
0
 66
     1
 10
0.0
 20
0.0
 30
0.0
 70
   128
  0
VERTEX
  5
981
  8
0
 10
61.58987461068665
 20
115.9079615139066
 30
0.0
  0
VERTEX
  5
982
  8
0
 10
61.102594849604429
 20
116.79072254179189
 30
0.0
  0
VERTEX
  5
983
  8
0
 10
60.706689534571687
 20
117.7180669111833
 30
0.0
  0
VERTEX
  5
984
  8
0
 10
60.406183868965911
 20
118.6805662321452
 30
0.0
  0
VERTEX
  5
985
  8
0
 10
60.204133119726457
 20
119.6684346913265
 30
0.0
  0
VERTEX
  5
986
  8
0
 10
60.102591554193161
 20
120.6716285451665
 30
0.0
  0
VERTEX
  5
987
  8
0
 10
60.102591554193161
 20
121.6799482354995
 30
0.0
  0
VERTEX
  5
988
  8
0
 10
60.204133119726457
 20
122.6831420893395
 30
0.0
  0
VERTEX
  5
989
  8
0
 10
60.406183868965911
 20
123.6710105485208
 30
0.0
  0
VERTEX
  5
98A
  8
0
 10
60.706689534571687
 20
124.63350986948259
 30
0.0
  0
VERTEX
  5
98B
  8
0
 10
61.102594849604429
 20
125.5608542388741
 30
0.0
  0
VERTEX
  5
98C
  8
0
 10
61.58987461068665
 20
126.44361526675939
 30
0.0
  0
SEQEND
  5
98D
  8
0
  0
POLYLINE
  5
72F
  8
0
 66
     1
 10
0.0
 20
0.0
 30
0.0
 70
   128
  0
VERTEX
  5
98E
  8
0
 10
75.357701487113033
 20
112.675788390333
 30
0.0
  0
VERTEX
  5
98F
  8
0
 10
74.474940459227867
 20
112.1885086292508
 30
0.0
  0
VERTEX
  5
990
  8
0
 10
73.547596089836361
 20
111.792603314218
 30
0.0
  0
VERTEX
  5
991
  8
0
 10
72.58509676887445
 20
111.4920976486122
 30
0.0
  0
VERTEX
  5
992
  8
0
 10
71.597228309693207
 20
111.2900468993728
 30
0.0
  0
VERTEX
  5
993
  8
0
 10
70.594034455853205
 20
111.1885053338395
 30
0.0
  0
VERTEX
  5
994
  8
0
 10
69.585714765520152
 20
111.1885053338395
 30
0.0
  0
VERTEX
  5
995
  8
0
 10
68.582520911680206
 20
111.2900468993728
 30
0.0
  0
VERTEX
  5
996
  8
0
 10
67.594652452498963
 20
111.4920976486122
 30
0.0
  0
VERTEX
  5
997
  8
0
 10
66.632153131536995
 20
111.792603314218
 30
0.0
  0
VERTEX
  5
998
  8
0
 10
65.704808762145547
 20
112.1885086292508
 30
0.0
  0
VERTEX
  5
999
  8
0
 10
64.822047734260309
 20
112.675788390333
 30
0.0
  0
SEQEND
  5
99A
  8
0
  0
POLYLINE
  5
730
  8
0
 66
     1
 10
0.0
 20
0.0
 30
0.0
 70
   128
  0
VERTEX
  5
99B
  8
0
 10
78.589874610686635
 20
126.44361526675939
 30
0.0
  0
VERTEX
  5
99C
  8
0
 10
79.07715437176887
 20
125.5608542388741
 30
0.0
  0
VERTEX
  5
99D
  8
0
 10
79.473059686801662
 20
124.63350986948259
 30
0.0
  0
VERTEX
  5
99E
  8
0
 10
79.773565352407445
 20
123.6710105485208
 30
0.0
  0
VERTEX
  5
99F
  8
0
 10
79.975616101646835
 20
122.6831420893395
 30
0.0
  0
VERTEX
  5
9A0
  8
0
 10
80.077157667180117
 20
121.6799482354995
 30
0.0
  0
VERTEX
  5
9A1
  8
0
 10
80.077157667180117
 20
120.6716285451665
 30
0.0
  0
VERTEX
  5
9A2
  8
0
 10
79.975616101646835
 20
119.6684346913265
 30
0.0
  0
VERTEX
  5
9A3
  8
0
 10
79.773565352407445
 20
118.6805662321452
 30
0.0
  0
VERTEX
  5
9A4
  8
0
 10
79.473059686801662
 20
117.7180669111834
 30
0.0
  0
VERTEX
  5
9A5
  8
0
 10
79.07715437176887
 20
116.79072254179189
 30
0.0
  0
VERTEX
  5
9A6
  8
0
 10
78.589874610686635
 20
115.9079615139066
 30
0.0
  0
SEQEND
  5
9A7
  8
0
  0
POLYLINE
  5
731
  8
0
 66
     1
 10
0.0
 20
0.0
 30
0.0
 70
   128
  0
VERTEX
  5
9A8
  8
0
 10
64.822047734260252
 20
129.675788390333
 30
0.0
  0
VERTEX
  5
9A9
  8
0
 10
65.70480876214549
 20
130.16306815141519
 30
0.0
  0
VERTEX
  5
9AA
  8
0
 10
66.632153131536938
 20
130.55897346644801
 30
0.0
  0
VERTEX
  5
9AB
  8
0
 10
67.594652452498906
 20
130.85947913205379
 30
0.0
  0
VERTEX
  5
9AC
  8
0
 10
68.582520911680092
 20
131.06152988129321
 30
0.0
  0
VERTEX
  5
9AD
  8
0
 10
69.585714765520095
 20
131.16307144682651
 30
0.0
  0
VERTEX
  5
9AE
  8
0
 10
70.594034455853134
 20
131.16307144682651
 30
0.0
  0
VERTEX
  5
9AF
  8
0
 10
71.597228309693151
 20
131.06152988129321
 30
0.0
  0
VERTEX
  5
9B0
  8
0
 10
72.585096768874337
 20
130.85947913205379
 30
0.0
  0
VERTEX
  5
9B1
  8
0
 10
73.547596089836304
 20
130.55897346644801
 30
0.0
  0
VERTEX
  5
9B2
  8
0
 10
74.474940459227753
 20
130.16306815141519
 30
0.0
  0
VERTEX
  5
9B3
  8
0
 10
75.35770148711299
 20
129.675788390333
 30
0.0
  0
SEQEND
  5
9B4
  8
0
  0
ARC
  5
732
  8
0
 10
70.08987461068665
 20
121.175788390333
 30
0.0
 40
8.4999999999999591
 50
60.000000000000419
 51
119.9999999999996
  0
LINE
  5
733
  8
0
 10
70.08987461068665
 20
130.99074296655661
 30
0.0
 11
65.839874610686707
 21
128.53700432250071
 31
0.0
  0
LINE
  5
734
  8
0
 10
74.33987461068665
 20
128.53700432250071
 30
0.0
 11
70.08987461068665
 21
130.99074296655661
 31
0.0
  0
ARC
  5
735
  8
0
 10
70.08987461068665
 20
121.175788390333
 30
0.0
 40
8.5000000000000089
 50
180.0
 51
240.0
  0
LINE
  5
736
  8
0
 10
61.58987461068665
 20
121.175788390333
 30
0.0
 11
61.58987461068665
 21
116.2683111022212
 31
0.0
  0
LINE
  5
737
  8
0
 10
61.58987461068665
 20
116.2683111022212
 30
0.0
 11
65.83987461068665
 21
113.8145724581653
 31
0.0
  0
ARC
  5
738
  8
0
 10
70.08987461068665
 20
121.175788390333
 30
0.0
 40
8.5000000000000089
 50
240.0
 51
299.9999999999996
  0
LINE
  5
739
  8
0
 10
70.08987461068665
 20
111.3608338141094
 30
0.0
 11
74.33987461068665
 21
113.8145724581653
 31
0.0
  0
LINE
  5
73A
  8
0
 10
65.83987461068665
 20
113.8145724581653
 30
0.0
 11
70.08987461068665
 21
111.3608338141094
 31
0.0
  0
LINE
  5
73B
  8
0
 10
78.589874610686635
 20
121.175788390333
 30
0.0
 11
78.589874610686635
 21
126.0832656784448
 31
0.0
  0
ARC
  5
73C
  8
0
 10
70.08987461068665
 20
121.175788390333
 30
0.0
 40
8.5
 50
0.0
 51
60.000000000000419
  0
LINE
  5
73D
  8
0
 10
78.589874610686635
 20
126.0832656784448
 30
0.0
 11
74.33987461068665
 21
128.53700432250071
 31
0.0
  0
ARC
  5
73E
  8
0
 10
70.08987461068665
 20
121.175788390333
 30
0.0
 40
8.5000000000000089
 50
299.9999999999996
 51
0.0
  0
LINE
  5
73F
  8
0
 10
78.589874610686635
 20
116.2683111022212
 30
0.0
 11
78.589874610686635
 21
121.175788390333
 31
0.0
  0
LINE
  5
740
  8
0
 10
74.33987461068665
 20
113.8145724581653
 30
0.0
 11
78.589874610686635
 21
116.2683111022212
 31
0.0
  0
ARC
  5
741
  8
0
 10
70.08987461068665
 20
121.175788390333
 30
0.0
 40
8.5
 50
119.9999999999996
 51
180.0
  0
LINE
  5
742
  8
0
 10
61.58987461068665
 20
126.0832656784448
 30
0.0
 11
61.58987461068665
 21
121.175788390333
 31
0.0
  0
LINE
  5
743
  8
0
 10
65.839874610686707
 20
128.53700432250071
 30
0.0
 11
61.58987461068665
 21
126.0832656784448
 31
0.0
  0
CIRCLE
  5
744
  8
0
 10
70.08987461068665
 20
121.175788390333
 30
0.0
 40
4.6000000000000218
  0
CIRCLE
  5
745
  8
3
 10
70.08987461068665
 20
121.175788390333
 30
0.0
 40
4.0
  0
CIRCLE
  5
746
  8
0
 10
70.08987461068665
 20
121.175788390333
 30
0.0
 40
3.4000000000000341
  0
TEXT
  5
7FF
  8
0
 62
     3
 10
0.0
 20
0.0
 30
0.0
 40
10.0
  1
BJ333-10060
  7
STANDARD1
  0
LINE
  5
85D
  8
0
 10
130.37879072186971
 20
76.375788390333042
 30
0.0
 11
122.37879072186971
 21
76.375788390333042
 31
0.0
  0
LINE
  5
85F
  8
0
 10
117.87879072186971
 20
91.175788390333054
 30
0.0
 11
119.0175747897019
 21
91.175788390333054
 31
0.0
  0
LINE
  5
860
  8
0
 10
133.74000665403739
 20
91.175788390332997
 30
0.0
 11
134.87879072186971
 21
91.175788390332997
 31
0.0
  0
LINE
  5
861
  8
0
 10
133.74000665403739
 20
77.175788390332997
 30
0.0
 11
134.87879072186971
 21
77.175788390332997
 31
0.0
  0
LINE
  5
862
  8
0
 10
117.87879072186971
 20
77.175788390333054
 30
0.0
 11
119.0175747897019
 21
77.175788390333054
 31
0.0
  0
LINE
  5
864
  8
0
 10
126.37879072186971
 20
91.175788390333054
 30
0.0
 11
133.74000665403739
 21
91.175788390332997
 31
0.0
  0
LINE
  5
865
  8
0
 10
119.0175747897019
 20
91.175788390333054
 30
0.0
 11
126.37879072186971
 21
91.175788390333054
 31
0.0
  0
POLYLINE
  5
866
  8
0
 66
     1
 10
0.0
 20
0.0
 30
0.0
 70
   128
  0
VERTEX
  5
9EE
  8
0
 10
136.1937452980934
 20
77.934977768887876
 30
0.0
  0
VERTEX
  5
9EF
  8
0
 10
134.9915893929913
 20
77.384163504633051
 30
0.0
  0
VERTEX
  5
9F0
  8
0
 10
134.36992254773051
 20
77.229398890616977
 30
0.0
  0
VERTEX
  5
9F1
  8
0
 10
133.74000665403739
 20
77.175788390332997
 30
0.0
  0
SEQEND
  5
9F2
  8
0
  0
LINE
  5
867
  8
0
 10
136.1937452980934
 20
90.416599011778175
 30
0.0
 11
136.1937452980934
 21
77.934977768887876
 31
0.0
  0
POLYLINE
  5
868
  8
0
 66
     1
 10
0.0
 20
0.0
 30
0.0
 70
   128
  0
VERTEX
  5
9F3
  8
0
 10
133.74000665403739
 20
91.175788390332997
 30
0.0
  0
VERTEX
  5
9F4
  8
0
 10
133.91449210319681
 20
91.171654242677761
 30
0.0
  0
VERTEX
  5
9F5
  8
0
 10
135.05591637940029
 20
90.945935839536375
 30
0.0
  0
VERTEX
  5
9F6
  8
0
 10
136.1937452980934
 20
90.416599011778175
 30
0.0
  0
SEQEND
  5
9F7
  8
0
  0
POLYLINE
  5
869
  8
0
 66
     1
 10
0.0
 20
0.0
 30
0.0
 70
   128
  0
VERTEX
  5
9F8
  8
0
 10
131.28626800998151
 20
90.416599011778231
 30
0.0
  0
VERTEX
  5
9F9
  8
0
 10
132.48842391508359
 20
90.967413276033
 30
0.0
  0
VERTEX
  5
9FA
  8
0
 10
133.11009076034441
 20
91.122177890049144
 30
0.0
  0
VERTEX
  5
9FB
  8
0
 10
133.74000665403739
 20
91.175788390332997
 30
0.0
  0
SEQEND
  5
9FC
  8
0
  0
LINE
  5
86A
  8
0
 10
131.28626800998151
 20
90.416599011778231
 30
0.0
 11
131.28626800998151
 21
77.934977768887876
 31
0.0
  0
POLYLINE
  5
86B
  8
0
 66
     1
 10
0.0
 20
0.0
 30
0.0
 70
   128
  0
VERTEX
  5
9FD
  8
0
 10
126.37879072186971
 20
91.175788390333054
 30
0.0
  0
VERTEX
  5
9FE
  8
0
 10
127.0465511347939
 20
91.160667991279155
 30
0.0
  0
VERTEX
  5
9FF
  8
0
 10
127.7143115477181
 20
91.115582922998641
 30
0.0
  0
VERTEX
  5
A00
  8
0
 10
128.61341192112951
 20
91.009032340485334
 30
0.0
  0
VERTEX
  5
A01
  8
0
 10
129.50814705384931
 20
90.853770130672913
 30
0.0
  0
VERTEX
  5
A02
  8
0
 10
130.40097769438111
 20
90.654085628571195
 30
0.0
  0
VERTEX
  5
A03
  8
0
 10
131.28626800998151
 20
90.416599011778231
 30
0.0
  0
SEQEND
  5
A04
  8
0
  0
POLYLINE
  5
86C
  8
0
 66
     1
 10
0.0
 20
0.0
 30
0.0
 70
   128
  0
VERTEX
  5
A05
  8
0
 10
121.4713134337579
 20
90.416599011778231
 30
0.0
  0
VERTEX
  5
A06
  8
0
 10
122.71141899596751
 20
90.738498287935869
 30
0.0
  0
VERTEX
  5
A07
  8
0
 10
124.5215767833832
 20
91.060011633063908
 30
0.0
  0
VERTEX
  5
A08
  8
0
 10
126.37879072186971
 20
91.175788390333054
 30
0.0
  0
SEQEND
  5
A09
  8
0
  0
LINE
  5
86D
  8
0
 10
121.4713134337579
 20
90.416599011778231
 30
0.0
 11
121.4713134337579
 21
77.934977768887876
 31
0.0
  0
POLYLINE
  5
86E
  8
0
 66
     1
 10
0.0
 20
0.0
 30
0.0
 70
   128
  0
VERTEX
  5
A0A
  8
0
 10
119.0175747897019
 20
91.175788390333054
 30
0.0
  0
VERTEX
  5
A0B
  8
0
 10
119.1920602388613
 20
91.171654242677874
 30
0.0
  0
VERTEX
  5
A0C
  8
0
 10
119.76327004328699
 20
91.100821644811177
 30
0.0
  0
VERTEX
  5
A0D
  8
0
 10
120.3334845150649
 20
90.945935839536418
 30
0.0
  0
VERTEX
  5
A0E
  8
0
 10
120.9051545628937
 20
90.713540992744839
 30
0.0
  0
VERTEX
  5
A0F
  8
0
 10
121.4713134337579
 20
90.416599011778231
 30
0.0
  0
SEQEND
  5
A10
  8
0
  0
POLYLINE
  5
86F
  8
0
 66
     1
 10
0.0
 20
0.0
 30
0.0
 70
   128
  0
VERTEX
  5
A11
  8
0
 10
116.56383614564611
 20
90.416599011778231
 30
0.0
  0
VERTEX
  5
A12
  8
0
 10
117.7659920507481
 20
90.967413276033
 30
0.0
  0
VERTEX
  5
A13
  8
0
 10
118.3876588960089
 20
91.122177890049144
 30
0.0
  0
VERTEX
  5
A14
  8
0
 10
119.0175747897019
 20
91.175788390333054
 30
0.0
  0
SEQEND
  5
A15
  8
0
  0
LINE
  5
870
  8
0
 10
116.56383614564611
 20
90.416599011778231
 30
0.0
 11
116.56383614564611
 21
77.934977768887876
 31
0.0
  0
POLYLINE
  5
871
  8
0
 66
     1
 10
0.0
 20
0.0
 30
0.0
 70
   128
  0
VERTEX
  5
A16
  8
0
 10
119.0175747897019
 20
77.175788390333054
 30
0.0
  0
VERTEX
  5
A17
  8
0
 10
118.8430893405426
 20
77.179922537988347
 30
0.0
  0
VERTEX
  5
A18
  8
0
 10
117.7016650643391
 20
77.405640941129747
 30
0.0
  0
VERTEX
  5
A19
  8
0
 10
116.56383614564611
 20
77.934977768887876
 30
0.0
  0
SEQEND
  5
A1A
  8
0
  0
POLYLINE
  5
872
  8
0
 66
     1
 10
0.0
 20
0.0
 30
0.0
 70
   128
  0
VERTEX
  5
A1B
  8
0
 10
133.74000665403739
 20
77.175788390332997
 30
0.0
  0
VERTEX
  5
A1C
  8
0
 10
133.56552120487811
 20
77.17992253798829
 30
0.0
  0
VERTEX
  5
A1D
  8
0
 10
132.4240969286746
 20
77.405640941129633
 30
0.0
  0
VERTEX
  5
A1E
  8
0
 10
131.28626800998151
 20
77.934977768887876
 30
0.0
  0
SEQEND
  5
A1F
  8
0
  0
POLYLINE
  5
873
  8
0
 66
     1
 10
0.0
 20
0.0
 30
0.0
 70
   128
  0
VERTEX
  5
A20
  8
0
 10
131.28626800998151
 20
77.934977768887876
 30
0.0
  0
VERTEX
  5
A21
  8
0
 10
129.52464820648129
 20
77.501105744777163
 30
0.0
  0
VERTEX
  5
A22
  8
0
 10
127.714311547718
 20
77.235993857667523
 30
0.0
  0
VERTEX
  5
A23
  8
0
 10
126.37879072186971
 20
77.175788390333054
 30
0.0
  0
SEQEND
  5
A24
  8
0
  0
LINE
  5
874
  8
0
 10
126.37879072186971
 20
77.175788390333054
 30
0.0
 11
133.74000665403739
 21
77.175788390332997
 31
0.0
  0
POLYLINE
  5
875
  8
0
 66
     1
 10
0.0
 20
0.0
 30
0.0
 70
   128
  0
VERTEX
  5
A25
  8
0
 10
121.4713134337579
 20
77.934977768887876
 30
0.0
  0
VERTEX
  5
A26
  8
0
 10
120.2691575286559
 20
77.384163504633094
 30
0.0
  0
VERTEX
  5
A27
  8
0
 10
119.64749068339511
 20
77.229398890617034
 30
0.0
  0
VERTEX
  5
A28
  8
0
 10
119.0175747897019
 20
77.175788390333054
 30
0.0
  0
SEQEND
  5
A29
  8
0
  0
LINE
  5
876
  8
0
 10
119.0175747897019
 20
77.175788390333054
 30
0.0
 11
126.37879072186971
 21
77.175788390333054
 31
0.0
  0
POLYLINE
  5
877
  8
0
 66
     1
 10
0.0
 20
0.0
 30
0.0
 70
   128
  0
VERTEX
  5
A2A
  8
0
 10
126.37879072186971
 20
77.175788390333054
 30
0.0
  0
VERTEX
  5
A2B
  8
0
 10
124.54510485891851
 20
77.288683062012893
 30
0.0
  0
VERTEX
  5
A2C
  8
0
 10
122.71141899596741
 20
77.613078492730295
 30
0.0
  0
VERTEX
  5
A2D
  8
0
 10
121.4713134337579
 20
77.934977768887876
 30
0.0
  0
SEQEND
  5
A2E
  8
0
  0
LINE
  5
87A
  8
0
 10
117.87879072186971
 20
91.175788390333054
 30
0.0
 11
116.56383614564611
 21
90.416599011778231
 31
0.0
  0
LINE
  5
87B
  8
0
 10
136.1937452980934
 20
90.416599011778175
 30
0.0
 11
134.87879072186971
 21
91.175788390332997
 31
0.0
  0
LINE
  5
87C
  8
0
 10
134.87879072186971
 20
77.175788390332997
 30
0.0
 11
136.1937452980934
 21
77.934977768887876
 31
0.0
  0
LINE
  5
87D
  8
0
 10
116.56383614564611
 20
77.934977768887876
 30
0.0
 11
117.87879072186971
 21
77.175788390333054
 31
0.0
  0
ARC
  5
87E
  8
0
 10
131.17879072186969
 20
76.375788390333042
 30
0.0
 40
0.8000000000000113
 50
90.0
 51
180.0
  0
ARC
  5
87F
  8
0
 10
121.57879072186969
 20
76.375788390333042
 30
0.0
 40
0.8000000000000113
 50
0.0
 51
90.0
  0
LINE
  5
88D
  8
0
 10
117.87879072186981
 20
69.875788390333099
 30
0.0
 11
117.87879072186981
 21
70.375788390333099
 31
0.0
  0
LINE
  5
88E
  8
0
 10
117.87879072186981
 20
70.375788390333099
 30
0.0
 11
122.1361500347505
 21
70.375788390333099
 31
0.0
  0
LINE
  5
88F
  8
0
 10
134.87879072186979
 20
70.375788390333042
 30
0.0
 11
134.87879072186979
 21
69.875788390333042
 31
0.0
  0
LINE
  5
890
  8
0
 10
130.621431408989
 20
70.375788390333071
 30
0.0
 11
134.87879072186979
 21
70.375788390333042
 31
0.0
  0
LINE
  5
891
  8
0
 10
131.64661759829619
 20
69.875788390333042
 30
0.0
 11
130.621431408989
 21
70.375788390333071
 31
0.0
  0
LINE
  5
892
  8
0
 10
122.1361500347505
 20
70.375788390333099
 30
0.0
 11
130.621431408989
 21
70.375788390333071
 31
0.0
  0
LINE
  5
893
  8
0
 10
122.1361500347505
 20
70.375788390333099
 30
0.0
 11
121.11096384544339
 21
69.875788390333099
 31
0.0
  0
LINE
  5
894
  8
0
 10
121.11096384544339
 20
60.375788390333071
 30
0.0
 11
131.6466175982961
 21
60.375788390333042
 31
0.0
  0
LINE
  5
895
  8
0
 10
121.11096384544339
 20
69.875788390333099
 30
0.0
 11
117.87879072186981
 21
69.875788390333099
 31
0.0
  0
LINE
  5
896
  8
0
 10
117.87879072186981
 20
69.875788390333099
 30
0.0
 11
117.87879072186981
 21
60.375788390333071
 31
0.0
  0
LINE
  5
897
  8
0
 10
117.87879072186981
 20
60.375788390333071
 30
0.0
 11
116.37879072186981
 21
59.509762986548651
 31
0.0
  0
LINE
  5
898
  8
0
 10
136.37879072186979
 20
59.509762986548573
 30
0.0
 11
134.87879072186979
 21
60.375788390333007
 31
0.0
  0
LINE
  5
899
  8
0
 10
134.87879072186979
 20
60.375788390333007
 30
0.0
 11
134.87879072186979
 21
69.875788390333042
 31
0.0
  0
LINE
  5
89A
  8
0
 10
134.87879072186979
 20
69.875788390333042
 30
0.0
 11
131.64661759829619
 21
69.875788390333042
 31
0.0
  0
LINE
  5
89B
  8
0
 10
131.64661759829619
 20
69.875788390333042
 30
0.0
 11
131.6466175982961
 21
60.375788390333042
 31
0.0
  0
POLYLINE
  5
89C
  8
0
 66
     1
 10
0.0
 20
0.0
 30
0.0
 70
   128
  0
VERTEX
  5
A2F
  8
0
 10
131.6466175982961
 20
60.375788390333042
 30
0.0
  0
VERTEX
  5
A30
  8
0
 10
130.76385657041089
 20
60.09445728910157
 30
0.0
  0
VERTEX
  5
A31
  8
0
 10
129.83651220101939
 20
59.865881248893793
 30
0.0
  0
VERTEX
  5
A32
  8
0
 10
128.87401288005751
 20
59.692384221963302
 30
0.0
  0
VERTEX
  5
A33
  8
0
 10
127.88614442087631
 20
59.575730167499977
 30
0.0
  0
VERTEX
  5
A34
  8
0
 10
126.8829505670363
 20
59.517105117305391
 30
0.0
  0
VERTEX
  5
A35
  8
0
 10
125.87463087670319
 20
59.517105117305391
 30
0.0
  0
VERTEX
  5
A36
  8
0
 10
124.8714370228633
 20
59.575730167499977
 30
0.0
  0
VERTEX
  5
A37
  8
0
 10
123.883568563682
 20
59.692384221963323
 30
0.0
  0
VERTEX
  5
A38
  8
0
 10
122.92106924272009
 20
59.865881248893828
 30
0.0
  0
VERTEX
  5
A39
  8
0
 10
121.9937248733286
 20
60.094457289101619
 30
0.0
  0
VERTEX
  5
A3A
  8
0
 10
121.11096384544339
 20
60.375788390333071
 30
0.0
  0
SEQEND
  5
A3B
  8
0
  0
LINE
  5
89D
  8
0
 10
121.11096384544339
 20
60.375788390333071
 30
0.0
 11
121.11096384544339
 21
69.875788390333099
 31
0.0
  0
LINE
  5
89E
  8
0
 10
135.87879072186971
 20
30.375788390332989
 30
0.0
 11
126.37879072186971
 21
30.375788390333071
 31
0.0
  0
LINE
  5
89F
  8
0
 10
126.37879072186971
 20
30.375788390333071
 30
0.0
 11
116.87879072186971
 21
30.375788390333071
 31
0.0
  0
LINE
  5
8A0
  8
0
 10
116.37879072186961
 20
30.875788390333071
 30
0.0
 11
126.37879072186971
 21
30.875788390333071
 31
0.0
  0
LINE
  5
8A1
  8
0
 10
126.37879072186971
 20
30.875788390333071
 30
0.0
 11
136.37879072186959
 21
30.875788390332978
 31
0.0
  0
LINE
  5
8A2
  8
0
 10
118.4787907218698
 20
76.375788390333071
 30
0.0
 11
134.27879072186991
 21
76.375788390333014
 31
0.0
  0
POLYLINE
  5
8A3
  8
0
 66
     1
 10
0.0
 20
0.0
 30
0.0
 70
   128
  0
VERTEX
  5
A3C
  8
0
 10
121.471313433758
 20
75.270188850264418
 30
0.0
  0
VERTEX
  5
A3D
  8
0
 10
123.29911744732421
 20
75.71720075574396
 30
0.0
  0
VERTEX
  5
A3E
  8
0
 10
125.1798677229404
 20
75.980801429340772
 30
0.0
  0
VERTEX
  5
A3F
  8
0
 10
126.4304780695679
 20
76.028821934579554
 30
0.0
  0
VERTEX
  5
A40
  8
0
 10
127.6807361672064
 20
75.972144651142656
 30
0.0
  0
VERTEX
  5
A41
  8
0
 10
128.95519729110859
 20
75.808694526521805
 30
0.0
  0
VERTEX
  5
A42
  8
0
 10
130.21472173429291
 20
75.552793644698994
 30
0.0
  0
VERTEX
  5
A43
  8
0
 10
131.28626800998171
 20
75.27018885026439
 30
0.0
  0
SEQEND
  5
A44
  8
0
  0
LINE
  5
8A4
  8
0
 10
131.28626800998171
 20
75.27018885026439
 30
0.0
 11
131.2862680099816
 21
71.481387930401723
 31
0.0
  0
LINE
  5
8A5
  8
0
 10
136.1937452980936
 20
75.270188850264333
 30
0.0
 11
136.1937452980936
 21
71.481387930401667
 31
0.0
  0
POLYLINE
  5
8A6
  8
0
 66
     1
 10
0.0
 20
0.0
 30
0.0
 70
   128
  0
VERTEX
  5
A45
  8
0
 10
131.28626800998171
 20
75.27018885026439
 30
0.0
  0
VERTEX
  5
A46
  8
0
 10
131.92435627316721
 20
75.600256232738474
 30
0.0
  0
VERTEX
  5
A47
  8
0
 10
132.57157367762031
 20
75.847292913539746
 30
0.0
  0
VERTEX
  5
A48
  8
0
 10
133.24114364789619
 20
75.995138107310254
 30
0.0
  0
VERTEX
  5
A49
  8
0
 10
133.91449210319689
 20
76.025244081163976
 30
0.0
  0
VERTEX
  5
A4A
  8
0
 10
135.05591637940049
 20
75.799525678022547
 30
0.0
  0
VERTEX
  5
A4B
  8
0
 10
136.1937452980936
 20
75.270188850264333
 30
0.0
  0
SEQEND
  5
A4C
  8
0
  0
POLYLINE
  5
8A7
  8
0
 66
     1
 10
0.0
 20
0.0
 30
0.0
 70
   128
  0
VERTEX
  5
A4D
  8
0
 10
121.471313433758
 20
71.481387930401752
 30
0.0
  0
VERTEX
  5
A4E
  8
0
 10
123.2917426822076
 20
71.035827966315253
 30
0.0
  0
VERTEX
  5
A4F
  8
0
 10
125.16463666816951
 20
70.772011184182759
 30
0.0
  0
VERTEX
  5
A50
  8
0
 10
126.41418942610289
 20
70.722705279063405
 30
0.0
  0
VERTEX
  5
A51
  8
0
 10
127.6635012969095
 20
70.777935318546042
 30
0.0
  0
VERTEX
  5
A52
  8
0
 10
128.93711416864551
 20
70.939865966334821
 30
0.0
  0
VERTEX
  5
A53
  8
0
 10
130.1958760566084
 20
71.194316677663409
 30
0.0
  0
VERTEX
  5
A54
  8
0
 10
131.2862680099816
 20
71.481387930401723
 30
0.0
  0
SEQEND
  5
A55
  8
0
  0
POLYLINE
  5
8A8
  8
0
 66
     1
 10
0.0
 20
0.0
 30
0.0
 70
   128
  0
VERTEX
  5
A56
  8
0
 10
131.2862680099816
 20
71.481387930401723
 30
0.0
  0
VERTEX
  5
A57
  8
0
 10
131.92435627316721
 20
71.151320547927639
 30
0.0
  0
VERTEX
  5
A58
  8
0
 10
132.57157367762031
 20
70.904283867126296
 30
0.0
  0
VERTEX
  5
A59
  8
0
 10
133.24114364789611
 20
70.756438673355802
 30
0.0
  0
VERTEX
  5
A5A
  8
0
 10
133.91449210319689
 20
70.72633269950208
 30
0.0
  0
VERTEX
  5
A5B
  8
0
 10
135.05591637940049
 20
70.95205110264348
 30
0.0
  0
VERTEX
  5
A5C
  8
0
 10
136.1937452980936
 20
71.481387930401667
 30
0.0
  0
SEQEND
  5
A5D
  8
0
  0
LINE
  5
8A9
  8
0
 10
116.56383614564599
 20
75.27018885026439
 30
0.0
 11
116.56383614564599
 21
71.481387930401752
 31
0.0
  0
POLYLINE
  5
8AA
  8
0
 66
     1
 10
0.0
 20
0.0
 30
0.0
 70
   128
  0
VERTEX
  5
A5E
  8
0
 10
116.56383614564599
 20
71.481387930401752
 30
0.0
  0
VERTEX
  5
A5F
  8
0
 10
117.2019244088316
 20
71.151320547927654
 30
0.0
  0
VERTEX
  5
A60
  8
0
 10
117.8491418132847
 20
70.904283867126367
 30
0.0
  0
VERTEX
  5
A61
  8
0
 10
118.51871178356051
 20
70.756438673355845
 30
0.0
  0
VERTEX
  5
A62
  8
0
 10
119.1920602388613
 20
70.726332699502123
 30
0.0
  0
VERTEX
  5
A63
  8
0
 10
120.3334845150649
 20
70.952051102643566
 30
0.0
  0
VERTEX
  5
A64
  8
0
 10
121.471313433758
 20
71.481387930401752
 30
0.0
  0
SEQEND
  5
A65
  8
0
  0
LINE
  5
8AB
  8
0
 10
121.471313433758
 20
75.270188850264418
 30
0.0
 11
121.471313433758
 21
71.481387930401752
 31
0.0
  0
POLYLINE
  5
8AC
  8
0
 66
     1
 10
0.0
 20
0.0
 30
0.0
 70
   128
  0
VERTEX
  5
A66
  8
0
 10
116.56383614564599
 20
75.27018885026439
 30
0.0
  0
VERTEX
  5
A67
  8
0
 10
117.2019244088316
 20
75.600256232738502
 30
0.0
  0
VERTEX
  5
A68
  8
0
 10
117.8491418132847
 20
75.847292913539775
 30
0.0
  0
VERTEX
  5
A69
  8
0
 10
118.5187117835606
 20
75.995138107310282
 30
0.0
  0
VERTEX
  5
A6A
  8
0
 10
119.1920602388613
 20
76.025244081164033
 30
0.0
  0
VERTEX
  5
A6B
  8
0
 10
120.3334845150649
 20
75.799525678022604
 30
0.0
  0
VERTEX
  5
A6C
  8
0
 10
121.471313433758
 20
75.270188850264418
 30
0.0
  0
SEQEND
  5
A6D
  8
0
  0
LINE
  5
8AD
  8
0
 10
122.87879072186961
 20
15.875788390333041
 30
0.0
 11
126.37879072186961
 21
15.875788390333041
 31
0.0
  0
LINE
  5
8AE
  8
0
 10
126.37879072186961
 20
15.875788390333041
 30
0.0
 11
129.87879072186959
 21
15.875788390333041
 31
0.0
  0
LINE
  5
8AF
  8
0
 10
121.37879072186961
 20
17.375788390333039
 30
0.0
 11
126.37879072186961
 21
17.375788390333039
 31
0.0
  0
LINE
  5
8B0
  8
0
 10
126.37879072186961
 20
17.375788390333039
 30
0.0
 11
131.37879072186959
 21
17.37578839033301
 31
0.0
  0
LINE
  5
8B1
  8
0
 10
116.37879072186981
 20
59.509762986548651
 30
0.0
 11
116.37879072186961
 21
30.875788390333071
 31
0.0
  0
LINE
  5
8B2
  8
0
 10
136.37879072186959
 20
30.875788390332978
 30
0.0
 11
136.37879072186979
 21
59.509762986548573
 31
0.0
  0
LINE
  5
8B3
  8
0
 10
135.87879072186971
 20
30.375788390332989
 30
0.0
 11
136.37879072186959
 21
30.875788390332978
 31
0.0
  0
LINE
  5
8B4
  8
0
 10
116.37879072186961
 20
30.875788390333071
 30
0.0
 11
116.87879072186971
 21
30.375788390333071
 31
0.0
  0
LINE
  5
8B5
  8
0
 10
118.4787907218698
 20
76.375788390333071
 30
0.0
 11
116.56383614564599
 21
75.27018885026439
 31
0.0
  0
LINE
  5
8B6
  8
0
 10
136.1937452980936
 20
75.270188850264333
 30
0.0
 11
134.27879072186991
 21
76.375788390333014
 31
0.0
  0
LINE
  5
8B7
  8
0
 10
134.2787907218698
 20
70.375788390333042
 30
0.0
 11
136.1937452980936
 21
71.481387930401667
 31
0.0
  0
LINE
  5
8B8
  8
0
 10
116.56383614564599
 20
71.481387930401752
 30
0.0
 11
118.4787907218698
 21
70.375788390333099
 31
0.0
  0
LINE
  5
8B9
  8
0
 10
131.37879072186959
 20
17.37578839033301
 30
0.0
 11
131.37879072186971
 21
30.375788390333039
 31
0.0
  0
LINE
  5
8BA
  8
0
 10
121.37879072186971
 20
30.375788390333071
 30
0.0
 11
121.37879072186961
 21
17.375788390333039
 31
0.0
  0
LINE
  5
8BB
  8
0
 10
129.87879072186959
 20
15.875788390333041
 30
0.0
 11
131.37879072186959
 21
17.37578839033301
 31
0.0
  0
LINE
  5
8BC
  8
0
 10
121.37879072186961
 20
17.375788390333039
 30
0.0
 11
122.87879072186961
 21
15.875788390333041
 31
0.0
  0
LINE
  5
8BD
  8
1
 10
126.37879072186961
 20
10.87578839033301
 30
0.0
 11
126.37879072186951
 21
96.175788390333011
 31
0.0
  0
LINE
  5
8BE
  8
3
 10
122.1907907218696
 20
30.375788390333039
 30
0.0
 11
122.1907907218696
 21
16.563788390333031
 31
0.0
  0
LINE
  5
8BF
  8
3
 10
130.56679072186961
 20
30.375788390333099
 30
0.0
 11
130.56679072186961
 21
16.563788390333031
 31
0.0
  0
LINE
  5
8CF
  8
0
 10
74.089874610686294
 20
76.375788390333042
 30
0.0
 11
66.089874610686294
 21
76.375788390333042
 31
0.0
  0
LINE
  5
8D2
  8
0
 10
74.339874610686238
 20
91.175788390333054
 30
0.0
 11
78.589874610686167
 21
91.175788390333054
 31
0.0
  0
LINE
  5
8D3
  8
0
 10
78.589874610686167
 20
90.416599011778274
 30
0.0
 11
78.589874610686167
 21
91.175788390333054
 31
0.0
  0
LINE
  5
8D4
  8
0
 10
61.589874610686181
 20
91.175788390332997
 30
0.0
 11
65.839874610686223
 21
91.175788390332997
 31
0.0
  0
LINE
  5
8D5
  8
0
 10
61.589874610686181
 20
91.175788390332997
 30
0.0
 11
61.589874610686181
 21
90.416599011778175
 31
0.0
  0
LINE
  5
8D6
  8
0
 10
74.339874610686294
 20
77.175788390333111
 30
0.0
 11
78.58987461068628
 21
77.175788390333111
 31
0.0
  0
LINE
  5
8D7
  8
0
 10
78.58987461068628
 20
77.175788390333111
 30
0.0
 11
78.58987461068628
 21
77.934977768887975
 31
0.0
  0
LINE
  5
8D8
  8
0
 10
61.589874610686302
 20
77.175788390332997
 30
0.0
 11
65.839874610686294
 21
77.175788390333054
 31
0.0
  0
LINE
  5
8D9
  8
0
 10
61.589874610686302
 20
77.934977768887819
 30
0.0
 11
61.589874610686302
 21
77.175788390332997
 31
0.0
  0
LINE
  5
8DA
  8
0
 10
65.839874610686223
 20
91.175788390332997
 30
0.0
 11
74.339874610686238
 21
91.175788390333054
 31
0.0
  0
POLYLINE
  5
8DB
  8
0
 66
     1
 10
0.0
 20
0.0
 30
0.0
 70
   128
  0
VERTEX
  5
A6E
  8
0
 10
78.58987461068628
 20
77.934977768887975
 30
0.0
  0
VERTEX
  5
A6F
  8
0
 10
76.507679504430641
 20
77.384163504633094
 30
0.0
  0
VERTEX
  5
A70
  8
0
 10
75.430920943057956
 20
77.229398890617034
 30
0.0
  0
VERTEX
  5
A71
  8
0
 10
74.339874610686294
 20
77.175788390333111
 30
0.0
  0
SEQEND
  5
A72
  8
0
  0
LINE
  5
8DC
  8
0
 10
78.589874610686167
 20
90.416599011778274
 30
0.0
 11
78.58987461068628
 21
77.934977768887975
 31
0.0
  0
POLYLINE
  5
8DD
  8
0
 66
     1
 10
0.0
 20
0.0
 30
0.0
 70
   128
  0
VERTEX
  5
A73
  8
0
 10
74.339874610686238
 20
91.175788390333054
 30
0.0
  0
VERTEX
  5
A74
  8
0
 10
74.642092273811599
 20
91.171654242677874
 30
0.0
  0
VERTEX
  5
A75
  8
0
 10
76.619097113188644
 20
90.945935839536475
 30
0.0
  0
VERTEX
  5
A76
  8
0
 10
78.589874610686167
 20
90.416599011778274
 30
0.0
  0
SEQEND
  5
A77
  8
0
  0
POLYLINE
  5
8DE
  8
0
 66
     1
 10
0.0
 20
0.0
 30
0.0
 70
   128
  0
VERTEX
  5
A78
  8
0
 10
70.089874610686181
 20
90.416599011778231
 30
0.0
  0
VERTEX
  5
A79
  8
0
 10
72.172069716941891
 20
90.967413276033
 30
0.0
  0
VERTEX
  5
A7A
  8
0
 10
73.248828278314576
 20
91.122177890049144
 30
0.0
  0
VERTEX
  5
A7B
  8
0
 10
74.339874610686238
 20
91.175788390333054
 30
0.0
  0
SEQEND
  5
A7C
  8
0
  0
LINE
  5
8DF
  8
0
 10
70.089874610686181
 20
90.416599011778231
 30
0.0
 11
70.089874610686294
 21
77.934977768887876
 31
0.0
  0
POLYLINE
  5
8E0
  8
0
 66
     1
 10
0.0
 20
0.0
 30
0.0
 70
   128
  0
VERTEX
  5
A7D
  8
0
 10
65.839874610686223
 20
91.175788390332997
 30
0.0
  0
VERTEX
  5
A7E
  8
0
 10
66.142092273811585
 20
91.171654242677803
 30
0.0
  0
VERTEX
  5
A7F
  8
0
 10
68.119097113188658
 20
90.945935839536418
 30
0.0
  0
VERTEX
  5
A80
  8
0
 10
70.089874610686181
 20
90.416599011778231
 30
0.0
  0
SEQEND
  5
A81
  8
0
  0
POLYLINE
  5
8E1
  8
0
 66
     1
 10
0.0
 20
0.0
 30
0.0
 70
   128
  0
VERTEX
  5
A82
  8
0
 10
61.589874610686181
 20
90.416599011778175
 30
0.0
  0
VERTEX
  5
A83
  8
0
 10
63.672069716941891
 20
90.967413276033
 30
0.0
  0
VERTEX
  5
A84
  8
0
 10
64.748828278314519
 20
91.122177890049059
 30
0.0
  0
VERTEX
  5
A85
  8
0
 10
65.839874610686223
 20
91.175788390332997
 30
0.0
  0
SEQEND
  5
A86
  8
0
  0
LINE
  5
8E2
  8
0
 10
61.589874610686181
 20
90.416599011778175
 30
0.0
 11
61.589874610686302
 21
77.934977768887819
 31
0.0
  0
POLYLINE
  5
8E3
  8
0
 66
     1
 10
0.0
 20
0.0
 30
0.0
 70
   128
  0
VERTEX
  5
A87
  8
0
 10
65.839874610686294
 20
77.175788390333054
 30
0.0
  0
VERTEX
  5
A88
  8
0
 10
65.537656947560876
 20
77.17992253798829
 30
0.0
  0
VERTEX
  5
A89
  8
0
 10
63.560652108183817
 20
77.405640941129633
 30
0.0
  0
VERTEX
  5
A8A
  8
0
 10
61.589874610686302
 20
77.934977768887819
 30
0.0
  0
SEQEND
  5
A8B
  8
0
  0
POLYLINE
  5
8E4
  8
0
 66
     1
 10
0.0
 20
0.0
 30
0.0
 70
   128
  0
VERTEX
  5
A8C
  8
0
 10
74.339874610686294
 20
77.175788390333111
 30
0.0
  0
VERTEX
  5
A8D
  8
0
 10
74.037656947560876
 20
77.179922537988347
 30
0.0
  0
VERTEX
  5
A8E
  8
0
 10
72.060652108183817
 20
77.405640941129747
 30
0.0
  0
VERTEX
  5
A8F
  8
0
 10
70.089874610686294
 20
77.934977768887876
 30
0.0
  0
SEQEND
  5
A90
  8
0
  0
POLYLINE
  5
8E5
  8
0
 66
     1
 10
0.0
 20
0.0
 30
0.0
 70
   128
  0
VERTEX
  5
A91
  8
0
 10
70.089874610686294
 20
77.934977768887876
 30
0.0
  0
VERTEX
  5
A92
  8
0
 10
68.007679504430641
 20
77.384163504633051
 30
0.0
  0
VERTEX
  5
A93
  8
0
 10
66.930920943057956
 20
77.229398890616977
 30
0.0
  0
VERTEX
  5
A94
  8
0
 10
65.839874610686294
 20
77.175788390333054
 30
0.0
  0
SEQEND
  5
A95
  8
0
  0
LINE
  5
8E6
  8
0
 10
65.839874610686294
 20
77.175788390333054
 30
0.0
 11
74.339874610686294
 21
77.175788390333111
 31
0.0
  0
ARC
  5
8E9
  8
0
 10
74.889874610686306
 20
76.375788390333042
 30
0.0
 40
0.8000000000000113
 50
90.000000000003254
 51
180.0
  0
ARC
  5
8EA
  8
0
 10
65.289874610686283
 20
76.375788390333042
 30
0.0
 40
0.8000000000000113
 50
0.0
 51
90.0
  0
LINE
  5
8F4
  8
0
 10
78.589874610686252
 20
70.375788390333113
 30
0.0
 11
78.589874610686252
 21
69.875788390333128
 31
0.0
  0
LINE
  5
8F5
  8
0
 10
74.332515297805571
 20
70.375788390333099
 30
0.0
 11
78.589874610686252
 21
70.375788390333113
 31
0.0
  0
LINE
  5
8F6
  8
0
 10
61.589874610686252
 20
70.375788390333014
 30
0.0
 11
65.847233923567046
 21
70.375788390333042
 31
0.0
  0
LINE
  5
8F7
  8
0
 10
61.589874610686252
 20
69.875788390332986
 30
0.0
 11
61.589874610686252
 21
70.375788390333014
 31
0.0
  0
LINE
  5
8F8
  8
0
 10
75.357701487112635
 20
69.875788390333099
 30
0.0
 11
74.332515297805571
 21
70.375788390333099
 31
0.0
  0
LINE
  5
8F9
  8
0
 10
65.847233923567046
 20
70.375788390333042
 30
0.0
 11
74.332515297805571
 21
70.375788390333099
 31
0.0
  0
LINE
  5
8FA
  8
0
 10
65.847233923567046
 20
70.375788390333042
 30
0.0
 11
64.822047734259968
 21
69.875788390333042
 31
0.0
  0
LINE
  5
8FB
  8
0
 10
64.822047734260025
 20
60.375788390333007
 30
0.0
 11
75.357701487112706
 21
60.375788390333099
 31
0.0
  0
LINE
  5
8FC
  8
0
 10
79.589874610686536
 20
30.375788390333099
 30
0.0
 11
60.589874610686529
 21
30.375788390332961
 31
0.0
  0
LINE
  5
8FD
  8
0
 10
80.089874610686309
 20
59.509762986548651
 30
0.0
 11
78.589874610686309
 21
60.375788390333099
 31
0.0
  0
LINE
  5
8FE
  8
0
 10
78.589874610686309
 20
60.375788390333099
 30
0.0
 11
78.589874610686252
 21
69.875788390333128
 31
0.0
  0
LINE
  5
8FF
  8
0
 10
78.589874610686252
 20
69.875788390333128
 30
0.0
 11
75.357701487112635
 21
69.875788390333099
 31
0.0
  0
LINE
  5
900
  8
0
 10
75.357701487112635
 20
69.875788390333099
 30
0.0
 11
75.357701487112706
 21
60.375788390333099
 31
0.0
  0
POLYLINE
  5
901
  8
0
 66
     1
 10
0.0
 20
0.0
 30
0.0
 70
   128
  0
VERTEX
  5
A96
  8
0
 10
75.357701487112706
 20
60.375788390333099
 30
0.0
  0
VERTEX
  5
A97
  8
0
 10
74.474940459227525
 20
60.094457289101619
 30
0.0
  0
VERTEX
  5
A98
  8
0
 10
73.54759608983602
 20
59.865881248893828
 30
0.0
  0
VERTEX
  5
A99
  8
0
 10
72.585096768874109
 20
59.692384221963323
 30
0.0
  0
VERTEX
  5
A9A
  8
0
 10
71.597228309692866
 20
59.575730167499977
 30
0.0
  0
VERTEX
  5
A9B
  8
0
 10
70.594034455852864
 20
59.517105117305391
 30
0.0
  0
VERTEX
  5
A9C
  8
0
 10
69.585714765519867
 20
59.517105117305363
 30
0.0
  0
VERTEX
  5
A9D
  8
0
 10
68.582520911679865
 20
59.575730167499977
 30
0.0
  0
VERTEX
  5
A9E
  8
0
 10
67.594652452498622
 20
59.692384221963302
 30
0.0
  0
VERTEX
  5
A9F
  8
0
 10
66.632153131536711
 20
59.865881248893793
 30
0.0
  0
VERTEX
  5
AA0
  8
0
 10
65.704808762145205
 20
60.09445728910157
 30
0.0
  0
VERTEX
  5
AA1
  8
0
 10
64.822047734260025
 20
60.375788390333007
 30
0.0
  0
SEQEND
  5
AA2
  8
0
  0
LINE
  5
902
  8
0
 10
64.822047734260025
 20
60.375788390333007
 30
0.0
 11
64.822047734259968
 21
69.875788390333042
 31
0.0
  0
LINE
  5
903
  8
0
 10
64.822047734259968
 20
69.875788390333042
 30
0.0
 11
61.589874610686252
 21
69.875788390332986
 31
0.0
  0
LINE
  5
904
  8
0
 10
61.589874610686252
 20
69.875788390332986
 30
0.0
 11
61.589874610686309
 21
60.375788390332978
 31
0.0
  0
LINE
  5
905
  8
0
 10
61.589874610686309
 20
60.375788390332978
 30
0.0
 11
60.089874610686358
 21
59.509762986548537
 31
0.0
  0
LINE
  5
906
  8
0
 10
60.089874610686529
 20
30.875788390332961
 30
0.0
 11
80.089874610686536
 21
30.875788390333099
 31
0.0
  0
LINE
  5
907
  8
0
 10
62.189874610686211
 20
76.375788390332986
 30
0.0
 11
77.989874610686229
 21
76.375788390333085
 31
0.0
  0
LINE
  5
908
  8
0
 10
78.589874610686309
 20
75.270188850264447
 30
0.0
 11
78.589874610686309
 21
76.028625715979615
 31
0.0
  0
LINE
  5
909
  8
0
 10
61.589874610686138
 20
75.270188850264333
 30
0.0
 11
61.589874610686138
 21
76.028821934579469
 31
0.0
  0
LINE
  5
90A
  8
0
 10
61.589874610686138
 20
75.270188850264333
 30
0.0
 11
61.589874610686188
 21
71.481387930401667
 31
0.0
  0
POLYLINE
  5
90B
  8
0
 66
     1
 10
0.0
 20
0.0
 30
0.0
 70
   128
  0
VERTEX
  5
AA3
  8
0
 10
61.589874610686138
 20
75.270188850264333
 30
0.0
  0
VERTEX
  5
AA4
  8
0
 10
62.695075902236852
 20
75.600256232738417
 30
0.0
  0
VERTEX
  5
AA5
  8
0
 10
63.816089330292471
 20
75.847292913539718
 30
0.0
  0
VERTEX
  5
AA6
  8
0
 10
64.975818538032627
 20
75.995138107310225
 30
0.0
  0
VERTEX
  5
AA7
  8
0
 10
66.142092273811613
 20
76.025244081163976
 30
0.0
  0
VERTEX
  5
AA8
  8
0
 10
68.119097113188673
 20
75.799525678022576
 30
0.0
  0
VERTEX
  5
AA9
  8
0
 10
70.089874610686252
 20
75.270188850264418
 30
0.0
  0
SEQEND
  5
AAA
  8
0
  0
LINE
  5
90C
  8
0
 10
70.089874610686252
 20
75.270188850264418
 30
0.0
 11
70.089874610686252
 21
71.481387930401752
 31
0.0
  0
LINE
  5
90D
  8
0
 10
78.589874610686309
 20
75.270188850264447
 30
0.0
 11
78.589874610686309
 21
71.48138793040178
 31
0.0
  0
POLYLINE
  5
90E
  8
0
 66
     1
 10
0.0
 20
0.0
 30
0.0
 70
   128
  0
VERTEX
  5
AAB
  8
0
 10
70.089874610686252
 20
75.270188850264418
 30
0.0
  0
VERTEX
  5
AAC
  8
0
 10
71.195075902236965
 20
75.600256232738502
 30
0.0
  0
VERTEX
  5
AAD
  8
0
 10
72.316089330292584
 20
75.847292913539803
 30
0.0
  0
VERTEX
  5
AAE
  8
0
 10
73.475818538032684
 20
75.995138107310311
 30
0.0
  0
VERTEX
  5
AAF
  8
0
 10
74.64209227381167
 20
76.025244081164033
 30
0.0
  0
VERTEX
  5
AB0
  8
0
 10
76.61909711318873
 20
75.799525678022633
 30
0.0
  0
VERTEX
  5
AB1
  8
0
 10
78.589874610686309
 20
75.270188850264447
 30
0.0
  0
SEQEND
  5
AB2
  8
0
  0
LINE
  5
90F
  8
0
 10
61.589874610686188
 20
71.481387930401667
 30
0.0
 11
61.589874610686188
 21
70.722705279063319
 31
0.0
  0
LINE
  5
910
  8
0
 10
78.589874610686309
 20
71.48138793040178
 30
0.0
 11
78.589874610686309
 21
70.722865899910175
 31
0.0
  0
POLYLINE
  5
911
  8
0
 66
     1
 10
0.0
 20
0.0
 30
0.0
 70
   128
  0
VERTEX
  5
AB3
  8
0
 10
70.089874610686252
 20
71.481387930401752
 30
0.0
  0
VERTEX
  5
AB4
  8
0
 10
71.195075902236965
 20
71.151320547927654
 30
0.0
  0
VERTEX
  5
AB5
  8
0
 10
72.316089330292584
 20
70.904283867126367
 30
0.0
  0
VERTEX
  5
AB6
  8
0
 10
73.47581853803274
 20
70.756438673355845
 30
0.0
  0
VERTEX
  5
AB7
  8
0
 10
74.642092273811727
 20
70.726332699502123
 30
0.0
  0
VERTEX
  5
AB8
  8
0
 10
76.619097113188786
 20
70.952051102643566
 30
0.0
  0
VERTEX
  5
AB9
  8
0
 10
78.589874610686309
 20
71.48138793040178
 30
0.0
  0
SEQEND
  5
ABA
  8
0
  0
POLYLINE
  5
912
  8
0
 66
     1
 10
0.0
 20
0.0
 30
0.0
 70
   128
  0
VERTEX
  5
ABB
  8
0
 10
61.589874610686188
 20
71.481387930401667
 30
0.0
  0
VERTEX
  5
ABC
  8
0
 10
62.695075902236908
 20
71.151320547927611
 30
0.0
  0
VERTEX
  5
ABD
  8
0
 10
63.81608933029252
 20
70.904283867126296
 30
0.0
  0
VERTEX
  5
ABE
  8
0
 10
64.975818538032684
 20
70.756438673355802
 30
0.0
  0
VERTEX
  5
ABF
  8
0
 10
66.14209227381167
 20
70.72633269950208
 30
0.0
  0
VERTEX
  5
AC0
  8
0
 10
68.119097113188673
 20
70.952051102643509
 30
0.0
  0
VERTEX
  5
AC1
  8
0
 10
70.089874610686252
 20
71.481387930401752
 30
0.0
  0
SEQEND
  5
AC2
  8
0
  0
LINE
  5
913
  8
0
 10
66.58987461068665
 20
15.87578839033301
 30
0.0
 11
73.589874610686635
 21
15.875788390333071
 31
0.0
  0
LINE
  5
914
  8
0
 10
65.08987461068665
 20
17.375788390332978
 30
0.0
 11
75.08987461068665
 21
17.375788390333071
 31
0.0
  0
LINE
  5
915
  8
0
 10
79.589874610686536
 20
30.375788390333099
 30
0.0
 11
80.089874610686536
 21
30.875788390333099
 31
0.0
  0
LINE
  5
916
  8
0
 10
60.089874610686529
 20
30.875788390332961
 30
0.0
 11
60.589874610686529
 21
30.375788390332961
 31
0.0
  0
LINE
  5
917
  8
0
 10
60.089874610686358
 20
59.509762986548537
 30
0.0
 11
60.089874610686529
 21
30.875788390332961
 31
0.0
  0
LINE
  5
918
  8
0
 10
80.089874610686536
 20
30.875788390333099
 30
0.0
 11
80.089874610686309
 21
59.509762986548651
 31
0.0
  0
LINE
  5
919
  8
0
 10
62.189874610686211
 20
76.375788390332986
 30
0.0
 11
61.589874610686138
 21
76.029378228819155
 31
0.0
  0
LINE
  5
91A
  8
0
 10
78.589874610686309
 20
76.029378228819297
 30
0.0
 11
77.989874610686229
 21
76.375788390333085
 31
0.0
  0
LINE
  5
91B
  8
0
 10
77.989874610686286
 20
70.375788390333099
 30
0.0
 11
78.589874610686309
 21
70.722198551846901
 31
0.0
  0
LINE
  5
91C
  8
0
 10
61.589874610686188
 20
70.722198551846787
 30
0.0
 11
62.189874610686211
 21
70.375788390332986
 31
0.0
  0
LINE
  5
91D
  8
0
 10
75.08987461068665
 20
17.375788390333071
 30
0.0
 11
75.089874610686536
 21
30.375788390333099
 31
0.0
  0
LINE
  5
91E
  8
0
 10
65.089874610686536
 20
30.37578839033301
 30
0.0
 11
65.08987461068665
 21
17.375788390332978
 31
0.0
  0
LINE
  5
91F
  8
0
 10
73.589874610686635
 20
15.875788390333071
 30
0.0
 11
75.08987461068665
 21
17.375788390333071
 31
0.0
  0
LINE
  5
920
  8
0
 10
65.08987461068665
 20
17.375788390332978
 30
0.0
 11
66.58987461068665
 21
15.87578839033301
 31
0.0
  0
LINE
  5
921
  8
1
 10
70.08987461068665
 20
10.87578839033301
 30
0.0
 11
70.089874610686664
 21
96.175788390333011
 31
0.0
  0
LINE
  5
922
  8
3
 10
65.901874610686619
 20
30.375788390333039
 30
0.0
 11
65.901874610686619
 21
16.563788390333031
 31
0.0
  0
LINE
  5
923
  8
3
 10
74.277874610686624
 20
30.375788390333099
 30
0.0
 11
74.277874610686624
 21
16.563788390333031
 31
0.0
  0
LINE
  5
95D
  8
3
 10
64.822047734259968
 20
69.875788390333042
 30
0.0
 11
75.357701487112706
 21
60.375788390333099
 31
0.0
  0
LINE
  5
95E
  8
3
 10
75.357701487112635
 20
69.875788390333099
 30
0.0
 11
64.822047734260025
 21
60.375788390333007
 31
0.0
  0
LINE
  5
95F
  8
3
 10
121.11096384544339
 20
69.875788390333099
 30
0.0
 11
131.6466175982961
 21
60.375788390333042
 31
0.0
  0
LINE
  5
960
  8
3
 10
131.64661759829619
 20
69.875788390333042
 30
0.0
 11
121.11096384544339
 21
60.375788390333071
 31
0.0
  0
ENDSEC
  0
EOF
