  0
SECTION
  2
HEADER
  9
$ACADVER
  1
AC1009
  9
$INSBASE
 10
0.0
 20
0.0
 30
0.0
  9
$EXTMIN
 10
0.0
 20
-2.960436562073669
 30
0.0
  9
$EXTMAX
 10
117.6537638026615014
 20
208.7438258703008103
 30
0.0
  9
$LIMMIN
 10
0.0
 20
0.0
  9
$LIMMAX
 10
390.0
 20
270.0
  9
$ORTHOMODE
 70
     1
  9
$REGENMODE
 70
     1
  9
$FILLMODE
 70
     1
  9
$QTEXTMODE
 70
     0
  9
$MIRRTEXT
 70
     0
  9
$DRAGMODE
 70
     2
  9
$LTSCALE
 40
5.0
  9
$OSMODE
 70
    37
  9
$ATTMODE
 70
     1
  9
$TEXTSIZE
 40
2.5
  9
$TRACEWID
 40
1.0
  9
$TEXTSTYLE
  7
STANDARD
  9
$CLAYER
  8
4
  9
$CELTYPE
  6
BYLAYER
  9
$CECOLOR
 62
   256
  9
$DIMSCALE
 40
1.5
  9
$DIMASZ
 40
3.0
  9
$DIMEXO
 40
1.0
  9
$DIMDLI
 40
6.0
  9
$DIMRND
 40
0.0
  9
$DIMDLE
 40
0.0
  9
$DIMEXE
 40
1.0
  9
$DIMTP
 40
495.0
  9
$DIMTM
 40
0.0
  9
$DIMTXT
 40
3.2000000000000002
  9
$DIMCEN
 40
0.0
  9
$DIMTSZ
 40
0.0
  9
$DIMTOL
 70
     0
  9
$DIMLIM
 70
     0
  9
$DIMTIH
 70
     0
  9
$DIMTOH
 70
     0
  9
$DIMSE1
 70
     0
  9
$DIMSE2
 70
     0
  9
$DIMTAD
 70
     1
  9
$DIMZIN
 70
     0
  9
$DIMBLK
  1

  9
$DIMASO
 70
     0
  9
$DIMSHO
 70
     1
  9
$DIMPOST
  1

  9
$DIMAPOST
  1

  9
$DIMALT
 70
     0
  9
$DIMALTD
 70
     2
  9
$DIMALTF
 40
25.3999999999999986
  9
$DIMLFAC
 40
1.0
  9
$DIMTOFL
 70
     1
  9
$DIMTVP
 40
0.0
  9
$DIMTIX
 70
     1
  9
$DIMSOXD
 70
     0
  9
$DIMSAH
 70
     0
  9
$DIMBLK1
  1

  9
$DIMBLK2
  1

  9
$DIMSTYLE
  2
ITM
  9
$DIMCLRD
 70
   256
  9
$DIMCLRE
 70
   256
  9
$DIMCLRT
 70
   256
  9
$DIMTFAC
 40
1.0
  9
$DIMGAP
 40
1.0
  9
$LUNITS
 70
     2
  9
$LUPREC
 70
     2
  9
$SKETCHINC
 40
1.0
  9
$FILLETRAD
 40
0.4
  9
$AUNITS
 70
     0
  9
$AUPREC
 70
     0
  9
$MENU
  1
.
  9
$ELEVATION
 40
0.0
  9
$PELEVATION
 40
0.0
  9
$THICKNESS
 40
0.0
  9
$LIMCHECK
 70
     0
  9
$BLIPMODE
 70
     0
  9
$CHAMFERA
 40
1.1999999999999991
  9
$CHAMFERB
 40
1.1999999999999991
  9
$SKPOLY
 70
     0
  9
$TDCREATE
 40
2453354.0921180560253561
  9
$TDUPDATE
 40
2460549.3707870370708406
  9
$TDINDWG
 40
513.411271608800007
  9
$TDUSRTIMER
 40
513.4109936342999845
  9
$USRTIMER
 70
     1
  9
$ANGBASE
 50
0.0
  9
$ANGDIR
 70
     0
  9
$PDMODE
 70
     0
  9
$PDSIZE
 40
0.0
  9
$PLINEWID
 40
0.0
  9
$COORDS
 70
     1
  9
$SPLFRAME
 70
     0
  9
$SPLINETYPE
 70
     6
  9
$SPLINESEGS
 70
     8
  9
$ATTDIA
 70
     1
  9
$ATTREQ
 70
     1
  9
$HANDLING
 70
     1
  9
$HANDSEED
  5
59E
  9
$SURFTAB1
 70
     6
  9
$SURFTAB2
 70
     6
  9
$SURFTYPE
 70
     6
  9
$SURFU
 70
     6
  9
$SURFV
 70
     6
  9
$UCSNAME
  2

  9
$UCSORG
 10
0.0
 20
0.0
 30
0.0
  9
$UCSXDIR
 10
1.0
 20
0.0
 30
0.0
  9
$UCSYDIR
 10
0.0
 20
1.0
 30
0.0
  9
$PUCSNAME
  2

  9
$PUCSORG
 10
0.0
 20
0.0
 30
0.0
  9
$PUCSXDIR
 10
1.0
 20
0.0
 30
0.0
  9
$PUCSYDIR
 10
0.0
 20
1.0
 30
0.0
  9
$USERI1
 70
     4
  9
$USERI2
 70
     1
  9
$USERI3
 70
     1
  9
$USERI4
 70
     0
  9
$USERI5
 70
     0
  9
$USERR1
 40
1.0
  9
$USERR2
 40
3.0
  9
$USERR3
 40
3.2000000000000002
  9
$USERR4
 40
3.0
  9
$USERR5
 40
10.0
  9
$WORLDVIEW
 70
     1
  9
$SHADEDGE
 70
     3
  9
$SHADEDIF
 70
    70
  9
$TILEMODE
 70
     1
  9
$MAXACTVP
 70
    16
  9
$PLIMCHECK
 70
     0
  9
$PEXTMIN
 10
0.0
 20
0.0
 30
0.0
  9
$PEXTMAX
 10
0.0
 20
0.0
 30
0.0
  9
$PLIMMIN
 10
0.0
 20
0.0
  9
$PLIMMAX
 10
12.0
 20
9.0
  9
$UNITMODE
 70
     0
  9
$VISRETAIN
 70
     0
  9
$PLINEGEN
 70
     0
  9
$PSLTSCALE
 70
     1
  0
ENDSEC
  0
SECTION
  2
TABLES
  0
TABLE
  2
VPORT
 70
     1
  0
VPORT
  2
*ACTIVE
 70
     0
 10
0.0
 20
0.0
 11
1.0
 21
1.0
 12
270.0800492610836727
 22
115.0
 13
0.0
 23
0.0
 14
5.0
 24
5.0
 15
10.0
 25
10.0
 16
0.0
 26
0.0
 36
1.0
 17
0.0
 27
0.0
 37
0.0
 40
230.0
 41
2.3485221674876842
 42
50.0
 43
0.0
 44
0.0
 50
0.0
 51
0.0
 71
    16
 72
   500
 73
     1
 74
     0
 75
     0
 76
     0
 77
     0
 78
     1
  0
ENDTAB
  0
TABLE
  2
LTYPE
 70
     3
  0
LTYPE
  2
CONTINUOUS
 70
     0
  3
Solid line
 72
    65
 73
     0
 40
0.0
  0
LTYPE
  2
CENTER
 70
     0
  3
____ _ ____ _ ____ _ ____ _ ____ _ ____ _ ____
 72
    65
 73
     4
 40
2.0
 49
1.25
 49
-0.25
 49
0.25
 49
-0.25
  0
LTYPE
  2
HIDDEN
 70
     0
  3
_ _ _ _ _ _ _ _ _ _ _ _ _ _ _ _ _ _ _ _ _ _ _
 72
    65
 73
     2
 40
0.375
 49
0.25
 49
-0.125
  0
ENDTAB
  0
TABLE
  2
LAYER
 70
     5
  0
LAYER
  2
0
 70
     0
 62
     7
  6
CONTINUOUS
  0
LAYER
  2
1
 70
     0
 62
     1
  6
CENTER
  0
LAYER
  2
WAKU
 70
     0
 62
     5
  6
CONTINUOUS
  0
LAYER
  2
4
 70
     0
 62
     4
  6
CONTINUOUS
  0
LAYER
  2
2
 70
     0
 62
     2
  6
HIDDEN
  0
ENDTAB
  0
TABLE
  2
STYLE
 70
     3
  0
STYLE
  2
STANDARD
 70
     0
 40
0.0
 41
1.0
 50
0.0
 71
     0
 42
2.5
  3
ROMANS
  4
EXTFONT
  0
STYLE
  2
K
 70
     0
 40
0.0
 41
0.75
 50
0.0
 71
     0
 42
3.2000000000000002
  3
ROMANS.shx
  4
EXTFONT.shx
  0
STYLE
  2
STANDARD1
 70
     0
 40
0.0
 41
1.0
 50
0.0
 71
     0
 42
3.0
  3
txt
  4

  0
ENDTAB
  0
TABLE
  2
VIEW
 70
     0
  0
ENDTAB
  0
TABLE
  2
UCS
 70
     0
  0
ENDTAB
  0
TABLE
  2
APPID
 70
     4
  0
APPID
  2
ACAD
 70
     0
  0
APPID
  2
ACAD_MLEADERVER
 70
     0
  0
APPID
  2
ACAD_NAV_VCDISPLAY
 70
     0
  0
APPID
  2
ACAD_EXEMPT_FROM_CAD_STANDARDS
 70
     0
  0
ENDTAB
  0
TABLE
  2
DIMSTYLE
 70
     2
  0
DIMSTYLE
  2
ITM
 70
     0
  3

  4

  5

  6

  7

 40
0.0
 41
2.5
 42
1.0
 43
6.0
 44
1.0
 45
0.0
 46
0.0
 47
495.0
 48
0.0
140
3.0
141
0.0
142
0.0
143
25.3999999999999986
144
1.0
145
0.0
146
1.0
147
1.0
 71
     0
 72
     0
 73
     0
 74
     0
 75
     0
 76
     0
 77
     3
 78
     8
170
     0
171
     2
172
     1
173
     0
174
     0
175
     0
176
     0
177
     0
178
     0
  0
DIMSTYLE
  2
STANDARD
 70
     0
  3

  4

  5

  6

  7

 40
1.0
 41
0.18
 42
0.0625
 43
0.38
 44
0.18
 45
0.0
 46
0.0
 47
0.0
 48
0.0
140
0.18
141
0.09
142
0.0
143
25.3999999999999986
144
1.0
145
0.0
146
1.0
147
0.09
 71
     0
 72
     0
 73
     1
 74
     1
 75
     0
 76
     0
 77
     0
 78
     0
170
     0
171
     2
172
     0
173
     0
174
     0
175
     0
176
     0
177
     0
178
     0
  0
ENDTAB
  0
ENDSEC
  0
SECTION
  2
BLOCKS
  0
BLOCK
  8
0
  2
$MODEL_SPACE
 70
     0
 10
0.0
 20
0.0
 30
0.0
  3
$MODEL_SPACE
  1

  0
ENDBLK
  5
12
  8
0
  0
BLOCK
 67
     1
  8
0
  2
$PAPER_SPACE
 70
     0
 10
0.0
 20
0.0
 30
0.0
  3
$PAPER_SPACE
  1

  0
ENDBLK
  5
19
 67
     1
  8
0
  0
BLOCK
  8
0
  2
ARROW1
 70
     0
 10
0.0
 20
0.0
 30
0.0
  3
ARROW1
  1

  0
SOLID
  5
4B
  8
WAKU
  6
CONTINUOUS
 62
     4
 10
-1.0
 20
0.1666666666666714
 30
0.0
 11
-1.0
 21
-0.1666666666666714
 31
0.0
 12
0.0
 22
0.0
 32
0.0
 13
0.0
 23
0.0
 33
0.0
  0
ENDBLK
  5
4D
  8
0
  0
ENDSEC
  0
SECTION
  2
ENTITIES
  0
LINE
  5
74
  8
2
 10
71.6927486785617702
 20
106.1005620096431983
 30
0.0
 11
71.6927481436950416
 21
62.4875467453999534
 31
0.0
  0
LINE
  5
77
  8
2
 10
73.7263858135905821
 20
60.4539090295959625
 30
0.0
 11
73.7263859978841083
 21
107.8420500555063057
 31
0.0
  0
LINE
  5
78
  8
2
 10
103.6147828833842937
 20
106.1005620096430988
 30
0.0
 11
103.6147830496640978
 21
62.4875467453998965
 31
0.0
  0
LINE
  5
79
  8
2
 10
101.5811450111814054
 20
60.4539090295958985
 30
0.0
 11
101.5811451954748037
 21
107.8420500555063057
 31
0.0
  0
LINE
  5
7A
  8
2
 10
101.5811455640618988
 20
107.8420500555063057
 30
0.0
 11
101.5811470698858017
 21
110.4578020820249975
 31
0.0
  0
LINE
  5
7B
  8
2
 10
103.6147828833842937
 20
106.1005620096430988
 30
0.0
 11
103.6147828041350039
 21
110.4578026284023053
 31
0.0
  0
LINE
  5
7C
  8
2
 10
101.5811455640619982
 20
107.8420500555063057
 30
0.0
 11
103.6147828833842937
 21
106.1005620096430988
 31
0.0
  0
LINE
  5
7D
  8
2
 10
100.7233915308737977
 20
110.4578025758137017
 30
0.0
 11
100.7233915308737977
 21
107.8420500555063057
 31
0.0
  0
LINE
  5
7E
  8
2
 10
100.7233915308737977
 20
107.8420500555063057
 30
0.0
 11
101.5811455640619982
 21
107.8420500555063057
 31
0.0
  0
LINE
  5
7F
  8
2
 10
73.7263859978841083
 20
107.8420500555063057
 30
0.0
 11
73.7263860454593214
 21
110.4578025914146053
 31
0.0
  0
LINE
  5
80
  8
2
 10
71.6927486785617702
 20
106.1005620096431983
 30
0.0
 11
71.6927487578111595
 21
110.4578026284024048
 31
0.0
  0
LINE
  5
81
  8
2
 10
73.726385997884222
 20
107.8420500555063057
 30
0.0
 11
71.6927486785617702
 21
106.1005620096431983
 31
0.0
  0
LINE
  5
82
  8
2
 10
74.5841400310723657
 20
107.8420500555063057
 30
0.0
 11
73.726385997884222
 21
107.8420500555063057
 31
0.0
  0
LINE
  5
83
  8
2
 10
74.5841400310723657
 20
110.4578025758138011
 30
0.0
 11
74.5841400310723657
 21
107.8420500555063057
 31
0.0
  0
CIRCLE
  5
84
  8
2
 10
87.653763802661615
 20
178.7438258703008955
 30
0.0
 40
13.0
  0
CIRCLE
  5
85
  8
2
 10
87.653763802661615
 20
178.7438258703008955
 30
0.0
 40
15.0
  0
LINE
  5
86
  8
2
 10
90.2537638026615241
 20
158.4093723492443928
 30
0.0
 11
87.6537638026615582
 21
159.9104830491376106
 31
0.0
  0
LINE
  5
87
  8
2
 10
85.0537638026615355
 20
158.4093723492443928
 30
0.0
 11
87.6537638026615582
 21
159.9104830491376106
 31
0.0
  0
LINE
  5
88
  8
2
 10
90.2537638026615241
 20
153.8793934416287073
 30
0.0
 11
90.2537638026615241
 21
158.4093723492443928
 31
0.0
  0
LINE
  5
89
  8
2
 10
85.0537638026615355
 20
158.4093723492443928
 30
0.0
 11
85.0537638026615355
 21
153.8793934416287073
 31
0.0
  0
LINE
  5
8A
  8
2
 10
90.2537638026615241
 20
158.4093723492443928
 30
0.0
 11
85.0537638026615355
 21
158.4093723492443928
 31
0.0
  0
LINE
  5
8B
  8
1
 10
117.6537638026615014
 20
178.7438258703008103
 30
0.0
 11
57.6537638026615582
 21
178.7438258703008103
 31
0.0
  0
LINE
  5
8E
  8
1
 10
87.653763802661615
 20
208.7438258703008103
 30
0.0
 11
87.6537638026615582
 21
148.7438258703008103
 31
0.0
  0
LINE
  5
8F
  8
0
 10
112.6537654002012943
 20
111.257802628402402
 30
0.0
 11
111.853765412386096
 21
110.4578026284024048
 31
0.0
  0
LINE
  5
90
  8
0
 10
62.6537657809731172
 20
111.257802628402402
 30
0.0
 11
112.6537654002012943
 21
111.2578026284023025
 31
0.0
  0
LINE
  5
91
  8
0
 10
63.4537657809730717
 20
110.4578026284024048
 30
0.0
 11
62.6537657809731172
 21
111.257802628402402
 31
0.0
  0
LINE
  5
92
  8
0
 10
63.4537657809730717
 20
110.4578026284024048
 30
0.0
 11
111.853765412386096
 21
110.4578026284024048
 31
0.0
  0
CIRCLE
  5
93
  8
0
 10
87.653763802661615
 20
178.7438258703008955
 30
0.0
 40
6.0
  0
CIRCLE
  5
94
  8
0
 10
87.653763802661615
 20
178.7438258703008955
 30
0.0
 40
25.0
  0
LINE
  5
95
  8
1
 10
87.6537657809731172
 20
130.4578026284023906
 30
0.0
 11
87.653765596679591
 21
50.4578026284023906
 31
0.0
  0
LINE
  5
96
  8
2
 10
93.6537656895878854
 20
125.4578026284024048
 30
0.0
 11
93.6537656895878854
 21
113.6978026284023997
 31
0.0
  0
LINE
  5
97
  8
0
 10
112.6537654002012943
 20
124.6578026284023935
 30
0.0
 11
111.853765412386096
 21
125.4578026284024048
 31
0.0
  0
LINE
  5
98
  8
0
 10
112.6537654002012943
 20
111.257802628402402
 30
0.0
 11
112.6537654002012943
 21
124.6578026284023935
 31
0.0
  0
LINE
  5
99
  8
2
 10
100.4037655867794996
 20
110.4478026284023997
 30
0.0
 11
100.4037655867794996
 21
110.4678026284023957
 31
0.0
  0
LINE
  5
9A
  8
2
 10
81.6537657809731172
 20
113.6978026284023997
 30
0.0
 11
93.6537656895878854
 21
113.6978026284023997
 31
0.0
  0
LINE
  5
9B
  8
0
 10
62.6537657809731172
 20
124.6578026284023935
 30
0.0
 11
112.6537654002012943
 21
124.6578026284023935
 31
0.0
  0
LINE
  5
9C
  8
0
 10
63.4537657809730717
 20
125.4578026284024048
 30
0.0
 11
111.853765412386096
 21
125.4578026284024048
 31
0.0
  0
LINE
  5
9D
  8
0
 10
62.6537657809731172
 20
109.4578026284024048
 30
0.0
 11
112.653765780973103
 21
109.4578026284024048
 31
0.0
  0
LINE
  5
9E
  8
0
 10
74.903765780973103
 20
110.4678026284023957
 30
0.0
 11
74.903765780973103
 21
110.4478026284023997
 31
0.0
  0
LINE
  5
9F
  8
0
 10
62.6537657809731172
 20
124.6578026284023935
 30
0.0
 11
62.6537657809731172
 21
111.257802628402402
 31
0.0
  0
LINE
  5
A0
  8
0
 10
63.4537657809730717
 20
125.4578026284024048
 30
0.0
 11
62.6537657809731172
 21
124.6578026284023935
 31
0.0
  0
LINE
  5
A1
  8
2
 10
81.6537657809731172
 20
125.4578026284024048
 30
0.0
 11
81.6537657809731172
 21
113.6978026284023997
 31
0.0
  0
LINE
  5
A2
  8
0
 10
62.6537657809731172
 20
109.4578026284024048
 30
0.0
 11
62.6537656715488467
 21
69.4578026284023764
 31
0.0
  0
LINE
  5
A3
  8
0
 10
112.6537656715487969
 20
69.4578026284023764
 30
0.0
 11
112.653765780973103
 21
109.4578026284024048
 31
0.0
  0
LINE
  5
A4
  8
0
 10
63.6537657809731101
 20
110.4578026284024048
 30
0.0
 11
62.6537657809731172
 21
109.4578026284024048
 31
0.0
  0
LINE
  5
A5
  8
0
 10
112.653765780973103
 20
109.4578026284024048
 30
0.0
 11
111.653765780973103
 21
110.4578026284024048
 31
0.0
  0
CIRCLE
  5
A6
  8
0
 10
87.6537657694548358
 20
98.4578026284024475
 30
0.0
 40
2.6000000000000001
  0
LINE
  5
A7
  8
1
 10
92.7537657694547448
 20
98.4578026284023906
 30
0.0
 11
82.5537657694547846
 21
98.4578026284023906
 31
0.0
  0
CIRCLE
  5
A8
  8
0
 10
87.6537657694548358
 20
117.9578026284024048
 30
0.0
 40
2.6000000000000001
  0
LINE
  5
A9
  8
1
 10
82.5537657694547846
 20
117.9578026284024048
 30
0.0
 11
92.7537657694547448
 21
117.9578026284024048
 31
0.0
  0
LINE
  5
2D5
  8
0
 10
113.1537656715487969
 20
68.9578026284023196
 30
0.0
 11
113.1537656369936968
 21
61.9578026284023693
 31
0.0
  0
LINE
  5
2D6
  8
0
 10
112.6537656369936968
 20
61.4578026284023693
 30
0.0
 11
113.1537656369936968
 21
61.9578026284023693
 31
0.0
  0
LINE
  5
2D7
  8
0
 10
112.6537656715487969
 20
69.4578026284023764
 30
0.0
 11
113.1537656715487969
 21
68.9578026284023196
 31
0.0
  0
LINE
  5
2D8
  8
0
 10
62.6537656715488183
 20
69.4578026284023764
 30
0.0
 11
62.1537656715488325
 21
68.9578026284023764
 31
0.0
  0
LINE
  5
2D9
  8
0
 10
62.6537656369937608
 20
61.4578026284023693
 30
0.0
 11
62.1537656369937608
 21
61.9578026284023693
 31
0.0
  0
LINE
  5
2DA
  8
0
 10
63.6537655966795626
 20
55.4578026284023622
 30
0.0
 11
111.6537655966795057
 21
55.4578026284023622
 31
0.0
  0
LINE
  5
2DB
  8
0
 10
62.6537655966795626
 20
56.4578026284023622
 30
0.0
 11
112.6537655966795057
 21
56.4578026284023622
 31
0.0
  0
LINE
  5
2DC
  8
0
 10
62.6537656369937608
 20
61.4578026284023693
 30
0.0
 11
112.6537656369936968
 21
61.4578026284023693
 31
0.0
  0
LINE
  5
2DD
  8
0
 10
62.6537656715488183
 20
69.4578026284023764
 30
0.0
 11
112.6537656715487969
 21
69.4578026284023764
 31
0.0
  0
LINE
  5
2DE
  8
0
 10
62.6537655966795626
 20
56.4578026284023622
 30
0.0
 11
63.6537655966795626
 21
55.4578026284023622
 31
0.0
  0
LINE
  5
2DF
  8
0
 10
111.6537655966795057
 20
55.4578026284023622
 30
0.0
 11
112.6537655966795057
 21
56.4578026284023622
 31
0.0
  0
LINE
  5
2E0
  8
0
 10
62.6537656369937608
 20
61.4578026284023693
 30
0.0
 11
62.6537655966795626
 21
56.4578026284023622
 31
0.0
  0
LINE
  5
2E1
  8
0
 10
112.6537655966795057
 20
56.4578026284023622
 30
0.0
 11
112.6537656369936968
 21
61.4578026284023693
 31
0.0
  0
LINE
  5
2E2
  8
0
 10
62.1537656715488325
 20
68.9578026284023764
 30
0.0
 11
62.1537656369937608
 21
61.9578026284023693
 31
0.0
  0
LINE
  5
2E4
  8
2
 10
103.6147833000926965
 20
62.4875469958285166
 30
0.0
 11
101.5811453797683015
 21
60.4539090295958985
 31
0.0
  0
LINE
  5
2E5
  8
2
 10
103.6147833460012038
 20
60.4539090295958985
 30
0.0
 11
103.6147834053193009
 21
57.6486617980945582
 31
0.0
  0
LINE
  5
2E6
  8
2
 10
71.6927478473578788
 20
60.4539090295958985
 30
0.0
 11
103.6147812322449937
 21
60.4539090295958985
 31
0.0
  0
LINE
  5
2E7
  8
2
 10
71.6927478473578788
 20
60.4539090295958985
 30
0.0
 11
71.6927477880396538
 21
57.6486617980945582
 31
0.0
  0
LINE
  5
2E8
  8
2
 10
71.6927478932663291
 20
62.4875469958286374
 30
0.0
 11
73.7263858135906531
 21
60.4539090295958985
 31
0.0
  0
LINE
  5
2E9
  8
2
 10
71.6927477880396538
 20
57.6486617980945582
 30
0.0
 11
103.6147812322448942
 21
57.6486617980945582
 31
0.0
  0
LINE
  5
2EA
  8
2
 10
105.6484153395524999
 20
55.4578026284023622
 30
0.0
 11
105.6484154994216027
 21
91.4578026284023764
 31
0.0
  0
LINE
  5
2EB
  8
2
 10
105.6484154994216027
 20
91.4578026284023764
 30
0.0
 11
69.6591138999195039
 21
91.4578026284023764
 31
0.0
  0
LINE
  5
2EC
  8
2
 10
69.6591137400503442
 20
55.4578026284023622
 30
0.0
 11
69.6591138999195039
 21
91.4578026284023764
 31
0.0
  0
TEXT
  5
382
  8
0
 62
     3
 10
0.0
 20
0.0
 30
0.0
 40
10.0
  1
BJ334-50070
  7
STANDARD1
  0
LINE
  5
4B5
  8
4
 10
112.6537653783165069
 20
120.9578026284023053
 30
0.0
 11
62.6537657590882588
 21
120.9578026284023053
 31
0.0
  0
LINE
  5
4B6
  8
4
 10
112.6537653783165069
 20
114.9578026284022059
 30
0.0
 11
62.6537657590882588
 21
114.9578026284022059
 31
0.0
  0
LINE
  5
4B7
  8
4
 10
63.2532248019501822
 20
114.9578026284022059
 30
0.0
 11
63.2532248019501822
 21
120.9578026284023053
 31
0.0
  0
LINE
  5
4B8
  8
4
 10
64.313884973730012
 20
114.9578026284022059
 30
0.0
 11
64.313884973730012
 21
120.9578026284023053
 31
0.0
  0
LINE
  5
4B9
  8
4
 10
65.3745451455098419
 20
114.9578026284022059
 30
0.0
 11
65.3745451455098419
 21
120.9578026284023053
 31
0.0
  0
LINE
  5
4BA
  8
4
 10
66.4352053172896717
 20
114.9578026284022059
 30
0.0
 11
66.4352053172896717
 21
120.9578026284023053
 31
0.0
  0
LINE
  5
4BB
  8
4
 10
67.4958654890694731
 20
114.9578026284022059
 30
0.0
 11
67.4958654890694731
 21
120.9578026284023053
 31
0.0
  0
LINE
  5
4BC
  8
4
 10
68.556525660849303
 20
114.9578026284022059
 30
0.0
 11
68.556525660849303
 21
120.9578026284023053
 31
0.0
  0
LINE
  5
4BD
  8
4
 10
69.6171858326291328
 20
114.9578026284022059
 30
0.0
 11
69.6171858326291328
 21
120.9578026284023053
 31
0.0
  0
LINE
  5
4BE
  8
4
 10
70.6778460044089343
 20
114.9578026284022059
 30
0.0
 11
70.6778460044089343
 21
120.9578026284023053
 31
0.0
  0
LINE
  5
4BF
  8
4
 10
71.7385061761887641
 20
114.9578026284022059
 30
0.0
 11
71.7385061761887641
 21
120.9578026284023053
 31
0.0
  0
LINE
  5
4C0
  8
4
 10
72.799166347968594
 20
114.9578026284022059
 30
0.0
 11
72.799166347968594
 21
120.9578026284023053
 31
0.0
  0
LINE
  5
4C1
  8
4
 10
73.8598265197484238
 20
114.9578026284022059
 30
0.0
 11
73.8598265197484238
 21
120.9578026284023053
 31
0.0
  0
LINE
  5
4C2
  8
4
 10
74.9204866915282537
 20
114.9578026284022059
 30
0.0
 11
74.9204866915282537
 21
120.9578026284023053
 31
0.0
  0
LINE
  5
4C3
  8
4
 10
75.9811468633080551
 20
114.9578026284022059
 30
0.0
 11
75.9811468633080551
 21
120.9578026284023053
 31
0.0
  0
LINE
  5
4C4
  8
4
 10
77.041807035087885
 20
114.9578026284022059
 30
0.0
 11
77.041807035087885
 21
120.9578026284023053
 31
0.0
  0
LINE
  5
4C5
  8
4
 10
78.1024672068677148
 20
114.9578026284022059
 30
0.0
 11
78.1024672068677148
 21
120.9578026284023053
 31
0.0
  0
LINE
  5
4C6
  8
4
 10
79.1631273786475163
 20
114.9578026284022059
 30
0.0
 11
79.1631273786475163
 21
120.9578026284023053
 31
0.0
  0
LINE
  5
4C7
  8
4
 10
80.2237875504273461
 20
114.9578026284022059
 30
0.0
 11
80.2237875504273461
 21
120.9578026284023053
 31
0.0
  0
LINE
  5
4C8
  8
4
 10
81.284447722207176
 20
114.9578026284022059
 30
0.0
 11
81.284447722207176
 21
120.9578026284023053
 31
0.0
  0
LINE
  5
4C9
  8
4
 10
82.3451078939870058
 20
114.9578026284022059
 30
0.0
 11
82.3451078939870058
 21
120.9578026284023053
 31
0.0
  0
LINE
  5
4CA
  8
4
 10
83.4057680657668357
 20
114.9578026284022059
 30
0.0
 11
83.4057680657668357
 21
120.9578026284023053
 31
0.0
  0
LINE
  5
4CB
  8
4
 10
84.4664282375466371
 20
114.9578026284022059
 30
0.0
 11
84.4664282375466371
 21
120.9578026284023053
 31
0.0
  0
LINE
  5
4CC
  8
4
 10
85.5270884093264669
 20
114.9578026284022059
 30
0.0
 11
85.5270884093264669
 21
116.462060855899594
 31
0.0
  0
LINE
  5
4CD
  8
4
 10
85.5270884093264669
 20
119.4535444009053009
 30
0.0
 11
85.5270884093264669
 21
120.9578026284023053
 31
0.0
  0
LINE
  5
4CE
  8
4
 10
86.5877485811062968
 20
114.9578026284022059
 30
0.0
 11
86.5877485811062968
 21
115.586387992315494
 31
0.0
  0
LINE
  5
4CF
  8
4
 10
86.5877485811062968
 20
120.3292172644893014
 30
0.0
 11
86.5877485811062968
 21
120.9578026284023053
 31
0.0
  0
LINE
  5
4D0
  8
4
 10
87.6484087528860982
 20
114.9578026284022059
 30
0.0
 11
87.6484087528860982
 21
115.3578081464017941
 31
0.0
  0
LINE
  5
4D1
  8
4
 10
87.6484087528860982
 20
120.5577971104030013
 30
0.0
 11
87.6484087528860982
 21
120.9578026284023053
 31
0.0
  0
LINE
  5
4D2
  8
4
 10
87.6484088162368948
 20
61.4578026284023693
 30
0.0
 11
87.6484088162368948
 21
69.4578026284023622
 31
0.0
  0
LINE
  5
4D3
  8
4
 10
88.7090689880167389
 20
61.4578026284023693
 30
0.0
 11
88.7090689880167389
 21
69.4578026284023622
 31
0.0
  0
LINE
  5
4D4
  8
4
 10
89.7697291597965403
 20
61.4578026284023693
 30
0.0
 11
89.7697291597965403
 21
69.4578026284023622
 31
0.0
  0
LINE
  5
4D5
  8
4
 10
90.830389331576356
 20
61.4578026284023693
 30
0.0
 11
90.830389331576356
 21
69.4578026284023622
 31
0.0
  0
LINE
  5
4D6
  8
4
 10
91.8910495033561574
 20
61.4578026284023693
 30
0.0
 11
91.8910495033561574
 21
69.4578026284023622
 31
0.0
  0
LINE
  5
4D7
  8
4
 10
92.9517096751360015
 20
61.4578026284023693
 30
0.0
 11
92.9517096751360015
 21
69.4578026284023622
 31
0.0
  0
LINE
  5
4D8
  8
4
 10
94.0123698469158455
 20
61.4578026284023693
 30
0.0
 11
94.0123698469158455
 21
69.4578026284023622
 31
0.0
  0
LINE
  5
4D9
  8
4
 10
95.0730300186956612
 20
61.4578026284023693
 30
0.0
 11
95.0730300186956612
 21
69.4578026284023622
 31
0.0
  0
LINE
  5
4DA
  8
4
 10
96.1336901904754626
 20
61.4578026284023693
 30
0.0
 11
96.1336901904754626
 21
69.4578026284023622
 31
0.0
  0
LINE
  5
4DB
  8
4
 10
97.1943503622552925
 20
61.4578026284023693
 30
0.0
 11
97.1943503622552925
 21
69.4578026284023622
 31
0.0
  0
LINE
  5
4DC
  8
4
 10
98.2550105340350939
 20
61.4578026284023693
 30
0.0
 11
98.2550105340350939
 21
69.4578026284023622
 31
0.0
  0
LINE
  5
4DD
  8
4
 10
99.3156707058149237
 20
61.4578026284023693
 30
0.0
 11
99.3156707058149237
 21
69.4578026284023622
 31
0.0
  0
LINE
  5
4DE
  8
4
 10
100.3763308775946967
 20
61.4578026284023693
 30
0.0
 11
100.3763308775946967
 21
69.4578026284023622
 31
0.0
  0
LINE
  5
4DF
  8
4
 10
101.4369910493745977
 20
61.4578026284023693
 30
0.0
 11
101.4369910493745977
 21
69.4578026284023622
 31
0.0
  0
LINE
  5
4E0
  8
4
 10
102.4976512211543991
 20
61.4578026284023693
 30
0.0
 11
102.4976512211543991
 21
69.4578026284023622
 31
0.0
  0
LINE
  5
4E1
  8
4
 10
103.5583113929342005
 20
61.4578026284023693
 30
0.0
 11
103.5583113929342005
 21
69.4578026284023622
 31
0.0
  0
LINE
  5
4E2
  8
4
 10
104.6189715647140019
 20
61.4578026284023693
 30
0.0
 11
104.6189715647140019
 21
69.4578026284023622
 31
0.0
  0
LINE
  5
4E3
  8
4
 10
105.6796317364938034
 20
61.4578026284023693
 30
0.0
 11
105.6796317364938034
 21
69.4578026284023622
 31
0.0
  0
LINE
  5
4E4
  8
4
 10
106.7402919082737043
 20
61.4578026284023693
 30
0.0
 11
106.7402919082737043
 21
69.4578026284023622
 31
0.0
  0
LINE
  5
4E5
  8
4
 10
107.8009520800534062
 20
61.4578026284023693
 30
0.0
 11
107.8009520800534062
 21
69.4578026284023622
 31
0.0
  0
LINE
  5
4E6
  8
4
 10
108.8616122518332929
 20
61.4578026284023693
 30
0.0
 11
108.8616122518332929
 21
69.4578026284023622
 31
0.0
  0
LINE
  5
4E7
  8
4
 10
109.9222724236130944
 20
61.4578026284023693
 30
0.0
 11
109.9222724236130944
 21
69.4578026284023622
 31
0.0
  0
LINE
  5
4E8
  8
4
 10
110.9829325953929953
 20
61.4578026284023693
 30
0.0
 11
110.9829325953929953
 21
69.4578026284023622
 31
0.0
  0
LINE
  5
4E9
  8
4
 10
112.0435927671727967
 20
61.4578026284023693
 30
0.0
 11
112.0435927671727967
 21
69.4578026284023622
 31
0.0
  0
LINE
  5
4EA
  8
4
 10
86.5877486444570792
 20
61.4578026284023693
 30
0.0
 11
86.5877486444570792
 21
69.4578026284023622
 31
0.0
  0
LINE
  5
4EB
  8
4
 10
85.5270884726772778
 20
61.4578026284023693
 30
0.0
 11
85.5270884726772778
 21
69.4578026284023622
 31
0.0
  0
LINE
  5
4EC
  8
4
 10
84.4664283008974479
 20
61.4578026284023693
 30
0.0
 11
84.4664283008974479
 21
69.4578026284023622
 31
0.0
  0
LINE
  5
4ED
  8
4
 10
83.4057681291176465
 20
61.4578026284023693
 30
0.0
 11
83.4057681291176465
 21
69.4578026284023622
 31
0.0
  0
LINE
  5
4EE
  8
4
 10
82.3451079573378166
 20
61.4578026284023693
 30
0.0
 11
82.3451079573378166
 21
69.4578026284023622
 31
0.0
  0
LINE
  5
4EF
  8
4
 10
81.2844477855579868
 20
61.4578026284023693
 30
0.0
 11
81.2844477855579868
 21
69.4578026284023622
 31
0.0
  0
LINE
  5
4F0
  8
4
 10
80.2237876137781569
 20
61.4578026284023693
 30
0.0
 11
80.2237876137781569
 21
69.4578026284023622
 31
0.0
  0
LINE
  5
4F1
  8
4
 10
79.1631274419983555
 20
61.4578026284023693
 30
0.0
 11
79.1631274419983555
 21
69.4578026284023622
 31
0.0
  0
LINE
  5
4F2
  8
4
 10
78.1024672702185256
 20
61.4578026284023693
 30
0.0
 11
78.1024672702185256
 21
69.4578026284023622
 31
0.0
  0
LINE
  5
4F3
  8
4
 10
77.0418070984387242
 20
61.4578026284023693
 30
0.0
 11
77.0418070984387242
 21
69.4578026284023622
 31
0.0
  0
LINE
  5
4F4
  8
4
 10
75.9811469266588944
 20
61.4578026284023693
 30
0.0
 11
75.9811469266588944
 21
69.4578026284023622
 31
0.0
  0
LINE
  5
4F5
  8
4
 10
74.9204867548790645
 20
61.4578026284023693
 30
0.0
 11
74.9204867548790645
 21
69.4578026284023622
 31
0.0
  0
LINE
  5
4F6
  8
4
 10
73.8598265830992347
 20
61.4578026284023693
 30
0.0
 11
73.8598265830992347
 21
69.4578026284023622
 31
0.0
  0
LINE
  5
4F7
  8
4
 10
72.7991664113194048
 20
61.4578026284023693
 30
0.0
 11
72.7991664113194048
 21
69.4578026284023622
 31
0.0
  0
LINE
  5
4F8
  8
4
 10
71.7385062395395749
 20
61.4578026284023693
 30
0.0
 11
71.7385062395395749
 21
69.4578026284023622
 31
0.0
  0
LINE
  5
4F9
  8
4
 10
70.6778460677597735
 20
61.4578026284023693
 30
0.0
 11
70.6778460677597735
 21
69.4578026284023622
 31
0.0
  0
LINE
  5
4FA
  8
4
 10
69.6171858959799721
 20
61.4578026284023693
 30
0.0
 11
69.6171858959799721
 21
69.4578026284023622
 31
0.0
  0
LINE
  5
4FB
  8
4
 10
68.5565257242001422
 20
61.4578026284023693
 30
0.0
 11
68.5565257242001422
 21
69.4578026284023622
 31
0.0
  0
LINE
  5
4FC
  8
4
 10
67.4958655524203124
 20
61.4578026284023693
 30
0.0
 11
67.4958655524203124
 21
69.4578026284023622
 31
0.0
  0
LINE
  5
4FD
  8
4
 10
66.4352053806404825
 20
61.4578026284023693
 30
0.0
 11
66.4352053806404825
 21
69.4578026284023622
 31
0.0
  0
LINE
  5
4FE
  8
4
 10
65.3745452088606527
 20
61.4578026284023693
 30
0.0
 11
65.3745452088606527
 21
69.4578026284023622
 31
0.0
  0
LINE
  5
4FF
  8
4
 10
64.3138850370808512
 20
61.4578026284023693
 30
0.0
 11
64.3138850370808512
 21
69.4578026284023622
 31
0.0
  0
LINE
  5
500
  8
4
 10
63.2532248653010427
 20
61.4578026284023693
 30
0.0
 11
63.2532248653010427
 21
69.4578026284023622
 31
0.0
  0
LINE
  5
501
  8
4
 10
112.0435927038220001
 20
114.9578026284022059
 30
0.0
 11
112.0435927038220001
 21
120.9578026284023053
 31
0.0
  0
LINE
  5
502
  8
4
 10
110.9829325320421987
 20
114.9578026284022059
 30
0.0
 11
110.9829325320421987
 21
120.9578026284023053
 31
0.0
  0
LINE
  5
503
  8
4
 10
109.9222723602622978
 20
114.9578026284022059
 30
0.0
 11
109.9222723602622978
 21
120.9578026284023053
 31
0.0
  0
LINE
  5
504
  8
4
 10
108.8616121884824963
 20
114.9578026284022059
 30
0.0
 11
108.8616121884824963
 21
120.9578026284023053
 31
0.0
  0
LINE
  5
505
  8
4
 10
107.8009520167026949
 20
114.9578026284022059
 30
0.0
 11
107.8009520167026949
 21
120.9578026284023053
 31
0.0
  0
LINE
  5
506
  8
4
 10
106.7402918449228935
 20
114.9578026284022059
 30
0.0
 11
106.7402918449228935
 21
120.9578026284023053
 31
0.0
  0
LINE
  5
507
  8
4
 10
105.6796316731430068
 20
114.9578026284022059
 30
0.0
 11
105.6796316731430068
 21
120.9578026284023053
 31
0.0
  0
LINE
  5
508
  8
4
 10
104.6189715013632053
 20
114.9578026284022059
 30
0.0
 11
104.6189715013632053
 21
120.9578026284023053
 31
0.0
  0
LINE
  5
509
  8
4
 10
103.5583113295834039
 20
114.9578026284022059
 30
0.0
 11
103.5583113295834039
 21
120.9578026284023053
 31
0.0
  0
LINE
  5
50A
  8
4
 10
102.4976511578036025
 20
114.9578026284022059
 30
0.0
 11
102.4976511578036025
 21
120.9578026284023053
 31
0.0
  0
LINE
  5
50B
  8
4
 10
101.4369909860237016
 20
114.9578026284022059
 30
0.0
 11
101.4369909860237016
 21
120.9578026284023053
 31
0.0
  0
LINE
  5
50C
  8
4
 10
100.3763308142439001
 20
114.9578026284022059
 30
0.0
 11
100.3763308142439001
 21
120.9578026284023053
 31
0.0
  0
LINE
  5
50D
  8
4
 10
99.3156706424641555
 20
114.9578026284022059
 30
0.0
 11
99.3156706424641555
 21
120.9578026284023053
 31
0.0
  0
LINE
  5
50E
  8
4
 10
98.2550104706843115
 20
114.9578026284022059
 30
0.0
 11
98.2550104706843115
 21
120.9578026284023053
 31
0.0
  0
LINE
  5
50F
  8
4
 10
97.1943502989044816
 20
114.9578026284022059
 30
0.0
 11
97.1943502989044816
 21
120.9578026284023053
 31
0.0
  0
LINE
  5
510
  8
4
 10
96.1336901271246802
 20
114.9578026284022059
 30
0.0
 11
96.1336901271246802
 21
120.9578026284023053
 31
0.0
  0
LINE
  5
511
  8
4
 10
95.0730299553448646
 20
114.9578026284022059
 30
0.0
 11
95.0730299553448646
 21
120.9578026284023053
 31
0.0
  0
LINE
  5
512
  8
4
 10
94.0123697835650205
 20
114.9578026284022059
 30
0.0
 11
94.0123697835650205
 21
120.9578026284023053
 31
0.0
  0
LINE
  5
513
  8
4
 10
92.9517096117851764
 20
114.9578026284022059
 30
0.0
 11
92.9517096117851764
 21
120.9578026284023053
 31
0.0
  0
LINE
  5
514
  8
4
 10
91.8910494400053608
 20
114.9578026284022059
 30
0.0
 11
91.8910494400053608
 21
120.9578026284023053
 31
0.0
  0
LINE
  5
515
  8
4
 10
90.8303892682255594
 20
114.9578026284022059
 30
0.0
 11
90.8303892682255594
 21
120.9578026284023053
 31
0.0
  0
LINE
  5
516
  8
4
 10
89.7697290964457153
 20
114.9578026284022059
 30
0.0
 11
89.7697290964457153
 21
116.462060855899594
 31
0.0
  0
LINE
  5
517
  8
4
 10
89.7697290964457153
 20
119.4535444009053009
 30
0.0
 11
89.7697290964457153
 21
120.9578026284023053
 31
0.0
  0
LINE
  5
518
  8
4
 10
88.7090689246659139
 20
114.9578026284022059
 30
0.0
 11
88.7090689246659139
 21
115.586387992315494
 31
0.0
  0
LINE
  5
519
  8
4
 10
88.7090689246659139
 20
120.3292172644893014
 30
0.0
 11
88.7090689246659139
 21
120.9578026284023053
 31
0.0
  0
ENDSEC
  0
EOF
