  0
SECTION
  2
HEADER
  9
$ACADVER
  1
AC1009
  9
$INSBASE
 10
0.0
 20
0.0
 30
0.0
  9
$EXTMIN
 10
0.0
 20
-2.960436562073669
 30
0.0
  9
$EXTMAX
 10
241.77584451830521
 20
242.0
 30
0.0
  9
$LIMMIN
 10
0.0
 20
0.0
  9
$LIMMAX
 10
187.5
 20
135.0
  9
$ORTHOMODE
 70
     1
  9
$REGENMODE
 70
     1
  9
$FILLMODE
 70
     1
  9
$QTEXTMODE
 70
     0
  9
$MIRRTEXT
 70
     0
  9
$DRAGMODE
 70
     2
  9
$LTSCALE
 40
5.0
  9
$OSMODE
 70
    37
  9
$ATTMODE
 70
     1
  9
$TEXTSIZE
 40
0.2
  9
$TRACEWID
 40
0.05
  9
$TEXTSTYLE
  7
STANDARD
  9
$CLAYER
  8
0
  9
$CELTYPE
  6
BYLAYER
  9
$CECOLOR
 62
   256
  9
$DIMSCALE
 40
0.5
  9
$DIMASZ
 40
3.0
  9
$DIMEXO
 40
2.0
  9
$DIMDLI
 40
0.38
  9
$DIMRND
 40
0.0
  9
$DIMDLE
 40
0.0
  9
$DIMEXE
 40
2.0
  9
$DIMTP
 40
0.0
  9
$DIMTM
 40
0.0
  9
$DIMTXT
 40
3.0
  9
$DIMCEN
 40
0.0
  9
$DIMTSZ
 40
0.0
  9
$DIMTOL
 70
     0
  9
$DIMLIM
 70
     0
  9
$DIMTIH
 70
     0
  9
$DIMTOH
 70
     0
  9
$DIMSE1
 70
     0
  9
$DIMSE2
 70
     0
  9
$DIMTAD
 70
     1
  9
$DIMZIN
 70
     0
  9
$DIMBLK
  1

  9
$DIMASO
 70
     0
  9
$DIMSHO
 70
     0
  9
$DIMPOST
  1

  9
$DIMAPOST
  1

  9
$DIMALT
 70
     0
  9
$DIMALTD
 70
     2
  9
$DIMALTF
 40
25.399999999999999
  9
$DIMLFAC
 40
1.0
  9
$DIMTOFL
 70
     1
  9
$DIMTVP
 40
1.6000000000000001
  9
$DIMTIX
 70
     1
  9
$DIMSOXD
 70
     0
  9
$DIMSAH
 70
     0
  9
$DIMBLK1
  1

  9
$DIMBLK2
  1

  9
$DIMSTYLE
  2
STANDARD
  9
$DIMCLRD
 70
     0
  9
$DIMCLRE
 70
     0
  9
$DIMCLRT
 70
     0
  9
$DIMTFAC
 40
1.0
  9
$DIMGAP
 40
0.09
  9
$LUNITS
 70
     2
  9
$LUPREC
 70
     4
  9
$SKETCHINC
 40
0.1
  9
$FILLETRAD
 40
0.0
  9
$AUNITS
 70
     0
  9
$AUPREC
 70
     4
  9
$MENU
  1
E:\r13\win\SUPPORT\ACAD
  9
$ELEVATION
 40
0.0
  9
$PELEVATION
 40
0.0
  9
$THICKNESS
 40
0.0
  9
$LIMCHECK
 70
     0
  9
$BLIPMODE
 70
     0
  9
$CHAMFERA
 40
0.0
  9
$CHAMFERB
 40
0.0
  9
$SKPOLY
 70
     0
  9
$TDCREATE
 40
2449840.3512499998
  9
$TDUPDATE
 40
2456969.4036665051
  9
$TDINDWG
 40
0.2109326852
  9
$TDUSRTIMER
 40
0.2109326852
  9
$USRTIMER
 70
     1
  9
$ANGBASE
 50
0.0
  9
$ANGDIR
 70
     0
  9
$PDMODE
 70
     0
  9
$PDSIZE
 40
0.0
  9
$PLINEWID
 40
0.0
  9
$COORDS
 70
     1
  9
$SPLFRAME
 70
     0
  9
$SPLINETYPE
 70
     6
  9
$SPLINESEGS
 70
     8
  9
$ATTDIA
 70
     0
  9
$ATTREQ
 70
     1
  9
$HANDLING
 70
     1
  9
$HANDSEED
  5
2A0E
  9
$SURFTAB1
 70
     6
  9
$SURFTAB2
 70
     6
  9
$SURFTYPE
 70
     6
  9
$SURFU
 70
     6
  9
$SURFV
 70
     6
  9
$UCSNAME
  2

  9
$UCSORG
 10
0.0
 20
0.0
 30
0.0
  9
$UCSXDIR
 10
1.0
 20
0.0
 30
0.0
  9
$UCSYDIR
 10
0.0
 20
1.0
 30
0.0
  9
$PUCSNAME
  2

  9
$PUCSORG
 10
0.0
 20
0.0
 30
0.0
  9
$PUCSXDIR
 10
1.0
 20
0.0
 30
0.0
  9
$PUCSYDIR
 10
0.0
 20
1.0
 30
0.0
  9
$USERI1
 70
     3
  9
$USERI2
 70
     1
  9
$USERI3
 70
     0
  9
$USERI4
 70
     0
  9
$USERI5
 70
     0
  9
$USERR1
 40
0.5
  9
$USERR2
 40
3.0
  9
$USERR3
 40
3.0
  9
$USERR4
 40
3.0
  9
$USERR5
 40
10.0
  9
$WORLDVIEW
 70
     1
  9
$SHADEDGE
 70
     3
  9
$SHADEDIF
 70
    70
  9
$TILEMODE
 70
     1
  9
$MAXACTVP
 70
    16
  9
$PLIMCHECK
 70
     0
  9
$PEXTMIN
 10
1.0000000000000000E+020
 20
1.0000000000000000E+020
 30
1.0000000000000000E+020
  9
$PEXTMAX
 10
-1.0000000000000000E+020
 20
-1.0000000000000000E+020
 30
-1.0000000000000000E+020
  9
$PLIMMIN
 10
0.0
 20
0.0
  9
$PLIMMAX
 10
12.0
 20
9.0
  9
$UNITMODE
 70
     0
  9
$VISRETAIN
 70
     0
  9
$PLINEGEN
 70
     0
  9
$PSLTSCALE
 70
     0
  0
ENDSEC
  0
SECTION
  2
TABLES
  0
TABLE
  2
VPORT
 70
     1
  0
VPORT
  2
*ACTIVE
 70
     0
 10
0.0
 20
0.0
 11
1.0
 21
1.0
 12
235.63977746870651
 22
135.0
 13
0.0
 23
0.0
 14
5.0
 24
5.0
 15
10.0
 25
10.0
 16
0.0
 26
0.0
 36
1.0
 17
0.0
 27
0.0
 37
0.0
 40
270.0
 41
1.7454798331015291
 42
50.0
 43
0.0
 44
0.0
 50
0.0
 51
0.0
 71
     0
 72
   100
 73
     1
 74
     0
 75
     0
 76
     0
 77
     0
 78
     2
  0
ENDTAB
  0
TABLE
  2
LTYPE
 70
     4
  0
LTYPE
  2
CONTINUOUS
 70
     0
  3
Solid Line
 72
    65
 73
     0
 40
0.0
  0
LTYPE
  2
CENTER
 70
     0
  3
____ _ ____ _ ____ _ ____ _ ____ _ ____ _ ____
 72
    65
 73
     4
 40
2.0
 49
1.25
 49
-0.25
 49
0.25
 49
-0.25
  0
LTYPE
  2
HIDDEN
 70
     0
  3
__ __ __ __ __ __ __ __ __ __ __ __ __ __ __ __
 72
    65
 73
     2
 40
0.375
 49
0.25
 49
-0.125
  0
LTYPE
  2
PHANTOM2
 70
     0
  3
___ _ _ ___ _ _ ___ _ _ ___ _ _
 72
    65
 73
     6
 40
1.25
 49
0.625
 49
-0.125
 49
0.125
 49
-0.125
 49
0.125
 49
-0.125
  0
ENDTAB
  0
TABLE
  2
LAYER
 70
     5
  0
LAYER
  2
0
 70
     0
 62
     7
  6
CONTINUOUS
  0
LAYER
  2
1
 70
     0
 62
     1
  6
CENTER
  0
LAYER
  2
3
 70
     0
 62
     3
  6
CONTINUOUS
  0
LAYER
  2
2
 70
     0
 62
     2
  6
HIDDEN
  0
LAYER
  2
DEFPOINTS
 70
     0
 62
     7
  6
CONTINUOUS
  0
ENDTAB
  0
TABLE
  2
STYLE
 70
     2
  0
STYLE
  2
STANDARD
 70
     0
 40
0.0
 41
1.0
 50
0.0
 71
     0
 42
0.2
  3
TXT
  4
BIGFONT
  0
STYLE
  2
STANDARD1
 70
     0
 40
0.0
 41
1.0
 50
0.0
 71
     0
 42
3.0
  3
txt
  4

  0
ENDTAB
  0
TABLE
  2
VIEW
 70
     0
  0
ENDTAB
  0
TABLE
  2
UCS
 70
     0
  0
ENDTAB
  0
TABLE
  2
APPID
 70
    41
  0
APPID
  2
ACAD
 70
     0
  0
APPID
  2
ACAD_MLEADERVER
 70
     0
  0
APPID
  2
ACAD_NAV_VCDISPLAY
 70
     0
  0
APPID
  2
ACAD_EXEMPT_FROM_CAD_STANDARDS
 70
     0
  0
APPID
  2
_CALL_MAC$
 70
     0
  0
APPID
  2
DCO15
 70
     0
  0
APPID
  2
GENIUS_GENOREF_13
 70
     0
  0
APPID
  2
GENIUS_GENOENT_13
 70
     0
  0
APPID
  2
GENIUS_GENBH_13
 70
     0
  0
APPID
  2
GENIUS_GENOBJ_13
 70
     0
  0
APPID
  2
GENIUS_GENODEF_13
 70
     0
  0
APPID
  2
GENIUS_GENOLIS_13
 70
     0
  0
APPID
  2
GENIUS_GENOBJ-NBEHI-BHF_13
 70
     0
  0
APPID
  2
GENIUS_GENOBJ-NBEHI-BHB_13
 70
     0
  0
APPID
  2
GENIUS_GENOBJ-F-PART_13
 70
     0
  0
APPID
  2
GENIUS_GEFSTDP_13
 70
     0
  0
APPID
  2
GENIUS_GENOBJ-N-RSSYM_13
 70
     0
  0
APPID
  2
GENIUS_GENSYMENT_13
 70
     0
  0
APPID
  2
GENIUS_GENOBJ-N-TIT_13
 70
     0
  0
APPID
  2
GENIUS_GENTITLE_13
 70
     0
  0
APPID
  2
GENIUS_GENZVEED_13
 70
     0
  0
APPID
  2
GENIUS_GENOBJ-N-LEADER_13
 70
     0
  0
APPID
  2
GENIUS_GENOBJ-N-FIL_13
 70
     0
  0
APPID
  2
GENIUS_GENOBJ-N-SEC_13
 70
     0
  0
APPID
  2
GENIUS_GENOBJ-N-CRS_13
 70
     0
  0
APPID
  2
GENIUS_GENOBJ-N-ZOO_13
 70
     0
  0
APPID
  2
GENIUS_GENZOO_13
 70
     0
  0
APPID
  2
GENIUS_GENOBJ-F-TOL_13
 70
     0
  0
APPID
  2
GENIUS_GENFIL_13
 70
     0
  0
APPID
  2
GENIUS_GENOBJ-N-CHA_13
 70
     0
  0
APPID
  2
ASM_BASE
 70
     0
  0
APPID
  2
ASM_EXPLO_VER_2_00
 70
     0
  0
APPID
  2
ASM_CADM_VER_12_00
 70
     0
  0
APPID
  2
ASM_BASEFORO
 70
     0
  0
APPID
  2
ASM_BASETRAVI
 70
     0
  0
APPID
  2
ASM_BASETRAVI1
 70
     0
  0
APPID
  2
ASM_GRUPPI
 70
     0
  0
APPID
  2
ASM_CADM_ALBERO
 70
     0
  0
APPID
  2
ASM_GOLE
 70
     0
  0
APPID
  2
ACAD_DSTYLE_DIMJAG
 70
     0
  0
APPID
  2
ACAD_DSTYLE_DIMTALN
 70
     0
  0
ENDTAB
  0
TABLE
  2
DIMSTYLE
 70
     1
  0
DIMSTYLE
  2
STANDARD
 70
     0
  3

  4

  5

  6

  7

 40
1.0
 41
0.18
 42
0.0625
 43
0.38
 44
0.18
 45
0.0
 46
0.0
 47
0.0
 48
0.0
140
0.18
141
0.09
142
0.0
143
25.399999999999999
144
1.0
145
0.0
146
1.0
147
0.09
 71
     0
 72
     0
 73
     1
 74
     1
 75
     0
 76
     0
 77
     0
 78
     0
170
     0
171
     2
172
     0
173
     0
174
     0
175
     0
176
     0
177
     0
178
     0
  0
ENDTAB
  0
ENDSEC
  0
SECTION
  2
BLOCKS
  0
BLOCK
  8
0
  2
$MODEL_SPACE
 70
     0
 10
0.0
 20
0.0
 30
0.0
  3
$MODEL_SPACE
  1

  0
ENDBLK
  5
196
  8
0
  0
BLOCK
 67
     1
  8
0
  2
$PAPER_SPACE
 70
     0
 10
0.0
 20
0.0
 30
0.0
  3
$PAPER_SPACE
  1

  0
ENDBLK
  5
194
 67
     1
  8
0
  0
ENDSEC
  0
SECTION
  2
ENTITIES
  0
TEXT
  5
1BA7
  8
0
 62
     3
 10
0.0
 20
0.0
 30
0.0
 40
10.0
  1
BJ351-12001C
  7
STANDARD1
  0
LINE
  5
2027
  8
0
 10
187.506522319282
 20
218.0
 30
0.0
 11
176.83320947508841
 21
218.0
 31
0.0
  0
LINE
  5
2028
  8
0
 10
176.83320947508841
 20
206.0
 30
0.0
 11
187.506522319282
 21
206.0
 31
0.0
  0
LINE
  5
2029
  8
0
 10
153.12868930080509
 20
191.99999999999989
 30
0.0
 11
168.9317027503273
 21
191.99999999999989
 31
0.0
  0
LINE
  5
202A
  8
0
 10
168.9317027503273
 20
232.0
 30
0.0
 11
153.12868930080509
 21
232.0
 31
0.0
  0
LINE
  5
202B
  8
0
 10
168.9317027503273
 20
195.99999999999989
 30
0.0
 11
176.83320947508841
 21
195.99999999999989
 31
0.0
  0
LINE
  5
202C
  8
0
 10
176.83320947508841
 20
228.0
 30
0.0
 11
168.9317027503273
 21
228.0
 31
0.0
  0
LINE
  5
202D
  8
0
 10
214.0852455950637
 20
208.0
 30
0.0
 11
216.39464667182219
 21
212.0
 31
0.0
  0
LINE
  5
202E
  8
0
 10
214.0852455950637
 20
216.0
 30
0.0
 11
216.39464667182219
 21
212.0
 31
0.0
  0
LINE
  5
202F
  8
0
 10
214.0852455950637
 20
216.0
 30
0.0
 11
209.46644344154669
 21
216.0
 31
0.0
  0
LINE
  5
2030
  8
0
 10
209.46644344154669
 20
216.0
 30
0.0
 11
207.1570423647882
 21
212.0
 31
0.0
  0
LINE
  5
2031
  8
0
 10
209.46644344154669
 20
208.0
 30
0.0
 11
207.1570423647882
 21
212.0
 31
0.0
  0
LINE
  5
2032
  8
0
 10
214.0852455950637
 20
208.0
 30
0.0
 11
209.46644344154669
 21
208.0
 31
0.0
  0
CIRCLE
  5
2034
  8
0
 10
170.36240178633551
 20
212.00717489283721
 30
0.0
 40
2.0907784215439431
  0
CIRCLE
  5
2035
  8
0
 10
170.36839247600051
 20
212.0049467617082
 30
0.0
 40
1.294773716163961
  0
POLYLINE
  5
2036
  8
0
 66
     1
 10
0.0
 20
0.0
 30
0.0
 70
   128
  0
VERTEX
  5
286A
  8
0
 10
153.12868930080509
 20
191.99999999999989
 30
0.0
  0
VERTEX
  5
286B
  8
0
 10
152.87367207745521
 20
192.06654835011611
 30
0.0
  0
VERTEX
  5
286C
  8
0
 10
152.6203519516518
 20
192.2657505321742
 30
0.0
  0
VERTEX
  5
286D
  8
0
 10
152.3704147270372
 20
192.59628088851861
 30
0.0
  0
VERTEX
  5
286E
  8
0
 10
152.12552369460451
 20
193.0559397941617
 30
0.0
  0
VERTEX
  5
286F
  8
0
 10
151.88730856377049
 20
193.64166829492481
 30
0.0
  0
VERTEX
  5
2870
  8
0
 10
151.6573546169279
 20
194.34956846427349
 30
0.0
  0
VERTEX
  5
2871
  8
0
 10
151.43719215965359
 20
195.17492934337631
 30
0.0
  0
VERTEX
  5
2872
  8
0
 10
151.22828633677611
 20
196.11225829175771
 30
0.0
  0
VERTEX
  5
2873
  8
0
 10
151.0320273820798
 20
197.15531753991459
 30
0.0
  0
VERTEX
  5
2874
  8
0
 10
150.84972136652769
 20
198.29716570064309
 30
0.0
  0
VERTEX
  5
2875
  8
0
 10
150.6825815065751
 20
199.53020396282531
 30
0.0
  0
VERTEX
  5
2876
  8
0
 10
150.53172009041381
 20
200.8462266602634
 30
0.0
  0
VERTEX
  5
2877
  8
0
 10
150.39814107587779
 20
202.2364758790344
 30
0.0
  0
VERTEX
  5
2878
  8
0
 10
150.28273340926989
 20
203.6916997399623
 30
0.0
  0
VERTEX
  5
2879
  8
0
 10
150.18626510957051
 20
205.20221396834771
 30
0.0
  0
VERTEX
  5
287A
  8
0
 10
150.10937815739791
 20
206.75796634121801
 30
0.0
  0
VERTEX
  5
287B
  8
0
 10
150.05258422273349
 20
208.34860358321279
 30
0.0
  0
VERTEX
  5
287C
  8
0
 10
150.0162612598422
 20
209.9635402659234
 30
0.0
  0
VERTEX
  5
287D
  8
0
 10
150.0006509920488
 20
211.5920292521719
 30
0.0
  0
VERTEX
  5
287E
  8
0
 10
150.00585730311019
 20
213.22323321643691
 30
0.0
  0
VERTEX
  5
287F
  8
0
 10
150.03184554588529
 20
214.84629676546581
 30
0.0
  0
VERTEX
  5
2880
  8
0
 10
150.0784427729061
 20
216.4504186791263
 30
0.0
  0
VERTEX
  5
2881
  8
0
 10
150.14533888731489
 20
218.02492379074471
 30
0.0
  0
VERTEX
  5
2882
  8
0
 10
150.23208870650711
 20
219.55933402857821
 30
0.0
  0
VERTEX
  5
2883
  8
0
 10
150.33811492474911
 20
221.04343814565379
 30
0.0
  0
VERTEX
  5
2884
  8
0
 10
150.46271195505139
 20
222.46735967393229
 30
0.0
  0
VERTEX
  5
2885
  8
0
 10
150.6050506247343
 20
223.8216226505736
 30
0.0
  0
VERTEX
  5
2886
  8
0
 10
150.7641836934354
 20
225.09721467890569
 30
0.0
  0
VERTEX
  5
2887
  8
0
 10
150.9390521568375
 20
226.2856469044381
 30
0.0
  0
VERTEX
  5
2888
  8
0
 10
151.1284922941681
 20
227.3790105067873
 30
0.0
  0
VERTEX
  5
2889
  8
0
 10
151.3312434125686
 20
228.37002933157191
 30
0.0
  0
VERTEX
  5
288A
  8
0
 10
151.54595623679751
 20
229.2521083120196
 30
0.0
  0
VERTEX
  5
288B
  8
0
 10
151.77120188843489
 20
230.01937735804839
 30
0.0
  0
VERTEX
  5
288C
  8
0
 10
152.005481394832
 20
230.66673042074731
 30
0.0
  0
VERTEX
  5
288D
  8
0
 10
152.2472356645271
 20
231.18985947229001
 30
0.0
  0
VERTEX
  5
288E
  8
0
 10
152.4948558627419
 20
231.58528317514839
 30
0.0
  0
VERTEX
  5
288F
  8
0
 10
152.74669411791189
 20
231.8503700498205
 30
0.0
  0
VERTEX
  5
2890
  8
0
 10
153.0010744879994
 20
231.98335598689161
 30
0.0
  0
VERTEX
  5
2891
  8
0
 10
153.12868930080509
 20
232.0
 30
0.0
  0
SEQEND
  5
2892
  8
0
  0
POLYLINE
  5
2037
  8
0
 66
     1
 10
0.0
 20
0.0
 30
0.0
 70
   128
  0
VERTEX
  5
2893
  8
0
 10
168.9317027503273
 20
191.99999999999989
 30
0.0
  0
VERTEX
  5
2894
  8
0
 10
168.67668552697739
 20
192.06654835011611
 30
0.0
  0
VERTEX
  5
2895
  8
0
 10
168.4233654011739
 20
192.2657505321742
 30
0.0
  0
VERTEX
  5
2896
  8
0
 10
168.1734281765593
 20
192.59628088851861
 30
0.0
  0
VERTEX
  5
2897
  8
0
 10
167.92853714412669
 20
193.0559397941617
 30
0.0
  0
VERTEX
  5
2898
  8
0
 10
167.69032201329259
 20
193.64166829492481
 30
0.0
  0
VERTEX
  5
2899
  8
0
 10
167.4603680664502
 20
194.34956846427349
 30
0.0
  0
VERTEX
  5
289A
  8
0
 10
167.24020560917569
 20
195.17492934337631
 30
0.0
  0
VERTEX
  5
289B
  8
0
 10
167.03129978629829
 20
196.11225829175771
 30
0.0
  0
VERTEX
  5
289C
  8
0
 10
166.8350408316021
 20
197.15531753991459
 30
0.0
  0
VERTEX
  5
289D
  8
0
 10
166.65273481605001
 20
198.29716570064309
 30
0.0
  0
VERTEX
  5
289E
  8
0
 10
166.4855949560974
 20
199.53020396282531
 30
0.0
  0
VERTEX
  5
289F
  8
0
 10
166.334733539936
 20
200.8462266602634
 30
0.0
  0
VERTEX
  5
28A0
  8
0
 10
166.20115452539989
 20
202.2364758790344
 30
0.0
  0
VERTEX
  5
28A1
  8
0
 10
166.08574685879211
 20
203.6916997399623
 30
0.0
  0
VERTEX
  5
28A2
  8
0
 10
165.98927855909281
 20
205.20221396834771
 30
0.0
  0
VERTEX
  5
28A3
  8
0
 10
165.91239160692021
 20
206.75796634121801
 30
0.0
  0
VERTEX
  5
28A4
  8
0
 10
165.8555976722557
 20
208.34860358321279
 30
0.0
  0
VERTEX
  5
28A5
  8
0
 10
165.81927470936429
 20
209.9635402659234
 30
0.0
  0
VERTEX
  5
28A6
  8
0
 10
165.8036644415709
 20
211.5920292521719
 30
0.0
  0
VERTEX
  5
28A7
  8
0
 10
165.8088707526324
 20
213.22323321643691
 30
0.0
  0
VERTEX
  5
28A8
  8
0
 10
165.8348589954075
 20
214.84629676546581
 30
0.0
  0
VERTEX
  5
28A9
  8
0
 10
165.8814562224284
 20
216.4504186791263
 30
0.0
  0
VERTEX
  5
28AA
  8
0
 10
165.94835233683699
 20
218.02492379074471
 30
0.0
  0
VERTEX
  5
28AB
  8
0
 10
166.0351021560293
 20
219.55933402857821
 30
0.0
  0
VERTEX
  5
28AC
  8
0
 10
166.14112837427129
 20
221.04343814565379
 30
0.0
  0
VERTEX
  5
28AD
  8
0
 10
166.2657254045736
 20
222.46735967393229
 30
0.0
  0
VERTEX
  5
28AE
  8
0
 10
166.4080640742564
 20
223.8216226505736
 30
0.0
  0
VERTEX
  5
28AF
  8
0
 10
166.56719714295761
 20
225.09721467890569
 30
0.0
  0
VERTEX
  5
28B0
  8
0
 10
166.7420656063598
 20
226.2856469044381
 30
0.0
  0
VERTEX
  5
28B1
  8
0
 10
166.93150574369031
 20
227.3790105067873
 30
0.0
  0
VERTEX
  5
28B2
  8
0
 10
167.13425686209069
 20
228.37002933157191
 30
0.0
  0
VERTEX
  5
28B3
  8
0
 10
167.3489696863198
 20
229.2521083120196
 30
0.0
  0
VERTEX
  5
28B4
  8
0
 10
167.5742153379571
 20
230.01937735804839
 30
0.0
  0
VERTEX
  5
28B5
  8
0
 10
167.8084948443543
 20
230.66673042074731
 30
0.0
  0
VERTEX
  5
28B6
  8
0
 10
168.05024911404931
 20
231.18985947229001
 30
0.0
  0
VERTEX
  5
28B7
  8
0
 10
168.29786931226411
 20
231.58528317514839
 30
0.0
  0
VERTEX
  5
28B8
  8
0
 10
168.5497075674341
 20
231.8503700498205
 30
0.0
  0
VERTEX
  5
28B9
  8
0
 10
168.8040879375215
 20
231.98335598689161
 30
0.0
  0
VERTEX
  5
28BA
  8
0
 10
169.05931756313311
 20
231.98335598689161
 30
0.0
  0
VERTEX
  5
28BB
  8
0
 10
169.3136979332206
 20
231.85037004982041
 30
0.0
  0
VERTEX
  5
28BC
  8
0
 10
169.56553618839061
 20
231.58528317514831
 30
0.0
  0
VERTEX
  5
28BD
  8
0
 10
169.81315638660541
 20
231.1898594722899
 30
0.0
  0
VERTEX
  5
28BE
  8
0
 10
170.05491065630051
 20
230.6667304207472
 30
0.0
  0
VERTEX
  5
28BF
  8
0
 10
170.28919016269759
 20
230.0193773580483
 30
0.0
  0
VERTEX
  5
28C0
  8
0
 10
170.514435814335
 20
229.25210831201949
 30
0.0
  0
VERTEX
  5
28C1
  8
0
 10
170.72914863856391
 20
228.37002933157169
 30
0.0
  0
VERTEX
  5
28C2
  8
0
 10
170.80891633081009
 20
228.0
 30
0.0
  0
SEQEND
  5
28C3
  8
0
  0
POLYLINE
  5
2038
  8
0
 66
     1
 10
0.0
 20
0.0
 30
0.0
 70
   128
  0
VERTEX
  5
28C4
  8
0
 10
170.80891633081009
 20
195.99999999999989
 30
0.0
  0
VERTEX
  5
28C5
  8
0
 10
170.62319989147881
 20
195.17492934337619
 30
0.0
  0
VERTEX
  5
28C6
  8
0
 10
170.40303743420441
 20
194.3495684642734
 30
0.0
  0
VERTEX
  5
28C7
  8
0
 10
170.17308348736191
 20
193.6416682949247
 30
0.0
  0
VERTEX
  5
28C8
  8
0
 10
169.93486835652789
 20
193.0559397941617
 30
0.0
  0
VERTEX
  5
28C9
  8
0
 10
169.6899773240952
 20
192.59628088851861
 30
0.0
  0
VERTEX
  5
28CA
  8
0
 10
169.44004009948071
 20
192.26575053217411
 30
0.0
  0
VERTEX
  5
28CB
  8
0
 10
169.1867199736773
 20
192.06654835011611
 30
0.0
  0
VERTEX
  5
28CC
  8
0
 10
168.9317027503273
 20
191.99999999999989
 30
0.0
  0
SEQEND
  5
28CD
  8
0
  0
POLYLINE
  5
2039
  8
0
 66
     1
 10
0.0
 20
0.0
 30
0.0
 70
   128
  0
VERTEX
  5
28CE
  8
0
 10
168.9317027503273
 20
195.99999999999989
 30
0.0
  0
VERTEX
  5
28CF
  8
0
 10
168.70075952708279
 20
196.0682531792794
 30
0.0
  0
VERTEX
  5
28D0
  8
0
 10
168.47178662999079
 20
196.27243040505749
 30
0.0
  0
VERTEX
  5
28D1
  8
0
 10
168.2467375750756
 20
196.61078970923481
 30
0.0
  0
VERTEX
  5
28D2
  8
0
 10
168.0275324015237
 20
197.08044432953031
 30
0.0
  0
VERTEX
  5
28D3
  8
0
 10
167.8160412905863
 20
197.67738733831899
 30
0.0
  0
VERTEX
  5
28D4
  8
0
 10
167.6140686098523
 20
198.39652582832611
 30
0.0
  0
VERTEX
  5
28D5
  8
0
 10
167.42333751902009
 20
199.23172436351609
 30
0.0
  0
VERTEX
  5
28D6
  8
0
 10
167.24547526850691
 20
200.1758573244694
 30
0.0
  0
VERTEX
  5
28D7
  8
0
 10
167.08199931632129
 20
201.22086970165509
 30
0.0
  0
VERTEX
  5
28D8
  8
0
 10
166.93430438164771
 20
202.35784581793189
 30
0.0
  0
VERTEX
  5
28D9
  8
0
 10
166.803650545593
 20
203.57708539396231
 30
0.0
  0
VERTEX
  5
28DA
  8
0
 10
166.69115250061881
 20
204.8681863075754
 30
0.0
  0
VERTEX
  5
28DB
  8
0
 10
166.59777004037949
 20
206.22013334100561
 30
0.0
  0
VERTEX
  5
28DC
  8
0
 10
166.5242998710998
 20
207.6213921588467
 30
0.0
  0
VERTEX
  5
28DD
  8
0
 10
166.47136881435949
 20
209.0600077149349
 30
0.0
  0
VERTEX
  5
28DE
  8
0
 10
166.43942845927151
 20
210.52370624858719
 30
0.0
  0
VERTEX
  5
28DF
  8
0
 10
166.42875130968361
 20
212.0
 30
0.0
  0
VERTEX
  5
28E0
  8
0
 10
166.43942845927151
 20
213.47629375141281
 30
0.0
  0
VERTEX
  5
28E1
  8
0
 10
166.47136881435949
 20
214.93999228506519
 30
0.0
  0
VERTEX
  5
28E2
  8
0
 10
166.5242998710998
 20
216.37860784115341
 30
0.0
  0
VERTEX
  5
28E3
  8
0
 10
166.59777004037949
 20
217.77986665899451
 30
0.0
  0
VERTEX
  5
28E4
  8
0
 10
166.69115250061881
 20
219.1318136924246
 30
0.0
  0
VERTEX
  5
28E5
  8
0
 10
166.803650545593
 20
220.42291460603769
 30
0.0
  0
VERTEX
  5
28E6
  8
0
 10
166.93430438164779
 20
221.6421541820682
 30
0.0
  0
VERTEX
  5
28E7
  8
0
 10
167.08199931632129
 20
222.77913029834491
 30
0.0
  0
VERTEX
  5
28E8
  8
0
 10
167.24547526850691
 20
223.8241426755306
 30
0.0
  0
VERTEX
  5
28E9
  8
0
 10
167.42333751902009
 20
224.76827563648379
 30
0.0
  0
VERTEX
  5
28EA
  8
0
 10
167.6140686098523
 20
225.60347417167381
 30
0.0
  0
VERTEX
  5
28EB
  8
0
 10
167.8160412905863
 20
226.32261266168101
 30
0.0
  0
VERTEX
  5
28EC
  8
0
 10
168.02753240152381
 20
226.91955567046969
 30
0.0
  0
VERTEX
  5
28ED
  8
0
 10
168.2467375750756
 20
227.38921029076511
 30
0.0
  0
VERTEX
  5
28EE
  8
0
 10
168.4717866299909
 20
227.72756959494239
 30
0.0
  0
VERTEX
  5
28EF
  8
0
 10
168.70075952708291
 20
227.93174682072049
 30
0.0
  0
VERTEX
  5
28F0
  8
0
 10
168.93170275032739
 20
227.99999999999989
 30
0.0
  0
SEQEND
  5
28F1
  8
0
  0
POLYLINE
  5
203A
  8
0
 66
     1
 10
0.0
 20
0.0
 30
0.0
 70
   128
  0
VERTEX
  5
28F2
  8
0
 10
176.83320947508841
 20
195.99999999999989
 30
0.0
  0
VERTEX
  5
28F3
  8
0
 10
176.6022662518439
 20
196.0682531792794
 30
0.0
  0
VERTEX
  5
28F4
  8
0
 10
176.37329335475189
 20
196.27243040505749
 30
0.0
  0
VERTEX
  5
28F5
  8
0
 10
176.1482442998367
 20
196.61078970923481
 30
0.0
  0
VERTEX
  5
28F6
  8
0
 10
175.92903912628481
 20
197.08044432953031
 30
0.0
  0
VERTEX
  5
28F7
  8
0
 10
175.7175480153474
 20
197.67738733831899
 30
0.0
  0
VERTEX
  5
28F8
  8
0
 10
175.5155753346134
 20
198.39652582832611
 30
0.0
  0
VERTEX
  5
28F9
  8
0
 10
175.3248442437812
 20
199.23172436351609
 30
0.0
  0
VERTEX
  5
28FA
  8
0
 10
175.1469819932679
 20
200.1758573244694
 30
0.0
  0
VERTEX
  5
28FB
  8
0
 10
174.98350604108239
 20
201.22086970165509
 30
0.0
  0
VERTEX
  5
28FC
  8
0
 10
174.83581110640881
 20
202.35784581793189
 30
0.0
  0
VERTEX
  5
28FD
  8
0
 10
174.70515727035399
 20
203.57708539396231
 30
0.0
  0
VERTEX
  5
28FE
  8
0
 10
174.59265922538
 20
204.8681863075754
 30
0.0
  0
VERTEX
  5
28FF
  8
0
 10
174.49927676514059
 20
206.22013334100561
 30
0.0
  0
VERTEX
  5
2900
  8
0
 10
174.42580659586099
 20
207.6213921588467
 30
0.0
  0
VERTEX
  5
2901
  8
0
 10
174.3728755391206
 20
209.0600077149349
 30
0.0
  0
VERTEX
  5
2902
  8
0
 10
174.3409351840327
 20
210.52370624858719
 30
0.0
  0
VERTEX
  5
2903
  8
0
 10
174.3302580344448
 20
212.0
 30
0.0
  0
VERTEX
  5
2904
  8
0
 10
174.3409351840327
 20
213.47629375141281
 30
0.0
  0
VERTEX
  5
2905
  8
0
 10
174.3728755391206
 20
214.93999228506519
 30
0.0
  0
VERTEX
  5
2906
  8
0
 10
174.42580659586099
 20
216.37860784115341
 30
0.0
  0
VERTEX
  5
2907
  8
0
 10
174.49927676514059
 20
217.77986665899451
 30
0.0
  0
VERTEX
  5
2908
  8
0
 10
174.59265922538
 20
219.1318136924246
 30
0.0
  0
VERTEX
  5
2909
  8
0
 10
174.70515727035411
 20
220.42291460603769
 30
0.0
  0
VERTEX
  5
290A
  8
0
 10
174.83581110640901
 20
221.6421541820682
 30
0.0
  0
VERTEX
  5
290B
  8
0
 10
174.98350604108239
 20
222.77913029834491
 30
0.0
  0
VERTEX
  5
290C
  8
0
 10
175.1469819932679
 20
223.8241426755306
 30
0.0
  0
VERTEX
  5
290D
  8
0
 10
175.3248442437812
 20
224.76827563648379
 30
0.0
  0
VERTEX
  5
290E
  8
0
 10
175.5155753346134
 20
225.60347417167381
 30
0.0
  0
VERTEX
  5
290F
  8
0
 10
175.7175480153474
 20
226.32261266168101
 30
0.0
  0
VERTEX
  5
2910
  8
0
 10
175.92903912628481
 20
226.91955567046969
 30
0.0
  0
VERTEX
  5
2911
  8
0
 10
176.1482442998367
 20
227.38921029076511
 30
0.0
  0
VERTEX
  5
2912
  8
0
 10
176.37329335475189
 20
227.72756959494239
 30
0.0
  0
VERTEX
  5
2913
  8
0
 10
176.6022662518439
 20
227.93174682072049
 30
0.0
  0
VERTEX
  5
2914
  8
0
 10
176.83320947508849
 20
227.99999999999989
 30
0.0
  0
VERTEX
  5
2915
  8
0
 10
177.064152698333
 20
227.93174682072049
 30
0.0
  0
VERTEX
  5
2916
  8
0
 10
177.29312559542501
 20
227.72756959494239
 30
0.0
  0
VERTEX
  5
2917
  8
0
 10
177.5181746503402
 20
227.38921029076499
 30
0.0
  0
VERTEX
  5
2918
  8
0
 10
177.73737982389221
 20
226.91955567046961
 30
0.0
  0
VERTEX
  5
2919
  8
0
 10
177.9488709348295
 20
226.32261266168089
 30
0.0
  0
VERTEX
  5
291A
  8
0
 10
178.1508436155635
 20
225.6034741716737
 30
0.0
  0
VERTEX
  5
291B
  8
0
 10
178.3415747063957
 20
224.76827563648371
 30
0.0
  0
VERTEX
  5
291C
  8
0
 10
178.51943695690889
 20
223.8241426755304
 30
0.0
  0
VERTEX
  5
291D
  8
0
 10
178.68291290909451
 20
222.77913029834471
 30
0.0
  0
VERTEX
  5
291E
  8
0
 10
178.83060784376801
 20
221.64215418206791
 30
0.0
  0
VERTEX
  5
291F
  8
0
 10
178.96126167982291
 20
220.42291460603749
 30
0.0
  0
VERTEX
  5
2920
  8
0
 10
179.07375972479699
 20
219.1318136924244
 30
0.0
  0
VERTEX
  5
2921
  8
0
 10
179.1535075610104
 20
218.0
 30
0.0
  0
SEQEND
  5
2922
  8
0
  0
POLYLINE
  5
203B
  8
0
 66
     1
 10
0.0
 20
0.0
 30
0.0
 70
   128
  0
VERTEX
  5
2923
  8
0
 10
179.1535075610104
 20
206.0
 30
0.0
  0
VERTEX
  5
2924
  8
0
 10
179.0737597247969
 20
204.8681863075752
 30
0.0
  0
VERTEX
  5
2925
  8
0
 10
178.96126167982291
 20
203.57708539396211
 30
0.0
  0
VERTEX
  5
2926
  8
0
 10
178.83060784376801
 20
202.35784581793169
 30
0.0
  0
VERTEX
  5
2927
  8
0
 10
178.6829129090944
 20
201.220869701655
 30
0.0
  0
VERTEX
  5
2928
  8
0
 10
178.51943695690889
 20
200.17585732446929
 30
0.0
  0
VERTEX
  5
2929
  8
0
 10
178.3415747063957
 20
199.23172436351601
 30
0.0
  0
VERTEX
  5
292A
  8
0
 10
178.1508436155635
 20
198.39652582832599
 30
0.0
  0
VERTEX
  5
292B
  8
0
 10
177.9488709348295
 20
197.67738733831891
 30
0.0
  0
VERTEX
  5
292C
  8
0
 10
177.7373798238921
 20
197.0804443295302
 30
0.0
  0
VERTEX
  5
292D
  8
0
 10
177.51817465034009
 20
196.61078970923481
 30
0.0
  0
VERTEX
  5
292E
  8
0
 10
177.2931255954249
 20
196.27243040505749
 30
0.0
  0
VERTEX
  5
292F
  8
0
 10
177.06415269833289
 20
196.0682531792794
 30
0.0
  0
VERTEX
  5
2930
  8
0
 10
176.83320947508841
 20
195.99999999999989
 30
0.0
  0
SEQEND
  5
2931
  8
0
  0
POLYLINE
  5
203D
  8
0
 66
     1
 10
0.0
 20
0.0
 30
0.0
 70
   128
  0
VERTEX
  5
2932
  8
0
 10
176.83320947508841
 20
206.0
 30
0.0
  0
VERTEX
  5
2933
  8
0
 10
176.69331739202249
 20
206.06701504264919
 30
0.0
  0
VERTEX
  5
2934
  8
0
 10
176.55655026692759
 20
206.26656316528309
 30
0.0
  0
VERTEX
  5
2935
  8
0
 10
176.4259632513774
 20
206.5941867925855
 30
0.0
  0
VERTEX
  5
2936
  8
0
 10
176.3044734435108
 20
207.04256735410399
 30
0.0
  0
VERTEX
  5
2937
  8
0
 10
176.1947947248795
 20
207.601688769021
 30
0.0
  0
VERTEX
  5
2938
  8
0
 10
176.0993771368195
 20
208.2590611888476
 30
0.0
  0
VERTEX
  5
2939
  8
0
 10
176.02035215057481
 20
209.0
 30
0.0
  0
VERTEX
  5
293A
  8
0
 10
175.95948505375361
 20
209.80795385380159
 30
0.0
  0
VERTEX
  5
293B
  8
0
 10
175.91813551671871
 20
210.66487439626209
 30
0.0
  0
VERTEX
  5
293C
  8
0
 10
175.8972272197997
 20
211.5516194384814
 30
0.0
  0
VERTEX
  5
293D
  8
0
 10
175.8972272197997
 20
212.44838056151849
 30
0.0
  0
VERTEX
  5
293E
  8
0
 10
175.91813551671871
 20
213.33512560373791
 30
0.0
  0
VERTEX
  5
293F
  8
0
 10
175.95948505375361
 20
214.19204614619841
 30
0.0
  0
VERTEX
  5
2940
  8
0
 10
176.02035215057481
 20
215.0
 30
0.0
  0
VERTEX
  5
2941
  8
0
 10
176.0993771368195
 20
215.7409388111524
 30
0.0
  0
VERTEX
  5
2942
  8
0
 10
176.19479472487961
 20
216.39831123097889
 30
0.0
  0
VERTEX
  5
2943
  8
0
 10
176.3044734435108
 20
216.95743264589601
 30
0.0
  0
VERTEX
  5
2944
  8
0
 10
176.4259632513774
 20
217.4058132074145
 30
0.0
  0
VERTEX
  5
2945
  8
0
 10
176.55655026692759
 20
217.7334368347168
 30
0.0
  0
VERTEX
  5
2946
  8
0
 10
176.69331739202249
 20
217.93298495735081
 30
0.0
  0
VERTEX
  5
2947
  8
0
 10
176.83320947508841
 20
218.0
 30
0.0
  0
VERTEX
  5
2948
  8
0
 10
176.83320947508841
 20
218.0
 30
0.0
  0
SEQEND
  5
2949
  8
0
  0
CIRCLE
  5
2040
  8
0
 10
211.77584451830521
 20
212.0
 30
0.0
 40
5.0999999999999943
  0
CIRCLE
  5
2041
  8
3
 10
211.77584451830521
 20
212.0
 30
0.0
 40
6.0
  0
CIRCLE
  5
2042
  8
0
 10
211.77584451830521
 20
212.0
 30
0.0
 40
13.00000000000003
  0
CIRCLE
  5
2045
  8
0
 10
211.77584451830521
 20
212.0
 30
0.0
 40
25.000000000000028
  0
ARC
  5
20A6
  8
2
 10
215.3077952781818
 20
75.131950759877213
 30
0.0
 40
6.999999999999905
 50
5.4763920994388391
 51
78.857589967507181
  0
LINE
  5
20A7
  8
2
 10
222.2758445183043
 20
75.799999999998903
 30
0.0
 11
222.2758445183043
 21
75.0
 31
0.0
  0
LINE
  5
20AF
  8
2
 10
201.27584451830609
 20
75.0
 30
0.0
 11
201.27584451830609
 21
75.799999999998903
 31
0.0
  0
ARC
  5
20B0
  8
2
 10
208.24389375842861
 20
75.131950759877213
 30
0.0
 40
6.9999999999999192
 50
101.1424100324928
 51
174.5236079005611
  0
LINE
  5
20B5
  8
2
 10
206.89115592897031
 20
82.0
 30
0.0
 11
216.66053310764011
 21
82.0
 31
0.0
  0
LINE
  5
20ED
  8
0
 10
171.43465419097129
 20
90.37075214348485
 30
0.0
 11
179.33616091573219
 21
91.622227863806785
 31
0.0
  0
LINE
  5
20EE
  8
0
 10
174.3302580344448
 20
123.22825476285119
 30
0.0
 11
166.42875130968361
 21
121.9767790425293
 31
0.0
  0
LINE
  5
20F0
  8
0
 10
172.060392051132
 20
86.419998781104397
 30
0.0
 11
156.25737860160979
 21
83.91704734046067
 31
0.0
  0
LINE
  5
20F1
  8
0
 10
156.25737860160979
 20
83.91704734046067
 30
0.0
 11
150.0
 21
123.4245809642661
 31
0.0
  0
LINE
  5
20F4
  8
0
 10
150.0000000000006
 20
123.4245809642662
 30
0.0
 11
165.80301344952269
 21
125.9275324049099
 31
0.0
  0
LINE
  5
20F9
  8
0
 10
172.06039205113211
 20
86.419998781104425
 30
0.0
 11
165.80301344952269
 21
125.9275324049099
 31
0.0
  0
LINE
  5
20FB
  8
0
 10
179.33616091573211
 20
91.622227863806756
 30
0.0
 11
174.3302580344448
 21
123.22825476285119
 31
0.0
  0
LINE
  5
210A
  8
0
 10
199.27584451830521
 20
136.99999999999989
 30
0.0
 11
198.77584451830521
 21
136.49999999999989
 31
0.0
  0
LINE
  5
210B
  8
0
 10
224.27584451830521
 20
136.99999999999989
 30
0.0
 11
199.27584451830521
 21
136.99999999999989
 31
0.0
  0
LINE
  5
210C
  8
2
 10
204.9437937107364
 20
136.99999999999989
 30
0.0
 11
206.67584451830521
 21
133.99999999999989
 31
0.0
  0
LINE
  5
210D
  8
2
 10
206.67584451830521
 20
94.0
 30
0.0
 11
206.67584451830521
 21
133.99999999999989
 31
0.0
  0
LINE
  5
210E
  8
2
 10
206.67584451830521
 20
94.0
 30
0.0
 11
205.52114397992599
 21
92.0
 31
0.0
  0
LINE
  5
2110
  8
2
 10
201.77584451830521
 20
92.5
 30
0.0
 11
202.27584451830521
 21
92.0
 31
0.0
  0
LINE
  5
2111
  8
2
 10
201.77584451830521
 20
99.0
 30
0.0
 11
201.77584451830521
 21
92.5
 31
0.0
  0
LINE
  5
2112
  8
2
 10
199.93054505668439
 20
99.0
 30
0.0
 11
201.77584451830521
 21
99.0
 31
0.0
  0
LINE
  5
2113
  8
2
 10
198.77584451830521
 20
101.0
 30
0.0
 11
199.93054505668439
 21
99.0
 31
0.0
  0
LINE
  5
2117
  8
0
 10
198.77584451830521
 20
136.49999999999989
 30
0.0
 11
198.77584451830529
 21
127.0
 31
0.0
  0
LINE
  5
2118
  8
2
 10
223.62114397992599
 20
99.0
 30
0.0
 11
224.77584451830521
 21
101.0
 31
0.0
  0
LINE
  5
2119
  8
2
 10
221.77584451830521
 20
99.0
 30
0.0
 11
223.62114397992599
 21
99.0
 31
0.0
  0
LINE
  5
211A
  8
2
 10
221.77584451830521
 20
92.5
 30
0.0
 11
221.77584451830521
 21
99.0
 31
0.0
  0
LINE
  5
211B
  8
2
 10
221.27584451830521
 20
92.0
 30
0.0
 11
221.77584451830521
 21
92.5
 31
0.0
  0
LINE
  5
211C
  8
2
 10
202.27584451830521
 20
92.0
 30
0.0
 11
221.27584451830521
 21
92.0
 31
0.0
  0
LINE
  5
211D
  8
2
 10
218.03054505668459
 20
92.0
 30
0.0
 11
216.87584451830531
 21
94.0
 31
0.0
  0
LINE
  5
211E
  8
2
 10
216.87584451830531
 20
133.99999999999989
 30
0.0
 11
216.87584451830531
 21
94.0
 31
0.0
  0
LINE
  5
211F
  8
2
 10
216.87584451830531
 20
133.99999999999989
 30
0.0
 11
218.6078953258741
 21
136.99999999999989
 31
0.0
  0
LINE
  5
2121
  8
0
 10
224.77584451830521
 20
136.49999999999989
 30
0.0
 11
224.27584451830521
 21
136.99999999999989
 31
0.0
  0
LINE
  5
2122
  8
0
 10
224.77584451830521
 20
127.0
 30
0.0
 11
224.77584451830521
 21
136.49999999999989
 31
0.0
  0
LINE
  5
2123
  8
2
 10
206.67584451830521
 20
94.0
 30
0.0
 11
216.87584451830531
 21
94.0
 31
0.0
  0
LINE
  5
2125
  8
2
 10
216.87584451830531
 20
133.99999999999989
 30
0.0
 11
206.67584451830521
 21
133.99999999999989
 31
0.0
  0
LINE
  5
2127
  8
2
 10
198.77584451830521
 20
75.800000000000111
 30
0.0
 11
198.77584451830521
 21
127.0
 31
0.0
  0
LINE
  5
212D
  8
2
 10
224.77584451830521
 20
127.0
 30
0.0
 11
224.77584451830521
 21
75.799999999999912
 31
0.0
  0
LINE
  5
2130
  8
0
 10
186.77584451830521
 20
69.000000000000071
 30
0.0
 11
186.77584451830521
 21
125.0
 31
0.0
  0
LINE
  5
2134
  8
0
 10
236.77584451830521
 20
125.0
 30
0.0
 11
236.77584451830521
 21
69.0
 31
0.0
  0
LINE
  5
2135
  8
2
 10
198.77584451830521
 20
82.635031876659454
 30
0.0
 11
186.77584451830521
 21
80.734418592764996
 31
0.0
  0
LINE
  5
2136
  8
2
 10
186.77584451830521
 20
83.265581407235004
 30
0.0
 11
198.77584451830521
 21
85.166194691129434
 31
0.0
  0
LINE
  5
2137
  8
0
 10
188.77584451830521
 20
67.0
 30
0.0
 11
186.77584451830521
 21
69.0
 31
0.0
  0
LINE
  5
2138
  8
0
 10
236.77584451830521
 20
69.0
 30
0.0
 11
234.77584451830521
 21
67.0
 31
0.0
  0
LINE
  5
2139
  8
0
 10
234.77584451830529
 20
127.0
 30
0.0
 11
236.77584451830521
 21
125.0
 31
0.0
  0
LINE
  5
213C
  8
2
 10
223.97584451830531
 20
74.999999999999986
 30
0.0
 11
199.5758445183053
 21
75.0
 31
0.0
  0
LINE
  5
213E
  8
0
 10
234.77584451830521
 20
67.0
 30
0.0
 11
188.77584451830521
 21
67.0
 31
0.0
  0
LINE
  5
2147
  8
0
 10
186.77584451830521
 20
125.0
 30
0.0
 11
188.77584451830521
 21
127.0
 31
0.0
  0
LINE
  5
2148
  8
0
 10
188.77584451830521
 20
127.0
 30
0.0
 11
234.77584451830529
 21
127.0
 31
0.0
  0
LINE
  5
215C
  8
2
 10
217.77584451830521
 20
135.558845726812
 30
0.0
 11
217.77584451830521
 21
112.9999999999999
 31
0.0
  0
LINE
  5
215D
  8
2
 10
205.77584451830521
 20
135.558845726812
 30
0.0
 11
205.77584451830521
 21
112.9999999999999
 31
0.0
  0
LINE
  5
215E
  8
2
 10
205.77584451830521
 20
113.0
 30
0.0
 11
217.77584451830521
 21
113.0
 31
0.0
  0
LINE
  5
2163
  8
1
 10
151.15331261961461
 20
103.35794522228301
 30
0.0
 11
203.0069505008598
 21
111.5707546368951
 31
0.0
  0
LINE
  5
2164
  8
1
 10
200.75122119949549
 20
84.213482213974913
 30
0.0
 11
184.80046783711501
 21
81.687131069919531
 31
0.0
  0
LINE
  5
2165
  8
1
 10
211.77584451830529
 20
141.99999999999989
 30
0.0
 11
211.77584451830521
 21
45.0
 31
0.0
  0
LINE
  5
2327
  8
1
 10
241.77584451830521
 20
212.0
 30
0.0
 11
145.00192764434479
 21
212.0
 31
0.0
  0
LINE
  5
2328
  8
1
 10
211.77584451830521
 20
242.0
 30
0.0
 11
211.77584451830521
 21
182.0
 31
0.0
  0
LINE
  5
232B
  8
3
 10
187.2918254242104
 20
206.94699999999969
 30
0.0
 11
176.33036765143339
 21
206.94699999999969
 31
0.0
  0
LINE
  5
232C
  8
3
 10
176.33036765143339
 20
217.05300000000011
 30
0.0
 11
187.2918254242104
 21
217.05300000000011
 31
0.0
  0
LINE
  5
2385
  8
0
 10
69.000000000000284
 20
105.2351588027656
 30
0.0
 11
69.000000000000284
 21
105.15694157024539
 31
0.0
  0
LINE
  5
2386
  8
0
 10
81.000000000000284
 20
105.15694157024571
 30
0.0
 11
81.000000000000284
 21
105.23515880276589
 31
0.0
  0
LINE
  5
2387
  8
0
 10
95.000000000000327
 20
103.6708141523639
 30
0.0
 11
95.000000000000327
 21
106.1737655930076
 31
0.0
  0
LINE
  5
2388
  8
0
 10
55.000000000000277
 20
106.17376559300661
 30
0.0
 11
55.000000000000341
 21
103.67081415236289
 31
0.0
  0
POLYLINE
  5
239A
  8
0
 66
     1
 10
0.0
 20
0.0
 30
0.0
 70
   128
  0
VERTEX
  5
294A
  8
0
 10
75.000000000000284
 20
111.0830716138164
 30
0.0
  0
VERTEX
  5
294B
  8
0
 10
75.894253597057343
 20
111.0168816375473
 30
0.0
  0
VERTEX
  5
294C
  8
0
 10
76.768531046465739
 20
110.8197902834341
 30
0.0
  0
VERTEX
  5
294D
  8
0
 10
77.603302434705654
 20
110.49620024664409
 30
0.0
  0
VERTEX
  5
294E
  8
0
 10
78.379920348382029
 20
110.0533399938828
 30
0.0
  0
VERTEX
  5
294F
  8
0
 10
79.081036426625815
 20
109.5011022913922
 30
0.0
  0
VERTEX
  5
2950
  8
0
 10
79.690988894808456
 20
108.8518232169007
 30
0.0
  0
VERTEX
  5
2951
  8
0
 10
80.196152422706916
 20
108.120006592031
 30
0.0
  0
VERTEX
  5
2952
  8
0
 10
80.585242491865515
 20
107.32199999089219
 30
0.0
  0
VERTEX
  5
2953
  8
0
 10
80.849567473091213
 20
106.47562956228759
 30
0.0
  0
VERTEX
  5
2954
  8
0
 10
80.983222783087399
 20
105.599801823007
 30
0.0
  0
VERTEX
  5
2955
  8
0
 10
80.983222783087399
 20
104.7140813174842
 30
0.0
  0
VERTEX
  5
2956
  8
0
 10
80.849567473091213
 20
103.83825357820371
 30
0.0
  0
VERTEX
  5
2957
  8
0
 10
80.585242491865515
 20
102.99188314959891
 30
0.0
  0
VERTEX
  5
2958
  8
0
 10
80.196152422706916
 20
102.1938765484602
 30
0.0
  0
VERTEX
  5
2959
  8
0
 10
79.690988894808456
 20
101.4620599235905
 30
0.0
  0
VERTEX
  5
295A
  8
0
 10
79.081036426625815
 20
100.812780849099
 30
0.0
  0
VERTEX
  5
295B
  8
0
 10
78.379920348382029
 20
100.2605431466084
 30
0.0
  0
VERTEX
  5
295C
  8
0
 10
77.603302434705654
 20
99.817682893847106
 30
0.0
  0
VERTEX
  5
295D
  8
0
 10
76.768531046465682
 20
99.494092857057097
 30
0.0
  0
VERTEX
  5
295E
  8
0
 10
75.894253597057343
 20
99.297001502943942
 30
0.0
  0
VERTEX
  5
295F
  8
0
 10
75.000000000000284
 20
99.230811526674813
 30
0.0
  0
VERTEX
  5
2960
  8
0
 10
74.105746402943225
 20
99.297001502943942
 30
0.0
  0
VERTEX
  5
2961
  8
0
 10
73.231468953534829
 20
99.494092857057097
 30
0.0
  0
VERTEX
  5
2962
  8
0
 10
72.396697565294915
 20
99.81768289384712
 30
0.0
  0
VERTEX
  5
2963
  8
0
 10
71.620079651618539
 20
100.2605431466085
 30
0.0
  0
VERTEX
  5
2964
  8
0
 10
70.918963573374754
 20
100.8127808490991
 30
0.0
  0
VERTEX
  5
2965
  8
0
 10
70.309011105192084
 20
101.4620599235906
 30
0.0
  0
VERTEX
  5
2966
  8
0
 10
69.803847577293652
 20
102.1938765484602
 30
0.0
  0
VERTEX
  5
2967
  8
0
 10
69.41475750813504
 20
102.991883149599
 30
0.0
  0
VERTEX
  5
2968
  8
0
 10
69.150432526909356
 20
103.83825357820371
 30
0.0
  0
VERTEX
  5
2969
  8
0
 10
69.016777216913226
 20
104.7140813174843
 30
0.0
  0
VERTEX
  5
296A
  8
0
 10
69.016777216913226
 20
105.599801823007
 30
0.0
  0
VERTEX
  5
296B
  8
0
 10
69.150432526909356
 20
106.47562956228759
 30
0.0
  0
VERTEX
  5
296C
  8
0
 10
69.414757508135096
 20
107.32199999089229
 30
0.0
  0
VERTEX
  5
296D
  8
0
 10
69.803847577293652
 20
108.1200065920311
 30
0.0
  0
VERTEX
  5
296E
  8
0
 10
70.309011105192155
 20
108.8518232169007
 30
0.0
  0
VERTEX
  5
296F
  8
0
 10
70.91896357337481
 20
109.5011022913922
 30
0.0
  0
VERTEX
  5
2970
  8
0
 10
71.620079651618596
 20
110.0533399938828
 30
0.0
  0
VERTEX
  5
2971
  8
0
 10
72.396697565295028
 20
110.49620024664409
 30
0.0
  0
VERTEX
  5
2972
  8
0
 10
73.231468953534943
 20
110.8197902834342
 30
0.0
  0
VERTEX
  5
2973
  8
0
 10
74.105746402943282
 20
111.0168816375473
 30
0.0
  0
VERTEX
  5
2974
  8
0
 10
75.000000000000284
 20
111.0830716138164
 30
0.0
  0
SEQEND
  5
2975
  8
0
  0
CIRCLE
  5
239B
  8
0
 10
74.993563991705457
 20
104.956107235811
 30
0.0
 40
4.9828457288523946
  0
LINE
  5
239C
  8
0
 10
76.732050807569181
 20
102.03744208342
 30
0.0
 11
73.267949192431445
 21
102.03744208342
 31
0.0
  0
LINE
  5
239D
  8
0
 10
76.732050807569181
 20
102.03744208342
 30
0.0
 11
78.464101615138077
 21
105.0005071052054
 31
0.0
  0
LINE
  5
239E
  8
0
 10
76.732050807569124
 20
107.9635721269908
 30
0.0
 11
78.464101615138077
 21
105.0005071052054
 31
0.0
  0
LINE
  5
239F
  8
0
 10
76.732050807569124
 20
107.9635721269908
 30
0.0
 11
73.267949192431374
 21
107.9635721269908
 31
0.0
  0
LINE
  5
23A0
  8
0
 10
73.267949192431374
 20
107.9635721269908
 30
0.0
 11
71.535898384862534
 21
105.0005071052054
 31
0.0
  0
LINE
  5
23A1
  8
0
 10
73.267949192431445
 20
102.03744208342
 30
0.0
 11
71.535898384862534
 21
105.0005071052054
 31
0.0
  0
POLYLINE
  5
23B0
  8
0
 66
     1
 10
0.0
 20
0.0
 30
0.0
 70
   128
  0
VERTEX
  5
2976
  8
0
 10
92.000000000000341
 20
103.6708141523635
 30
0.0
  0
VERTEX
  5
2977
  8
0
 10
91.933475975274405
 20
105.1547781328368
 30
0.0
  0
VERTEX
  5
2978
  8
0
 10
91.734424541786666
 20
106.6271280831303
 30
0.0
  0
VERTEX
  5
2979
  8
0
 10
91.404403546888148
 20
108.0763408685969
 30
0.0
  0
VERTEX
  5
297A
  8
0
 10
90.945995852322767
 20
109.49107443427511
 30
0.0
  0
VERTEX
  5
297B
  8
0
 10
90.362789119832769
 20
110.8602565718468
 30
0.0
  0
VERTEX
  5
297C
  8
0
 10
89.659347732840729
 20
112.1731715746797
 30
0.0
  0
VERTEX
  5
297D
  8
0
 10
88.841177073961035
 20
113.4195441027608
 30
0.0
  0
VERTEX
  5
297E
  8
0
 10
87.914680437916104
 20
114.58961960116341
 30
0.0
  0
VERTEX
  5
297F
  8
0
 10
86.887108917073533
 20
115.67424064266559
 30
0.0
  0
VERTEX
  5
2980
  8
0
 10
85.766504651817044
 20
116.664918597034
 30
0.0
  0
VERTEX
  5
2981
  8
0
 10
84.561637889893518
 20
117.553900066065
 30
0.0
  0
VERTEX
  5
2982
  8
0
 10
83.281938347333721
 20
118.3342275644377
 30
0.0
  0
VERTEX
  5
2983
  8
0
 10
81.93742140813913
 20
118.9997939714702
 30
0.0
  0
VERTEX
  5
2984
  8
0
 10
80.538609740322215
 20
119.5453903276192
 30
0.0
  0
VERTEX
  5
2985
  8
0
 10
79.096450941762669
 20
119.9667466016509
 30
0.0
  0
VERTEX
  5
2986
  8
0
 10
77.622231860410352
 20
120.2605651094252
 30
0.0
  0
VERTEX
  5
2987
  8
0
 10
76.127490259397007
 20
120.4245463227449
 30
0.0
  0
VERTEX
  5
2988
  8
0
 10
74.623924518396052
 20
120.4574068662816
 30
0.0
  0
VERTEX
  5
2989
  8
0
 10
73.12330207794065
 20
120.3588895617284
 30
0.0
  0
VERTEX
  5
298A
  8
0
 10
71.63736734324641
 20
120.12976544056799
 30
0.0
  0
VERTEX
  5
298B
  8
0
 10
70.177749768317142
 20
119.7718277097064
 30
0.0
  0
VERTEX
  5
298C
  8
0
 10
68.75587283969935
 20
119.2878777171977
 30
0.0
  0
VERTEX
  5
298D
  8
0
 10
67.382864672211383
 20
118.6817030278968
 30
0.0
  0
VERTEX
  5
298E
  8
0
 10
66.069470916357133
 20
117.9580477806295
 30
0.0
  0
VERTEX
  5
298F
  8
0
 10
64.825970659041275
 20
117.12257555887371
 30
0.0
  0
VERTEX
  5
2990
  8
0
 10
63.662095975777163
 20
116.1818250655398
 30
0.0
  0
VERTEX
  5
2991
  8
0
 10
62.586955764001061
 20
115.1431589487547
 30
0.0
  0
VERTEX
  5
2992
  8
0
 10
61.608964453599008
 20
114.014706179158
 30
0.0
  0
VERTEX
  5
2993
  8
0
 10
60.735776152584613
 20
112.8052984296844
 30
0.0
  0
VERTEX
  5
2994
  8
0
 10
59.974224743325692
 20
111.5244009557493
 30
0.0
  0
VERTEX
  5
2995
  8
0
 10
59.330270398149374
 20
110.1820385167911
 30
0.0
  0
VERTEX
  5
2996
  8
0
 10
58.808952932912071
 20
108.7887169189371
 30
0.0
  0
VERTEX
  5
2997
  8
0
 10
58.414352363607691
 20
107.3553407928255
 30
0.0
  0
VERTEX
  5
2998
  8
0
 10
58.149556974710272
 20
105.89312825008651
 30
0.0
  0
VERTEX
  5
2999
  8
0
 10
58.01663914916076
 20
104.41352308640801
 30
0.0
  0
VERTEX
  5
299A
  8
0
 10
58.01663914916076
 20
102.92810521831851
 30
0.0
  0
VERTEX
  5
299B
  8
0
 10
58.149556974710322
 20
101.44850005464011
 30
0.0
  0
VERTEX
  5
299C
  8
0
 10
58.414352363607748
 20
99.986287511901054
 30
0.0
  0
VERTEX
  5
299D
  8
0
 10
58.80895293291217
 20
98.552911385789514
 30
0.0
  0
VERTEX
  5
299E
  8
0
 10
59.33027039814948
 20
97.159589787935445
 30
0.0
  0
VERTEX
  5
299F
  8
0
 10
59.974224743325863
 20
95.817227348977283
 30
0.0
  0
VERTEX
  5
29A0
  8
0
 10
60.735776152584833
 20
94.536329875042185
 30
0.0
  0
VERTEX
  5
29A1
  8
0
 10
61.608964453599242
 20
93.326922125568643
 30
0.0
  0
VERTEX
  5
29A2
  8
0
 10
62.586955764001281
 20
92.198469355971866
 30
0.0
  0
VERTEX
  5
29A3
  8
0
 10
63.66209597577739
 20
91.159803239186857
 30
0.0
  0
VERTEX
  5
29A4
  8
0
 10
64.825970659041502
 20
90.219052745852963
 30
0.0
  0
VERTEX
  5
29A5
  8
0
 10
66.069470916357432
 20
89.383580524097226
 30
0.0
  0
VERTEX
  5
29A6
  8
0
 10
67.382864672211667
 20
88.659925276829938
 30
0.0
  0
VERTEX
  5
29A7
  8
0
 10
68.755872839699691
 20
88.053750587529038
 30
0.0
  0
VERTEX
  5
29A8
  8
0
 10
70.177749768317483
 20
87.569800595020325
 30
0.0
  0
VERTEX
  5
29A9
  8
0
 10
71.637367343246751
 20
87.21186286415886
 30
0.0
  0
VERTEX
  5
29AA
  8
0
 10
73.123302077940991
 20
86.982738742998478
 30
0.0
  0
VERTEX
  5
29AB
  8
0
 10
74.623924518396393
 20
86.88422143844528
 30
0.0
  0
VERTEX
  5
29AC
  8
0
 10
76.127490259397334
 20
86.917081981982079
 30
0.0
  0
VERTEX
  5
29AD
  8
0
 10
77.622231860410693
 20
87.081063195301724
 30
0.0
  0
VERTEX
  5
29AE
  8
0
 10
79.09645094176301
 20
87.374881703076028
 30
0.0
  0
VERTEX
  5
29AF
  8
0
 10
80.538609740322556
 20
87.796237977107836
 30
0.0
  0
VERTEX
  5
29B0
  8
0
 10
81.937421408139471
 20
88.341834333256884
 30
0.0
  0
VERTEX
  5
29B1
  8
0
 10
83.281938347334062
 20
89.007400740289398
 30
0.0
  0
VERTEX
  5
29B2
  8
0
 10
84.561637889893845
 20
89.787728238662112
 30
0.0
  0
VERTEX
  5
29B3
  8
0
 10
85.766504651817414
 20
90.676709707693078
 30
0.0
  0
VERTEX
  5
29B4
  8
0
 10
86.88710891707376
 20
91.667387662061543
 30
0.0
  0
VERTEX
  5
29B5
  8
0
 10
87.914680437916331
 20
92.752008703563746
 30
0.0
  0
VERTEX
  5
29B6
  8
0
 10
88.841177073961276
 20
93.922084201966413
 30
0.0
  0
VERTEX
  5
29B7
  8
0
 10
89.659347732840956
 20
95.168456730047495
 30
0.0
  0
VERTEX
  5
29B8
  8
0
 10
90.362789119832883
 20
96.481371732880433
 30
0.0
  0
VERTEX
  5
29B9
  8
0
 10
90.945995852322881
 20
97.850553870452174
 30
0.0
  0
VERTEX
  5
29BA
  8
0
 10
91.404403546888148
 20
99.265287436130336
 30
0.0
  0
VERTEX
  5
29BB
  8
0
 10
91.73442454178678
 20
100.71450022159689
 30
0.0
  0
VERTEX
  5
29BC
  8
0
 10
91.933475975274405
 20
102.1868501718904
 30
0.0
  0
VERTEX
  5
29BD
  8
0
 10
92.000000000000341
 20
103.6708141523635
 30
0.0
  0
SEQEND
  5
29BE
  8
0
  0
POLYLINE
  5
23B1
  8
0
 66
     1
 10
0.0
 20
0.0
 30
0.0
 70
   128
  0
VERTEX
  5
29BF
  8
0
 10
95.000000000000327
 20
103.6708141523635
 30
0.0
  0
VERTEX
  5
29C0
  8
0
 10
94.933451649884205
 20
105.28092953255739
 30
0.0
  0
VERTEX
  5
29C1
  8
0
 10
94.734249467826089
 20
106.8803298605465
 30
0.0
  0
VERTEX
  5
29C2
  8
0
 10
94.403719111481564
 20
108.4583713910305
 30
0.0
  0
VERTEX
  5
29C3
  8
0
 10
93.944060205838582
 20
110.0045525179825
 30
0.0
  0
VERTEX
  5
29C4
  8
0
 10
93.358331705075557
 20
111.5085836611045
 30
0.0
  0
VERTEX
  5
29C5
  8
0
 10
92.650431535726739
 20
112.96045574128679
 30
0.0
  0
VERTEX
  5
29C6
  8
0
 10
91.825070656623893
 20
114.3505067893779
 30
0.0
  0
VERTEX
  5
29C7
  8
0
 10
90.887741708242515
 20
115.6694862449948
 30
0.0
  0
VERTEX
  5
29C8
  8
0
 10
89.844682460085664
 20
116.9086165174768
 30
0.0
  0
VERTEX
  5
29C9
  8
0
 10
88.70283429935705
 20
118.05965139930269
 30
0.0
  0
VERTEX
  5
29CA
  8
0
 10
87.469796037174888
 20
119.11493094324121
 30
0.0
  0
VERTEX
  5
29CB
  8
0
 10
86.153773339736858
 20
120.06743243803631
 30
0.0
  0
VERTEX
  5
29CC
  8
0
 10
84.763524120965826
 20
120.9108171433919
 30
0.0
  0
VERTEX
  5
29CD
  8
0
 10
83.308300260037981
 20
121.63947247324241
 30
0.0
  0
VERTEX
  5
29CE
  8
0
 10
81.797786031652549
 20
122.2485493465875
 30
0.0
  0
VERTEX
  5
29CF
  8
0
 10
80.242033658782248
 20
122.73399445732549
 30
0.0
  0
VERTEX
  5
29D0
  8
0
 10
78.651396416787463
 20
123.09257724833741
 30
0.0
  0
VERTEX
  5
29D1
  8
0
 10
77.036459734076914
 20
123.3219114103109
 30
0.0
  0
VERTEX
  5
29D2
  8
0
 10
75.407970747828301
 20
123.4204707622356
 30
0.0
  0
VERTEX
  5
29D3
  8
0
 10
73.776766783563346
 20
123.3875994078856
 30
0.0
  0
VERTEX
  5
29D4
  8
0
 10
72.153703234534476
 20
123.22351610070071
 30
0.0
  0
VERTEX
  5
29D5
  8
0
 10
70.549581320873926
 20
122.92931278801829
 30
0.0
  0
VERTEX
  5
29D6
  8
0
 10
68.975076209255505
 20
122.5069473443443
 30
0.0
  0
VERTEX
  5
29D7
  8
0
 10
67.44066597142205
 20
121.9592305420209
 30
0.0
  0
VERTEX
  5
29D8
  8
0
 10
65.956561854346475
 20
121.2898073460006
 30
0.0
  0
VERTEX
  5
29D9
  8
0
 10
64.532640326067963
 20
120.5031326572059
 30
0.0
  0
VERTEX
  5
29DA
  8
0
 10
63.178377349426682
 20
119.60444166589851
 30
0.0
  0
VERTEX
  5
29DB
  8
0
 10
61.902785321094541
 20
118.59971501235211
 30
0.0
  0
VERTEX
  5
29DC
  8
0
 10
60.71435309556216
 20
117.4956389866777
 30
0.0
  0
VERTEX
  5
29DD
  8
0
 10
59.62098949321301
 20
116.2995610326665
 30
0.0
  0
VERTEX
  5
29DE
  8
0
 10
58.629970668428371
 20
115.01944085176341
 30
0.0
  0
VERTEX
  5
29DF
  8
0
 10
57.747891687980648
 20
113.66379743256751
 30
0.0
  0
VERTEX
  5
29E0
  8
0
 10
56.980622641951861
 20
112.2416523583679
 30
0.0
  0
VERTEX
  5
29E1
  8
0
 10
56.333269579252942
 20
110.7624697699962
 30
0.0
  0
VERTEX
  5
29E2
  8
0
 10
55.810140527710359
 20
109.23609338353
 30
0.0
  0
VERTEX
  5
29E3
  8
0
 10
55.414716824851887
 20
107.6726809819868
 30
0.0
  0
VERTEX
  5
29E4
  8
0
 10
55.149629950179758
 20
106.08263681695389
 30
0.0
  0
VERTEX
  5
29E5
  8
0
 10
55.016644013108703
 20
104.476542370011
 30
0.0
  0
VERTEX
  5
29E6
  8
0
 10
55.016644013108703
 20
102.8650859347154
 30
0.0
  0
VERTEX
  5
29E7
  8
0
 10
55.149629950179808
 20
101.25899148777251
 30
0.0
  0
VERTEX
  5
29E8
  8
0
 10
55.414716824851951
 20
99.668947322739712
 30
0.0
  0
VERTEX
  5
29E9
  8
0
 10
55.810140527710473
 20
98.105534921196522
 30
0.0
  0
VERTEX
  5
29EA
  8
0
 10
56.333269579253113
 20
96.579158534730283
 30
0.0
  0
VERTEX
  5
29EB
  8
0
 10
56.980622641952039
 20
95.099975946358569
 30
0.0
  0
VERTEX
  5
29EC
  8
0
 10
57.747891687980832
 20
93.677830872159063
 30
0.0
  0
VERTEX
  5
29ED
  8
0
 10
58.629970668428598
 20
92.322187452963135
 30
0.0
  0
VERTEX
  5
29EE
  8
0
 10
59.620989493213237
 20
91.042067272060081
 30
0.0
  0
VERTEX
  5
29EF
  8
0
 10
60.714353095562437
 20
89.845989318048865
 30
0.0
  0
VERTEX
  5
29F0
  8
0
 10
61.902785321094818
 20
88.741913292374534
 30
0.0
  0
VERTEX
  5
29F1
  8
0
 10
63.178377349427031
 20
87.737186638828121
 30
0.0
  0
VERTEX
  5
29F2
  8
0
 10
64.532640326068304
 20
86.838495647520801
 30
0.0
  0
VERTEX
  5
29F3
  8
0
 10
65.95656185434683
 20
86.051820958726125
 30
0.0
  0
VERTEX
  5
29F4
  8
0
 10
67.440665971422447
 20
85.382397762705892
 30
0.0
  0
VERTEX
  5
29F5
  8
0
 10
68.975076209255917
 20
84.834680960382457
 30
0.0
  0
VERTEX
  5
29F6
  8
0
 10
70.549581320874324
 20
84.412315516708475
 30
0.0
  0
VERTEX
  5
29F7
  8
0
 10
72.153703234534873
 20
84.118112204026147
 30
0.0
  0
VERTEX
  5
29F8
  8
0
 10
73.776766783563744
 20
83.954028896841265
 30
0.0
  0
VERTEX
  5
29F9
  8
0
 10
75.407970747828699
 20
83.921157542491272
 30
0.0
  0
VERTEX
  5
29FA
  8
0
 10
77.036459734077312
 20
84.019716894416007
 30
0.0
  0
VERTEX
  5
29FB
  8
0
 10
78.651396416787804
 20
84.24905105638959
 30
0.0
  0
VERTEX
  5
29FC
  8
0
 10
80.242033658782645
 20
84.607633847401502
 30
0.0
  0
VERTEX
  5
29FD
  8
0
 10
81.797786031652933
 20
85.093078958139557
 30
0.0
  0
VERTEX
  5
29FE
  8
0
 10
83.308300260038322
 20
85.702155831484646
 30
0.0
  0
VERTEX
  5
29FF
  8
0
 10
84.763524120966295
 20
86.430811161335242
 30
0.0
  0
VERTEX
  5
2A00
  8
0
 10
86.153773339737086
 20
87.274195866690803
 30
0.0
  0
VERTEX
  5
2A01
  8
0
 10
87.469796037175229
 20
88.226697361485975
 30
0.0
  0
VERTEX
  5
2A02
  8
0
 10
88.702834299357392
 20
89.2819769054245
 30
0.0
  0
VERTEX
  5
2A03
  8
0
 10
89.844682460085892
 20
90.433011787250393
 30
0.0
  0
VERTEX
  5
2A04
  8
0
 10
90.887741708242743
 20
91.672142059732437
 30
0.0
  0
VERTEX
  5
2A05
  8
0
 10
91.825070656624007
 20
92.991121515349406
 30
0.0
  0
VERTEX
  5
2A06
  8
0
 10
92.650431535726852
 20
94.381172563440416
 30
0.0
  0
VERTEX
  5
2A07
  8
0
 10
93.358331705075557
 20
95.833044643622756
 30
0.0
  0
VERTEX
  5
2A08
  8
0
 10
93.944060205838582
 20
97.337075786744805
 30
0.0
  0
VERTEX
  5
2A09
  8
0
 10
94.403719111481664
 20
98.883256913696812
 30
0.0
  0
VERTEX
  5
2A0A
  8
0
 10
94.734249467826089
 20
100.4612984441807
 30
0.0
  0
VERTEX
  5
2A0B
  8
0
 10
94.933451649884205
 20
102.0606987721698
 30
0.0
  0
VERTEX
  5
2A0C
  8
0
 10
95.000000000000327
 20
103.6708141523635
 30
0.0
  0
SEQEND
  5
2A0D
  8
0
  0
ARC
  5
23B2
  8
0
 10
75.000000000000284
 20
105.97837206927279
 30
0.0
 40
20.000954442953908
 50
0.5597434046316097
 51
179.44025659536999
  0
ARC
  5
23B3
  8
0
 10
75.000000000000284
 20
105.4129743906084
 30
0.0
 40
17.0086576783639
 50
183.2753200049799
 51
356.23560312532442
  0
ARC
  5
23B4
  8
0
 10
75.000000000000284
 20
105.1796415445982
 30
0.0
 40
6.0002568416655659
 50
0.5301356348868263
 51
179.4698643651144
  0
CIRCLE
  5
23B8
  8
0
 10
74.998918674387596
 20
82.0
 30
0.0
 40
1.2544857771925311
  0
LINE
  5
23DE
  8
0
 10
215.77584451830521
 20
49.999999999999943
 30
0.0
 11
207.77584451830521
 21
50.000000000000057
 31
0.0
  0
LINE
  5
23DF
  8
0
 10
217.77584451830521
 20
51.999999999999972
 30
0.0
 11
205.77584451830509
 21
52.000000000000092
 31
0.0
  0
LINE
  5
23E2
  8
0
 10
207.77584451830521
 20
50.000000000000057
 30
0.0
 11
205.77584451830521
 21
52.000000000000092
 31
0.0
  0
LINE
  5
23E3
  8
3
 10
206.7228445183051
 20
67.0
 30
0.0
 11
206.7228445183051
 21
51.053000000000083
 31
0.0
  0
LINE
  5
23E4
  8
0
 10
205.77584451830521
 20
67.0
 30
0.0
 11
205.77584451830521
 21
52.000000000000092
 31
0.0
  0
LINE
  5
23E7
  8
0
 10
215.77584451830521
 20
49.999999999999943
 30
0.0
 11
217.77584451830521
 21
51.999999999999943
 31
0.0
  0
LINE
  5
23E8
  8
3
 10
216.8288445183052
 20
67.0
 30
0.0
 11
216.8288445183052
 21
51.05299999999999
 31
0.0
  0
LINE
  5
23E9
  8
0
 10
217.77584451830521
 20
67.0
 30
0.0
 11
217.77584451830521
 21
51.999999999999943
 31
0.0
  0
LINE
  5
23FE
  8
0
 10
176.8822617556751
 20
113.5078011860644
 30
0.0
 11
178.75947533615789
 21
101.6555410989227
 31
0.0
  0
LINE
  5
23FF
  8
3
 10
186.77584451830521
 20
103.8840137193928
 30
0.0
 11
178.6113318977649
 21
102.5908819574659
 31
0.0
  0
LINE
  5
2400
  8
3
 10
178.61133189776501
 20
102.5908819574659
 30
0.0
 11
177.71398763091429
 21
101.8642268978912
 31
0.0
  0
LINE
  5
2401
  8
0
 10
177.77181626532979
 20
101.4991112697581
 30
0.0
 11
186.77584451830509
 21
102.925209245272
 31
0.0
  0
LINE
  5
2403
  8
3
 10
177.03040519406821
 20
112.5724603275208
 30
0.0
 11
186.77584451830521
 21
114.1159862806068
 31
0.0
  0
LINE
  5
2404
  8
3
 10
177.03040519406829
 20
112.5724603275212
 30
0.0
 11
175.9524313192627
 21
112.98625572876681
 31
0.0
  0
LINE
  5
2405
  8
0
 10
186.77584451830509
 20
115.074790754728
 30
0.0
 11
175.89460268484709
 21
113.3513713568998
 31
0.0
  0
LINE
  5
2418
  8
2
 10
201.27584451830609
 20
75.799999999999187
 30
0.0
 11
222.2758445183043
 21
75.799999999998875
 31
0.0
  0
LINE
  5
25A0
  8
0
 10
198.77584451830521
 20
136.49999999999989
 30
0.0
 11
224.77584451830521
 21
136.49999999999989
 31
0.0
  0
LINE
  5
25A1
  8
0
 10
186.77584451830521
 20
125.0
 30
0.0
 11
236.77584451830521
 21
125.0
 31
0.0
  0
LINE
  5
25A2
  8
0
 10
186.77584451830521
 20
69.000000000000071
 30
0.0
 11
236.77584451830521
 21
69.0
 31
0.0
  0
LINE
  5
25A5
  8
2
 10
205.77584451830521
 20
74.999999999999659
 30
0.0
 11
205.77584451830521
 21
67.0
 31
0.0
  0
LINE
  5
25A6
  8
2
 10
206.72284451830521
 20
71.499999999999659
 30
0.0
 11
206.72284451830521
 21
67.0
 31
0.0
  0
LINE
  5
25A7
  8
2
 10
216.8288445183052
 20
71.499999999999659
 30
0.0
 11
216.8288445183052
 21
67.0
 31
0.0
  0
LINE
  5
25A8
  8
2
 10
217.77584451830521
 20
74.999999999999659
 30
0.0
 11
217.77584451830521
 21
67.0
 31
0.0
  0
LINE
  5
25A9
  8
2
 10
205.77584451830521
 20
71.499999999999659
 30
0.0
 11
217.77584451830521
 21
71.499999999999659
 31
0.0
  0
LINE
  5
25AA
  8
2
 10
206.72284451830521
 20
71.499999999999659
 30
0.0
 11
205.77584451830521
 21
73.14025211476735
 31
0.0
  0
LINE
  5
25AB
  8
2
 10
216.8288445183052
 20
71.499999999999659
 30
0.0
 11
217.77584451830521
 21
73.14025211476735
 31
0.0
  0
LINE
  5
25B1
  8
1
 10
207.27584451830521
 20
107.0000000000004
 30
0.0
 11
216.27584451830521
 21
107.0000000000004
 31
0.0
  0
LINE
  5
25B2
  8
0
 10
210.5258445193227
 20
106.2783121641005
 30
0.0
 11
210.5258445193227
 21
107.7216878370743
 31
0.0
  0
LINE
  5
25B3
  8
0
 10
210.5258445193237
 20
107.7216878359004
 30
0.0
 11
211.7758445193227
 21
108.4433756723874
 31
0.0
  0
LINE
  5
25B4
  8
0
 10
211.77584451830501
 20
108.4433756717992
 30
0.0
 11
213.02584451830501
 21
107.72168783531239
 31
0.0
  0
LINE
  5
25B5
  8
0
 10
213.02584451728819
 20
107.7216878358995
 30
0.0
 11
213.02584451728819
 21
106.2783121629256
 31
0.0
  0
LINE
  5
25B6
  8
0
 10
213.02584451728819
 20
106.2783121641005
 30
0.0
 11
211.77584451728819
 21
105.55662432761341
 31
0.0
  0
LINE
  5
25B7
  8
0
 10
211.77584451830501
 20
105.55662432820159
 30
0.0
 11
210.52584451830501
 21
106.2783121646885
 31
0.0
  0
CIRCLE
  5
25B8
  8
3
 10
211.77584451830521
 20
107.0000000000005
 30
0.0
 40
2.0999999999992411
  0
CIRCLE
  5
25B9
  8
0
 10
211.77584451830521
 20
107.0000000000005
 30
0.0
 40
2.5
  0
LINE
  5
25BC
  8
2
 10
206.67584451830521
 20
111.4411542731891
 30
0.0
 11
205.77584451830589
 21
113.0
 31
0.0
  0
LINE
  5
25BD
  8
2
 10
216.87584451830531
 20
111.44115427318739
 30
0.0
 11
217.7758445183058
 21
113.0
 31
0.0
  0
LINE
  5
25D0
  8
0
 10
62.5
 20
136.99999999999989
 30
0.0
 11
62.0
 21
136.49999999999989
 31
0.0
  0
LINE
  5
25D1
  8
0
 10
87.5
 20
136.99999999999989
 30
0.0
 11
62.5
 21
136.99999999999989
 31
0.0
  0
LINE
  5
25D9
  8
0
 10
62.0
 20
136.49999999999989
 30
0.0
 11
62.000000000000107
 21
127.0
 31
0.0
  0
LINE
  5
25E3
  8
0
 10
88.0
 20
136.49999999999989
 30
0.0
 11
87.5
 21
136.99999999999989
 31
0.0
  0
LINE
  5
25E4
  8
0
 10
88.0
 20
127.0
 30
0.0
 11
88.0
 21
136.49999999999989
 31
0.0
  0
LINE
  5
25EA
  8
0
 10
50.0
 20
69.000000000000071
 30
0.0
 11
50.0
 21
125.0
 31
0.0
  0
LINE
  5
25EB
  8
0
 10
100.0
 20
125.0
 30
0.0
 11
100.0
 21
69.0
 31
0.0
  0
LINE
  5
25EE
  8
0
 10
52.0
 20
67.0
 30
0.0
 11
50.0
 21
69.0
 31
0.0
  0
LINE
  5
25EF
  8
0
 10
100.0
 20
69.0
 30
0.0
 11
98.0
 21
67.0
 31
0.0
  0
LINE
  5
25F0
  8
0
 10
98.000000000000114
 20
127.0
 30
0.0
 11
100.0
 21
125.0
 31
0.0
  0
LINE
  5
25F2
  8
0
 10
98.0
 20
67.0
 30
0.0
 11
52.0
 21
67.0
 31
0.0
  0
LINE
  5
25F3
  8
0
 10
50.0
 20
125.0
 30
0.0
 11
52.0
 21
127.0
 31
0.0
  0
LINE
  5
25F4
  8
0
 10
52.0
 20
127.0
 30
0.0
 11
98.000000000000114
 21
127.0
 31
0.0
  0
LINE
  5
25F9
  8
1
 10
75.000000000000114
 20
141.99999999999989
 30
0.0
 11
75.0
 21
45.0
 31
0.0
  0
LINE
  5
25FA
  8
0
 10
79.0
 20
49.999999999999943
 30
0.0
 11
71.0
 21
50.000000000000057
 31
0.0
  0
LINE
  5
25FB
  8
0
 10
81.0
 20
51.999999999999972
 30
0.0
 11
68.999999999999886
 21
52.000000000000092
 31
0.0
  0
LINE
  5
25FC
  8
0
 10
71.0
 20
50.000000000000057
 30
0.0
 11
69.0
 21
52.000000000000092
 31
0.0
  0
LINE
  5
25FD
  8
3
 10
69.946999999999889
 20
67.0
 30
0.0
 11
69.946999999999889
 21
51.053000000000083
 31
0.0
  0
LINE
  5
25FE
  8
0
 10
69.0
 20
67.0
 30
0.0
 11
69.0
 21
52.000000000000092
 31
0.0
  0
LINE
  5
25FF
  8
0
 10
79.0
 20
49.999999999999943
 30
0.0
 11
81.0
 21
51.999999999999943
 31
0.0
  0
LINE
  5
2600
  8
3
 10
80.052999999999997
 20
67.0
 30
0.0
 11
80.052999999999997
 21
51.05299999999999
 31
0.0
  0
LINE
  5
2601
  8
0
 10
81.0
 20
67.0
 30
0.0
 11
81.0
 21
51.999999999999943
 31
0.0
  0
LINE
  5
2603
  8
0
 10
62.0
 20
136.49999999999989
 30
0.0
 11
88.0
 21
136.49999999999989
 31
0.0
  0
LINE
  5
2604
  8
0
 10
50.0
 20
125.0
 30
0.0
 11
68.818103082863956
 21
125.0
 31
0.0
  0
LINE
  5
2605
  8
0
 10
50.0
 20
69.000000000000071
 30
0.0
 11
100.0
 21
69.0
 31
0.0
  0
LINE
  5
261B
  8
0
 10
81.181896917136612
 20
125.0
 30
0.0
 11
100.0
 21
125.0
 31
0.0
  0
LINE
  5
2745
  8
2
 10
199.5758445183053
 20
75.0
 30
0.0
 11
198.77584451830529
 21
75.800000000000068
 31
0.0
1001
ACAD
1000
ASC_BOUNDS
1002
{
1070
    19
1002
}
  0
LINE
  5
2747
  8
2
 10
223.97584451830531
 20
75.0
 30
0.0
 11
224.77584451830529
 21
75.799999999999955
 31
0.0
1001
ACAD
1000
ASC_BOUNDS
1002
{
1070
    19
1002
}
  0
LINE
  5
27C7
  8
1
 10
78.253404451580124
 20
82.0
 30
0.0
 11
71.744432897195068
 21
82.0
 31
0.0
  0
ENDSEC
  0
EOF
