  0
SECTION
  2
HEADER
  9
$ACADVER
  1
AC1009
  9
$INSBASE
 10
0.0
 20
0.0
 30
0.0
  9
$EXTMIN
 10
0.0
 20
-2.960436562073669
 30
0.0
  9
$EXTMAX
 10
128.34248719472649
 20
154.07655665885889
 30
0.0
  9
$LIMMIN
 10
0.0
 20
0.0
  9
$LIMMAX
 10
375.0
 20
270.0
  9
$ORTHOMODE
 70
     0
  9
$REGENMODE
 70
     1
  9
$FILLMODE
 70
     1
  9
$QTEXTMODE
 70
     0
  9
$MIRRTEXT
 70
     0
  9
$DRAGMODE
 70
     2
  9
$LTSCALE
 40
10.0
  9
$OSMODE
 70
  3071
  9
$ATTMODE
 70
     1
  9
$TEXTSIZE
 40
0.2
  9
$TRACEWID
 40
0.05
  9
$TEXTSTYLE
  7
STANDARD
  9
$CLAYER
  8
0
  9
$CELTYPE
  6
BYLAYER
  9
$CECOLOR
 62
   256
  9
$DIMSCALE
 40
1.0
  9
$DIMASZ
 40
3.0
  9
$DIMEXO
 40
2.0
  9
$DIMDLI
 40
0.38
  9
$DIMRND
 40
0.0
  9
$DIMDLE
 40
0.0
  9
$DIMEXE
 40
2.0
  9
$DIMTP
 40
0.0
  9
$DIMTM
 40
0.0
  9
$DIMTXT
 40
3.2000000000000002
  9
$DIMCEN
 40
0.0
  9
$DIMTSZ
 40
0.0
  9
$DIMTOL
 70
     0
  9
$DIMLIM
 70
     0
  9
$DIMTIH
 70
     0
  9
$DIMTOH
 70
     0
  9
$DIMSE1
 70
     0
  9
$DIMSE2
 70
     0
  9
$DIMTAD
 70
     1
  9
$DIMZIN
 70
     0
  9
$DIMBLK
  1

  9
$DIMASO
 70
     0
  9
$DIMSHO
 70
     0
  9
$DIMPOST
  1

  9
$DIMAPOST
  1

  9
$DIMALT
 70
     0
  9
$DIMALTD
 70
     2
  9
$DIMALTF
 40
25.399999999999999
  9
$DIMLFAC
 40
1.0
  9
$DIMTOFL
 70
     1
  9
$DIMTVP
 40
1.6000000000000001
  9
$DIMTIX
 70
     1
  9
$DIMSOXD
 70
     0
  9
$DIMSAH
 70
     0
  9
$DIMBLK1
  1

  9
$DIMBLK2
  1

  9
$DIMSTYLE
  2
STANDARD
  9
$DIMCLRD
 70
     0
  9
$DIMCLRE
 70
     0
  9
$DIMCLRT
 70
     0
  9
$DIMTFAC
 40
1.0
  9
$DIMGAP
 40
0.09
  9
$LUNITS
 70
     2
  9
$LUPREC
 70
     4
  9
$SKETCHINC
 40
0.1
  9
$FILLETRAD
 40
0.0
  9
$AUNITS
 70
     0
  9
$AUPREC
 70
     4
  9
$MENU
  1
E:\r13\win\SUPPORT\ACAD
  9
$ELEVATION
 40
0.0
  9
$PELEVATION
 40
0.0
  9
$THICKNESS
 40
0.0
  9
$LIMCHECK
 70
     0
  9
$BLIPMODE
 70
     0
  9
$CHAMFERA
 40
0.0
  9
$CHAMFERB
 40
0.0
  9
$SKPOLY
 70
     0
  9
$TDCREATE
 40
2449839.7646064819
  9
$TDUPDATE
 40
2456597.678950347
  9
$TDINDWG
 40
0.0009728356
  9
$TDUSRTIMER
 40
0.0009728356
  9
$USRTIMER
 70
     1
  9
$ANGBASE
 50
0.0
  9
$ANGDIR
 70
     0
  9
$PDMODE
 70
     0
  9
$PDSIZE
 40
0.0
  9
$PLINEWID
 40
0.0
  9
$COORDS
 70
     1
  9
$SPLFRAME
 70
     0
  9
$SPLINETYPE
 70
     6
  9
$SPLINESEGS
 70
     8
  9
$ATTDIA
 70
     0
  9
$ATTREQ
 70
     1
  9
$HANDLING
 70
     1
  9
$HANDSEED
  5
266
  9
$SURFTAB1
 70
     6
  9
$SURFTAB2
 70
     6
  9
$SURFTYPE
 70
     6
  9
$SURFU
 70
     6
  9
$SURFV
 70
     6
  9
$UCSNAME
  2

  9
$UCSORG
 10
0.0
 20
0.0
 30
0.0
  9
$UCSXDIR
 10
1.0
 20
0.0
 30
0.0
  9
$UCSYDIR
 10
0.0
 20
1.0
 30
0.0
  9
$PUCSNAME
  2

  9
$PUCSORG
 10
0.0
 20
0.0
 30
0.0
  9
$PUCSXDIR
 10
1.0
 20
0.0
 30
0.0
  9
$PUCSYDIR
 10
0.0
 20
1.0
 30
0.0
  9
$USERI1
 70
     0
  9
$USERI2
 70
     1
  9
$USERI3
 70
     0
  9
$USERI4
 70
     0
  9
$USERI5
 70
     0
  9
$USERR1
 40
0.0
  9
$USERR2
 40
0.0
  9
$USERR3
 40
0.0
  9
$USERR4
 40
0.0
  9
$USERR5
 40
0.0
  9
$WORLDVIEW
 70
     1
  9
$SHADEDGE
 70
     3
  9
$SHADEDIF
 70
    70
  9
$TILEMODE
 70
     1
  9
$MAXACTVP
 70
    16
  9
$PLIMCHECK
 70
     0
  9
$PEXTMIN
 10
1.0000000000000000E+020
 20
1.0000000000000000E+020
 30
1.0000000000000000E+020
  9
$PEXTMAX
 10
-1.0000000000000000E+020
 20
-1.0000000000000000E+020
 30
-1.0000000000000000E+020
  9
$PLIMMIN
 10
0.0
 20
0.0
  9
$PLIMMAX
 10
12.0
 20
9.0
  9
$UNITMODE
 70
     0
  9
$VISRETAIN
 70
     0
  9
$PLINEGEN
 70
     0
  9
$PSLTSCALE
 70
     0
  0
ENDSEC
  0
SECTION
  2
TABLES
  0
TABLE
  2
VPORT
 70
     1
  0
VPORT
  2
*ACTIVE
 70
     0
 10
0.0
 20
0.0
 11
1.0
 21
1.0
 12
195.0581083320873
 22
133.5127261426681
 13
0.0
 23
0.0
 14
10.0
 24
10.0
 15
10.0
 25
10.0
 16
0.0
 26
0.0
 36
1.0
 17
0.0
 27
0.0
 37
0.0
 40
275.42274993631997
 41
1.831871345029239
 42
50.0
 43
0.0
 44
0.0
 50
0.0
 51
0.0
 71
     0
 72
   500
 73
     1
 74
     0
 75
     0
 76
     0
 77
     0
 78
     2
  0
ENDTAB
  0
TABLE
  2
LTYPE
 70
     4
  0
LTYPE
  2
CONTINUOUS
 70
     0
  3
Solid Line
 72
    65
 73
     0
 40
0.0
  0
LTYPE
  2
CENTER
 70
     0
  3
____ _ ____ _ ____ _ ____ _ ____ _ ____ _ ____
 72
    65
 73
     4
 40
2.0
 49
1.25
 49
-0.25
 49
0.25
 49
-0.25
  0
LTYPE
  2
HIDDEN
 70
     0
  3
_ _ _ _ _ _ _ _ _ _ _ _ _ _ _ _ _ _ _ _ _ _ _
 72
    65
 73
     2
 40
0.375
 49
0.25
 49
-0.125
  0
LTYPE
  2
PHANTOM2
 70
     0
  3
___ _ _ ___ _ _ ___ _ _ ___ _ _
 72
    65
 73
     6
 40
1.25
 49
0.625
 49
-0.125
 49
0.125
 49
-0.125
 49
0.125
 49
-0.125
  0
ENDTAB
  0
TABLE
  2
LAYER
 70
     4
  0
LAYER
  2
0
 70
     0
 62
     7
  6
CONTINUOUS
  0
LAYER
  2
1
 70
     0
 62
     1
  6
CENTER
  0
LAYER
  2
3
 70
     0
 62
     3
  6
CONTINUOUS
  0
LAYER
  2
2
 70
     0
 62
     2
  6
HIDDEN
  0
ENDTAB
  0
TABLE
  2
STYLE
 70
     2
  0
STYLE
  2
STANDARD
 70
     0
 40
0.0
 41
1.0
 50
0.0
 71
     0
 42
0.2
  3
TXT
  4
BIGFONT
  0
STYLE
  2
STANDARD1
 70
     0
 40
0.0
 41
1.0
 50
0.0
 71
     0
 42
3.0
  3
txt
  4

  0
ENDTAB
  0
TABLE
  2
VIEW
 70
     1
  0
VIEW
  2
ALL
 70
     0
 40
179.5384664489153
 10
135.0
 20
89.769233224457665
 41
0.0
 11
0.0
 21
0.0
 31
1.0
 12
0.0
 22
0.0
 32
0.0
 42
0.0
 43
0.0
 44
0.0
 50
0.0
 71
     0
  0
ENDTAB
  0
TABLE
  2
UCS
 70
     0
  0
ENDTAB
  0
TABLE
  2
APPID
 70
     3
  0
APPID
  2
ACAD
 70
     0
  0
APPID
  2
ACAD_MLEADERVER
 70
     0
  0
APPID
  2
ACAD_NAV_VCDISPLAY
 70
     0
  0
ENDTAB
  0
TABLE
  2
DIMSTYLE
 70
     1
  0
DIMSTYLE
  2
STANDARD
 70
     0
  3

  4

  5

  6

  7

 40
1.0
 41
0.18
 42
0.0625
 43
0.38
 44
0.18
 45
0.0
 46
0.0
 47
0.0
 48
0.0
140
0.18
141
0.09
142
0.0
143
25.399999999999999
144
1.0
145
0.0
146
1.0
147
0.09
 71
     0
 72
     0
 73
     1
 74
     1
 75
     0
 76
     0
 77
     0
 78
     0
170
     0
171
     2
172
     0
173
     0
174
     0
175
     0
176
     0
177
     0
178
     0
  0
ENDTAB
  0
ENDSEC
  0
SECTION
  2
BLOCKS
  0
BLOCK
  8
0
  2
$MODEL_SPACE
 70
     0
 10
0.0
 20
0.0
 30
0.0
  3
$MODEL_SPACE
  1

  0
ENDBLK
  5
CB
  8
0
  0
BLOCK
 67
     1
  8
0
  2
$PAPER_SPACE
 70
     0
 10
0.0
 20
0.0
 30
0.0
  3
$PAPER_SPACE
  1

  0
ENDBLK
  5
C9
 67
     1
  8
0
  0
ENDSEC
  0
SECTION
  2
ENTITIES
  0
CIRCLE
  5
34
  8
0
 10
110.150895425893
 20
135.8849648900254
 30
0.0
 40
12.0
  0
CIRCLE
  5
35
  8
3
 10
110.150895425893
 20
135.8849648900254
 30
0.0
 40
4.0
  0
CIRCLE
  5
36
  8
0
 10
110.150895425893
 20
135.8849648900254
 30
0.0
 40
3.375
  0
LINE
  5
37
  8
0
 10
121.6508954258929
 20
38.586251681784987
 30
0.0
 11
122.1508954258929
 21
39.086251681784987
 31
0.0
  0
LINE
  5
38
  8
0
 10
121.650895425893
 20
88.586251681785086
 30
0.0
 11
122.1508954258929
 21
88.086251681785086
 31
0.0
  0
LINE
  5
39
  8
0
 10
98.150895425892983
 20
88.086251681785086
 30
0.0
 11
98.650895425892969
 21
88.586251681785086
 31
0.0
  0
LINE
  5
3A
  8
0
 10
98.650895425892955
 20
38.586251681785043
 30
0.0
 11
98.150895425892941
 21
39.08625168178505
 31
0.0
  0
LINE
  5
3B
  8
0
 10
121.1508483752675
 20
61.586251681784923
 30
0.0
 11
121.1508483752674
 21
48.586251681784972
 31
0.0
  0
LINE
  5
3C
  8
0
 10
121.1508483752675
 20
61.586251681784923
 30
0.0
 11
122.1508954258929
 21
62.163629115665742
 31
0.0
  0
LINE
  5
3D
  8
0
 10
121.1508483752674
 20
48.586251681784972
 30
0.0
 11
122.1508954258929
 21
48.008874247904089
 31
0.0
  0
ARC
  5
3E
  8
0
 10
104.6508954258926
 20
63.235798326810759
 30
0.0
 40
15.22692407890654
 50
254.17136779384529
 51
285.82863220615729
  0
ARC
  5
3F
  8
0
 10
104.6508954258926
 20
46.936705036759243
 30
0.0
 40
15.22692407890654
 50
74.171367793842791
 51
105.82863220615459
  0
LINE
  5
40
  8
0
 10
99.150942476518452
 20
48.586251681784972
 30
0.0
 11
98.150895425892983
 21
48.008874247904089
 31
0.0
  0
LINE
  5
41
  8
0
 10
99.150942476518424
 20
61.586251681784923
 30
0.0
 11
98.150895425892983
 21
62.163629115665742
 31
0.0
  0
LINE
  5
42
  8
0
 10
108.8042073573519
 20
61.586251681785022
 30
0.0
 11
108.8042073573519
 21
48.586251681785029
 31
0.0
  0
LINE
  5
43
  8
0
 10
100.4975834944339
 20
61.586251681785022
 30
0.0
 11
100.4975834944339
 21
48.586251681785029
 31
0.0
  0
LINE
  5
44
  8
0
 10
113.4008954258929
 20
38.186251681784981
 30
0.0
 11
113.4008954258929
 21
36.486251681785021
 31
0.0
  0
ARC
  5
45
  8
0
 10
113.8008954258929
 20
36.486251681785021
 30
0.0
 40
0.4
 50
180.0
 51
270.0
  0
ARC
  5
46
  8
0
 10
106.50089542589291
 20
36.486251681785021
 30
0.0
 40
0.4
 50
270.0
 51
0.0
  0
LINE
  5
47
  8
0
 10
98.150895425892941
 20
39.08625168178505
 30
0.0
 11
98.150895425892983
 21
48.008874247904089
 31
0.0
  0
LINE
  5
48
  8
0
 10
98.150895425892983
 20
62.163629115665742
 30
0.0
 11
98.150895425892983
 21
88.086251681785129
 31
0.0
  0
LINE
  5
49
  8
0
 10
108.8042073573519
 20
48.586251681785029
 30
0.0
 11
100.4975834944339
 21
48.586251681785029
 31
0.0
  0
LINE
  5
4A
  8
0
 10
99.150942476518424
 20
61.586251681784923
 30
0.0
 11
99.150942476518452
 21
48.586251681784972
 31
0.0
  0
LINE
  5
4B
  8
0
 10
108.8042073573519
 20
61.586251681784972
 30
0.0
 11
100.4975834944339
 21
61.586251681785022
 31
0.0
  0
LINE
  5
4C
  8
0
 10
122.1508954258929
 20
62.163629115665742
 30
0.0
 11
122.1508954258929
 21
88.086251681785086
 31
0.0
  0
LINE
  5
4D
  8
0
 10
114.1508954258929
 20
20.786251681785028
 30
0.0
 11
106.1508954258929
 21
20.786251681785028
 31
0.0
  0
LINE
  5
4E
  8
0
 10
112.9508954258929
 20
19.58625168178499
 30
0.0
 11
114.1508954258929
 21
20.786251681784972
 31
0.0
  0
LINE
  5
4F
  8
0
 10
106.1508954258929
 20
20.786251681785028
 30
0.0
 11
107.3508954258929
 21
19.58625168178504
 31
0.0
  0
LINE
  5
50
  8
0
 10
106.9008954258929
 20
38.186251681784981
 30
0.0
 11
106.9008954258929
 21
36.486248984386712
 31
0.0
  0
LINE
  5
51
  8
0
 10
106.1508954258929
 20
36.086251681785043
 30
0.0
 11
113.8008935185443
 21
36.086251681785043
 31
0.0
  0
LINE
  5
52
  8
0
 10
112.9508954258929
 20
19.58625168178499
 30
0.0
 11
107.3508954258929
 21
19.58625168178504
 31
0.0
  0
LINE
  5
53
  8
0
 10
106.1508954258929
 20
36.086251681785043
 30
0.0
 11
106.1508954258929
 21
20.786251681785028
 31
0.0
  0
LINE
  5
54
  8
3
 10
106.7508954258933
 20
36.174001781859502
 30
0.0
 11
106.7508954258933
 21
20.186251681784672
 31
0.0
  0
LINE
  5
55
  8
3
 10
113.55089542589261
 20
36.174001781871162
 30
0.0
 11
113.55089542589261
 21
20.186251681784611
 31
0.0
  0
LINE
  5
56
  8
0
 10
114.1508954258929
 20
36.086251681785022
 30
0.0
 11
114.1508954258929
 21
20.786251681784972
 31
0.0
  0
LINE
  5
57
  8
0
 10
121.650895425893
 20
88.586251681785086
 30
0.0
 11
98.650895425892969
 21
88.586251681785086
 31
0.0
  0
LINE
  5
58
  8
0
 10
122.1508954258929
 20
39.086251681784987
 30
0.0
 11
122.1508954258929
 21
48.008874247904089
 31
0.0
  0
LINE
  5
59
  8
1
 10
110.1508954258929
 20
94.530238596688434
 30
0.0
 11
110.1508954258929
 21
13.642264766881681
 31
0.0
  0
LINE
  5
5A
  8
0
 10
98.650895425892955
 20
38.586251681785043
 30
0.0
 11
121.650895425893
 21
38.586251681785022
 31
0.0
  0
LINE
  5
5B
  8
0
 10
114.1508954258929
 20
36.086251681785043
 30
0.0
 11
113.8008954258929
 21
36.086251681785043
 31
0.0
  0
ARC
  5
5C
  8
0
 10
113.8008954258929
 20
38.186251681784981
 30
0.0
 40
0.4
 50
90.0
 51
180.0
  0
ARC
  5
5D
  8
0
 10
106.50089542589291
 20
38.186251681784981
 30
0.0
 40
0.4
 50
0.0
 51
90.0
  0
LINE
  5
5E
  8
0
 10
111.4975834944339
 20
61.586251681784972
 30
0.0
 11
119.8042073573519
 21
61.586251681785022
 31
0.0
  0
LINE
  5
5F
  8
0
 10
111.4975834944339
 20
48.586251681785029
 30
0.0
 11
119.8042073573519
 21
48.586251681785029
 31
0.0
  0
LINE
  5
60
  8
0
 10
119.8042073573519
 20
61.586251681785022
 30
0.0
 11
119.8042073573519
 21
48.586251681785029
 31
0.0
  0
LINE
  5
61
  8
0
 10
111.4975834944339
 20
61.586251681785022
 30
0.0
 11
111.4975834944339
 21
48.586251681785029
 31
0.0
  0
ARC
  5
62
  8
0
 10
115.6508954258933
 20
46.936705036759243
 30
0.0
 40
15.22692407890654
 50
74.171367793845363
 51
105.8286322061572
  0
ARC
  5
63
  8
0
 10
115.6508954258933
 20
63.235798326810759
 30
0.0
 40
15.22692407890654
 50
254.17136779384279
 51
285.82863220615468
  0
LINE
  5
64
  8
1
 10
110.150895425893
 20
117.6933731211919
 30
0.0
 11
110.150895425893
 21
154.07655665885889
 31
0.0
  0
LINE
  5
65
  8
1
 10
128.34248719472649
 20
135.8849648900254
 30
0.0
 11
91.959303657059465
 21
135.8849648900254
 31
0.0
  0
LINE
  5
131
  8
0
 10
100.497583494434
 20
61.586251681785072
 30
0.0
 11
108.8042073573515
 21
48.586251681785029
 31
0.0
  0
LINE
  5
132
  8
0
 10
108.8042073573516
 20
61.586251681784972
 30
0.0
 11
100.4975834944339
 21
48.586251681785029
 31
0.0
  0
LINE
  5
133
  8
0
 10
111.49758349443429
 20
61.586251681784972
 30
0.0
 11
119.8042073573519
 21
48.586251681785029
 31
0.0
  0
LINE
  5
134
  8
0
 10
119.8042073573521
 20
61.586251681785022
 30
0.0
 11
111.4975834944339
 21
48.586251681785029
 31
0.0
  0
LINE
  5
199
  8
2
 10
110.1508954258929
 20
62.637694523270007
 30
0.0
 11
106.7758954258928
 21
64.5862516817851
 31
0.0
  0
LINE
  5
19A
  8
2
 10
110.1508954258929
 20
62.637694523270007
 30
0.0
 11
113.5258954258931
 21
64.5862516817851
 31
0.0
  0
LINE
  5
19B
  8
2
 10
113.525895425893
 20
64.5862516817851
 30
0.0
 11
106.7758954258928
 21
64.5862516817851
 31
0.0
  0
LINE
  5
19C
  8
2
 10
114.150895425893
 20
68.5862516817851
 30
0.0
 11
106.1508954258928
 21
68.5862516817851
 31
0.0
  0
LINE
  5
19D
  8
2
 10
113.525895425893
 20
88.586251681785043
 30
0.0
 11
113.525895425893
 21
64.5862516817851
 31
0.0
  0
LINE
  5
19E
  8
2
 10
114.150895425893
 20
88.586251681785072
 30
0.0
 11
114.150895425893
 21
68.5862516817851
 31
0.0
  0
LINE
  5
19F
  8
2
 10
106.1508954258928
 20
88.586251681785086
 30
0.0
 11
106.1508954258928
 21
68.5862516817851
 31
0.0
  0
LINE
  5
1A0
  8
2
 10
106.7758954258928
 20
88.586251681785072
 30
0.0
 11
106.7758954258928
 21
64.5862516817851
 31
0.0
  0
TEXT
  5
1FE
  8
0
 62
     3
 10
0.0
 20
0.0
 30
0.0
 40
10.0
  1
BJ600-08050
  7
STANDARD1
  0
ENDSEC
  0
EOF
