  0
SECTION
  2
HEADER
  9
$ACADVER
  1
AC1009
  9
$INSBASE
 10
0.0
 20
0.0
 30
0.0
  9
$EXTMIN
 10
0.0
 20
-2.960436562073669
 30
0.0
  9
$EXTMAX
 10
222.48484079630359
 20
349.58616018268748
 30
0.0
  9
$LIMMIN
 10
0.0
 20
0.0
  9
$LIMMAX
 10
750.0
 20
540.0
  9
$ORTHOMODE
 70
     0
  9
$REGENMODE
 70
     1
  9
$FILLMODE
 70
     1
  9
$QTEXTMODE
 70
     0
  9
$MIRRTEXT
 70
     0
  9
$DRAGMODE
 70
     2
  9
$LTSCALE
 40
20.0
  9
$OSMODE
 70
  3071
  9
$ATTMODE
 70
     1
  9
$TEXTSIZE
 40
0.2
  9
$TRACEWID
 40
0.05
  9
$TEXTSTYLE
  7
STANDARD
  9
$CLAYER
  8
0
  9
$CELTYPE
  6
BYLAYER
  9
$CECOLOR
 62
   256
  9
$DIMSCALE
 40
2.0
  9
$DIMASZ
 40
3.0
  9
$DIMEXO
 40
2.0
  9
$DIMDLI
 40
0.38
  9
$DIMRND
 40
0.0
  9
$DIMDLE
 40
0.0
  9
$DIMEXE
 40
2.0
  9
$DIMTP
 40
0.0
  9
$DIMTM
 40
0.0
  9
$DIMTXT
 40
3.2000000000000002
  9
$DIMCEN
 40
0.0
  9
$DIMTSZ
 40
0.0
  9
$DIMTOL
 70
     0
  9
$DIMLIM
 70
     0
  9
$DIMTIH
 70
     0
  9
$DIMTOH
 70
     0
  9
$DIMSE1
 70
     0
  9
$DIMSE2
 70
     0
  9
$DIMTAD
 70
     1
  9
$DIMZIN
 70
     0
  9
$DIMBLK
  1

  9
$DIMASO
 70
     0
  9
$DIMSHO
 70
     0
  9
$DIMPOST
  1

  9
$DIMAPOST
  1

  9
$DIMALT
 70
     0
  9
$DIMALTD
 70
     2
  9
$DIMALTF
 40
25.399999999999999
  9
$DIMLFAC
 40
1.0
  9
$DIMTOFL
 70
     1
  9
$DIMTVP
 40
1.6000000000000001
  9
$DIMTIX
 70
     1
  9
$DIMSOXD
 70
     0
  9
$DIMSAH
 70
     0
  9
$DIMBLK1
  1

  9
$DIMBLK2
  1

  9
$DIMSTYLE
  2
STANDARD
  9
$DIMCLRD
 70
     0
  9
$DIMCLRE
 70
     0
  9
$DIMCLRT
 70
     0
  9
$DIMTFAC
 40
1.0
  9
$DIMGAP
 40
0.09
  9
$LUNITS
 70
     2
  9
$LUPREC
 70
     4
  9
$SKETCHINC
 40
0.1
  9
$FILLETRAD
 40
0.0
  9
$AUNITS
 70
     0
  9
$AUPREC
 70
     4
  9
$MENU
  1
E:\r13\win\SUPPORT\ACAD
  9
$ELEVATION
 40
0.0
  9
$PELEVATION
 40
0.0
  9
$THICKNESS
 40
0.0
  9
$LIMCHECK
 70
     0
  9
$BLIPMODE
 70
     0
  9
$CHAMFERA
 40
0.0
  9
$CHAMFERB
 40
0.0
  9
$SKPOLY
 70
     0
  9
$TDCREATE
 40
2449839.7645370369
  9
$TDUPDATE
 40
2456597.679469456
  9
$TDINDWG
 40
0.0013714699
  9
$TDUSRTIMER
 40
0.0013714699
  9
$USRTIMER
 70
     1
  9
$ANGBASE
 50
0.0
  9
$ANGDIR
 70
     0
  9
$PDMODE
 70
     0
  9
$PDSIZE
 40
0.0
  9
$PLINEWID
 40
0.0
  9
$COORDS
 70
     1
  9
$SPLFRAME
 70
     0
  9
$SPLINETYPE
 70
     6
  9
$SPLINESEGS
 70
     8
  9
$ATTDIA
 70
     0
  9
$ATTREQ
 70
     1
  9
$HANDLING
 70
     1
  9
$HANDSEED
  5
239
  9
$SURFTAB1
 70
     6
  9
$SURFTAB2
 70
     6
  9
$SURFTYPE
 70
     6
  9
$SURFU
 70
     6
  9
$SURFV
 70
     6
  9
$UCSNAME
  2

  9
$UCSORG
 10
0.0
 20
0.0
 30
0.0
  9
$UCSXDIR
 10
1.0
 20
0.0
 30
0.0
  9
$UCSYDIR
 10
0.0
 20
1.0
 30
0.0
  9
$PUCSNAME
  2

  9
$PUCSORG
 10
0.0
 20
0.0
 30
0.0
  9
$PUCSXDIR
 10
1.0
 20
0.0
 30
0.0
  9
$PUCSYDIR
 10
0.0
 20
1.0
 30
0.0
  9
$USERI1
 70
     0
  9
$USERI2
 70
     1
  9
$USERI3
 70
     0
  9
$USERI4
 70
     0
  9
$USERI5
 70
     0
  9
$USERR1
 40
0.0
  9
$USERR2
 40
0.0
  9
$USERR3
 40
0.0
  9
$USERR4
 40
0.0
  9
$USERR5
 40
0.0
  9
$WORLDVIEW
 70
     1
  9
$SHADEDGE
 70
     3
  9
$SHADEDIF
 70
    70
  9
$TILEMODE
 70
     1
  9
$MAXACTVP
 70
    16
  9
$PLIMCHECK
 70
     0
  9
$PEXTMIN
 10
1.0000000000000000E+020
 20
1.0000000000000000E+020
 30
1.0000000000000000E+020
  9
$PEXTMAX
 10
-1.0000000000000000E+020
 20
-1.0000000000000000E+020
 30
-1.0000000000000000E+020
  9
$PLIMMIN
 10
0.0
 20
0.0
  9
$PLIMMAX
 10
12.0
 20
9.0
  9
$UNITMODE
 70
     0
  9
$VISRETAIN
 70
     0
  9
$PLINEGEN
 70
     0
  9
$PSLTSCALE
 70
     0
  0
ENDSEC
  0
SECTION
  2
TABLES
  0
TABLE
  2
VPORT
 70
     1
  0
VPORT
  2
*ACTIVE
 70
     0
 10
0.0
 20
0.0
 11
1.0
 21
1.0
 12
390.03402345615979
 22
268.50860658393782
 13
0.0
 23
0.0
 14
20.0
 24
20.0
 15
20.0
 25
20.0
 16
0.0
 26
0.0
 36
1.0
 17
0.0
 27
0.0
 37
0.0
 40
547.85258761088789
 41
1.831871345029239
 42
50.0
 43
0.0
 44
0.0
 50
0.0
 51
0.0
 71
     0
 72
   500
 73
     1
 74
     0
 75
     0
 76
     0
 77
     0
 78
     2
  0
ENDTAB
  0
TABLE
  2
LTYPE
 70
     4
  0
LTYPE
  2
CONTINUOUS
 70
     0
  3
Solid Line
 72
    65
 73
     0
 40
0.0
  0
LTYPE
  2
CENTER
 70
     0
  3
____ _ ____ _ ____ _ ____ _ ____ _ ____ _ ____
 72
    65
 73
     4
 40
2.0
 49
1.25
 49
-0.25
 49
0.25
 49
-0.25
  0
LTYPE
  2
HIDDEN
 70
     0
  3
_ _ _ _ _ _ _ _ _ _ _ _ _ _ _ _ _ _ _ _ _ _ _
 72
    65
 73
     2
 40
0.375
 49
0.25
 49
-0.125
  0
LTYPE
  2
PHANTOM2
 70
     0
  3
___ _ _ ___ _ _ ___ _ _ ___ _ _
 72
    65
 73
     6
 40
1.25
 49
0.625
 49
-0.125
 49
0.125
 49
-0.125
 49
0.125
 49
-0.125
  0
ENDTAB
  0
TABLE
  2
LAYER
 70
     4
  0
LAYER
  2
0
 70
     0
 62
     7
  6
CONTINUOUS
  0
LAYER
  2
1
 70
     0
 62
     1
  6
CENTER
  0
LAYER
  2
3
 70
     0
 62
     3
  6
CONTINUOUS
  0
LAYER
  2
2
 70
     0
 62
     2
  6
HIDDEN
  0
ENDTAB
  0
TABLE
  2
STYLE
 70
     2
  0
STYLE
  2
STANDARD
 70
     0
 40
0.0
 41
1.0
 50
0.0
 71
     0
 42
0.2
  3
TXT
  4
BIGFONT
  0
STYLE
  2
STANDARD1
 70
     0
 40
0.0
 41
1.0
 50
0.0
 71
     0
 42
3.0
  3
txt
  4

  0
ENDTAB
  0
TABLE
  2
VIEW
 70
     1
  0
VIEW
  2
ALL
 70
     0
 40
540.0
 10
441.98319327731087
 20
270.0
 41
0.0
 11
0.0
 21
0.0
 31
1.0
 12
0.0
 22
0.0
 32
0.0
 42
0.0
 43
0.0
 44
0.0
 50
0.0
 71
     0
  0
ENDTAB
  0
TABLE
  2
UCS
 70
     0
  0
ENDTAB
  0
TABLE
  2
APPID
 70
     3
  0
APPID
  2
ACAD
 70
     0
  0
APPID
  2
ACAD_MLEADERVER
 70
     0
  0
APPID
  2
ACAD_NAV_VCDISPLAY
 70
     0
  0
ENDTAB
  0
TABLE
  2
DIMSTYLE
 70
     1
  0
DIMSTYLE
  2
STANDARD
 70
     0
  3

  4

  5

  6

  7

 40
1.0
 41
0.18
 42
0.0625
 43
0.38
 44
0.18
 45
0.0
 46
0.0
 47
0.0
 48
0.0
140
0.18
141
0.09
142
0.0
143
25.399999999999999
144
1.0
145
0.0
146
1.0
147
0.09
 71
     0
 72
     0
 73
     1
 74
     1
 75
     0
 76
     0
 77
     0
 78
     0
170
     0
171
     2
172
     0
173
     0
174
     0
175
     0
176
     0
177
     0
178
     0
  0
ENDTAB
  0
ENDSEC
  0
SECTION
  2
BLOCKS
  0
BLOCK
  8
0
  2
$MODEL_SPACE
 70
     0
 10
0.0
 20
0.0
 30
0.0
  3
$MODEL_SPACE
  1

  0
ENDBLK
  5
E4
  8
0
  0
BLOCK
 67
     1
  8
0
  2
$PAPER_SPACE
 70
     0
 10
0.0
 20
0.0
 30
0.0
  3
$PAPER_SPACE
  1

  0
ENDBLK
  5
E2
 67
     1
  8
0
  0
ENDSEC
  0
SECTION
  2
ENTITIES
  0
CIRCLE
  5
43
  8
0
 10
184.46436298060391
 20
309.6861225360434
 30
0.0
 40
30.0
  0
CIRCLE
  5
44
  8
0
 10
184.46436298060391
 20
309.6861225360434
 30
0.0
 40
6.9000000000000004
  0
LINE
  5
45
  8
0
 10
184.46436298060391
 20
309.6861225360434
 30
0.0
 11
184.46436298060391
 21
309.6861225360434
 31
0.0
  0
LINE
  5
46
  8
0
 10
184.46436298060391
 20
309.6861225360434
 30
0.0
 11
184.46436298060391
 21
309.6861225360434
 31
0.0
  0
LINE
  5
47
  8
0
 10
184.46436298060391
 20
309.6861225360434
 30
0.0
 11
184.46436298060391
 21
309.6861225360434
 31
0.0
  0
LINE
  5
48
  8
0
 10
184.46436298060391
 20
309.6861225360434
 30
0.0
 11
184.46436298060391
 21
309.6861225360434
 31
0.0
  0
LINE
  5
49
  8
0
 10
184.46436298060391
 20
309.6861225360434
 30
0.0
 11
184.46436298060391
 21
309.6861225360434
 31
0.0
  0
LINE
  5
4A
  8
0
 10
184.46436298060391
 20
309.6861225360434
 30
0.0
 11
184.46436298060391
 21
309.6861225360434
 31
0.0
  0
LINE
  5
4B
  8
0
 10
184.46436298060391
 20
309.6861225360434
 30
0.0
 11
184.46436298060391
 21
309.6861225360434
 31
0.0
  0
LINE
  5
4C
  8
0
 10
184.46436298060391
 20
309.6861225360434
 30
0.0
 11
184.46436298060391
 21
309.6861225360434
 31
0.0
  0
CIRCLE
  5
4D
  8
3
 10
184.46436298060391
 20
309.6861225360434
 30
0.0
 40
8.0
  0
LINE
  5
4E
  8
1
 10
184.46436298060391
 20
349.58616018268748
 30
0.0
 11
184.46436298060391
 21
269.6861225360434
 31
0.0
  0
LINE
  5
4F
  8
1
 10
146.00019915807829
 20
309.6861225360434
 30
0.0
 11
222.48484079630359
 21
309.6861225360434
 31
0.0
  0
LINE
  5
50
  8
0
 10
155.46436298060399
 20
229.68612253604351
 30
0.0
 11
213.46436298060411
 21
229.68612253604351
 31
0.0
  0
LINE
  5
51
  8
0
 10
214.46436298060399
 20
78.531421997664211
 30
0.0
 11
214.46436298060399
 21
70.686122536043513
 31
0.0
  0
LINE
  5
52
  8
0
 10
190.96436298060391
 20
69.286122536043649
 30
0.0
 11
190.96436298060391
 21
66.086122536043604
 31
0.0
  0
LINE
  5
53
  8
0
 10
192.46436298060391
 20
65.686122536043513
 30
0.0
 11
192.46436298060391
 21
41.686122536043513
 31
0.0
  0
LINE
  5
54
  8
0
 10
190.46436298060391
 20
39.686122536043513
 30
0.0
 11
178.46436298060411
 21
39.686122536043513
 31
0.0
  0
LINE
  5
55
  8
0
 10
214.46436298060399
 20
228.68612253604351
 30
0.0
 11
213.46436298060411
 21
229.68612253604351
 31
0.0
  0
LINE
  5
56
  8
0
 10
214.46436298060399
 20
70.686122536043513
 30
0.0
 11
213.46436298060391
 21
69.686122536043513
 31
0.0
  0
LINE
  5
57
  8
0
 10
192.46436298060391
 20
41.686122536043513
 30
0.0
 11
190.46436298060391
 21
39.686122536043513
 31
0.0
  0
ARC
  5
58
  8
0
 10
191.3643629806038
 20
69.286122536043649
 30
0.0
 40
0.4
 50
90.0
 51
180.0
  0
ARC
  5
59
  8
0
 10
191.3643629806038
 20
66.086122536043604
 30
0.0
 40
0.4
 50
180.0
 51
270.0
  0
LINE
  5
5A
  8
0
 10
192.46436298060391
 20
41.686122536043513
 30
0.0
 11
176.46436298060391
 21
41.686122536043513
 31
0.0
  0
LINE
  5
5B
  8
3
 10
191.364362980604
 20
40.586122536043597
 30
0.0
 11
191.364362980604
 21
65.686122536043513
 31
0.0
  0
LINE
  5
5C
  8
0
 10
213.46436298060391
 20
69.686122536043513
 30
0.0
 11
155.46436298060411
 21
69.686122536043513
 31
0.0
  0
LINE
  5
5D
  8
0
 10
214.46436298060399
 20
78.531421997664211
 30
0.0
 11
211.96436298060391
 21
79.974797670638281
 31
0.0
  0
LINE
  5
5E
  8
0
 10
211.96436298060391
 20
79.974797670638281
 30
0.0
 11
211.96436298060391
 21
104.9747976706383
 31
0.0
  0
LINE
  5
5F
  8
0
 10
211.96436298060391
 20
104.9747976706383
 30
0.0
 11
214.46436298060399
 21
106.4181733436123
 31
0.0
  0
LINE
  5
60
  8
0
 10
214.46436298060399
 20
106.4181733436123
 30
0.0
 11
214.46436298060399
 21
228.68612253604351
 31
0.0
  0
LINE
  5
61
  8
0
 10
208.59764280925131
 20
104.9748225360435
 30
0.0
 11
208.59764280925131
 21
79.974822536043575
 31
0.0
  0
LINE
  5
62
  8
0
 10
187.83108315195659
 20
104.9748225360435
 30
0.0
 11
187.83108315195659
 21
79.974822536043575
 31
0.0
  0
LINE
  5
63
  8
0
 10
208.59764280925131
 20
104.9748225360435
 30
0.0
 11
187.83108315195659
 21
104.9748225360435
 31
0.0
  0
LINE
  5
64
  8
0
 10
208.59764280925131
 20
79.974822536043575
 30
0.0
 11
187.83108315195659
 21
79.974822536043575
 31
0.0
  0
ARC
  5
65
  8
0
 10
198.21436298060391
 20
116.5998244237776
 30
0.0
 40
38.06840242611333
 50
254.1718338534765
 51
285.82816614652518
  0
ARC
  5
66
  8
0
 10
198.21436298060439
 20
68.348508998175234
 30
0.0
 40
38.069664345437133
 50
74.172372286264832
 51
105.8276277137351
  0
ARC
  5
67
  8
0
 10
170.71436298060351
 20
68.348508998175234
 30
0.0
 40
38.069664345437133
 50
74.17237228626314
 51
105.8276277137351
  0
ARC
  5
68
  8
0
 10
170.71436298060391
 20
116.5998244237776
 30
0.0
 40
38.06840242611333
 50
254.1718338534765
 51
285.82816614652518
  0
LINE
  5
69
  8
0
 10
160.33108315195659
 20
79.974822536043575
 30
0.0
 11
181.09764280925131
 21
79.974822536043575
 31
0.0
  0
LINE
  5
6A
  8
0
 10
160.33108315195659
 20
104.9748225360435
 30
0.0
 11
181.09764280925131
 21
104.9748225360435
 31
0.0
  0
LINE
  5
6B
  8
0
 10
181.09764280925131
 20
104.9748225360435
 30
0.0
 11
181.09764280925131
 21
79.974822536043575
 31
0.0
  0
LINE
  5
6C
  8
0
 10
160.33108315195659
 20
104.9748225360435
 30
0.0
 11
160.33108315195659
 21
79.974822536043575
 31
0.0
  0
LINE
  5
6D
  8
0
 10
154.46436298060391
 20
106.4181733436123
 30
0.0
 11
154.46436298060399
 21
228.68612253604351
 31
0.0
  0
LINE
  5
6E
  8
0
 10
156.96436298060391
 20
104.9747976706383
 30
0.0
 11
154.46436298060391
 21
106.4181733436123
 31
0.0
  0
LINE
  5
6F
  8
0
 10
156.96436298060391
 20
79.974797670638281
 30
0.0
 11
156.96436298060391
 21
104.9747976706383
 31
0.0
  0
LINE
  5
70
  8
0
 10
154.46436298060391
 20
78.531421997664211
 30
0.0
 11
156.96436298060391
 21
79.974797670638281
 31
0.0
  0
LINE
  5
71
  8
3
 10
177.56436298060379
 20
40.586122536043597
 30
0.0
 11
177.56436298060379
 21
65.686122536043513
 31
0.0
  0
ARC
  5
72
  8
0
 10
177.56436298060379
 20
66.086122536043604
 30
0.0
 40
0.4
 50
270.0
 51
0.0
  0
ARC
  5
73
  8
0
 10
177.56436298060379
 20
69.286122536043649
 30
0.0
 40
0.4
 50
0.0
 51
90.0
  0
LINE
  5
74
  8
0
 10
176.46436298060391
 20
41.686122536043513
 30
0.0
 11
178.46436298060411
 21
39.686122536043513
 31
0.0
  0
LINE
  5
75
  8
0
 10
154.46436298060391
 20
70.686122536043513
 30
0.0
 11
155.46436298060411
 21
69.686122536043513
 31
0.0
  0
LINE
  5
76
  8
0
 10
154.46436298060399
 20
228.68612253604351
 30
0.0
 11
155.46436298060399
 21
229.68612253604351
 31
0.0
  0
LINE
  5
77
  8
0
 10
176.46436298060391
 20
65.686122536043513
 30
0.0
 11
176.46436298060391
 21
41.686122536043513
 31
0.0
  0
LINE
  5
78
  8
0
 10
177.96436298060391
 20
69.286122536043649
 30
0.0
 11
177.96436298060391
 21
66.086122536043604
 31
0.0
  0
LINE
  5
79
  8
0
 10
154.46436298060391
 20
78.531421997664211
 30
0.0
 11
154.46436298060391
 21
70.686122536043513
 31
0.0
  0
LINE
  5
7A
  8
0
 10
192.46436298060391
 20
65.686122536043513
 30
0.0
 11
176.46436298060391
 21
65.686122536043513
 31
0.0
  0
LINE
  5
7B
  8
1
 10
184.46436298060399
 20
239.68612253604351
 30
0.0
 11
184.46436298060391
 21
29.68612253603192
 31
0.0
  0
LINE
  5
157
  8
2
 10
176.46436298060371
 20
194.68612253604351
 30
0.0
 11
176.46436298060419
 21
229.68612253604351
 31
0.0
  0
LINE
  5
158
  8
2
 10
177.56436298060419
 20
188.68612253604351
 30
0.0
 11
184.39028890652989
 21
184.6861225360436
 31
0.0
  0
LINE
  5
159
  8
2
 10
192.46436298060419
 20
194.68612253604351
 30
0.0
 11
176.46436298060371
 21
194.6861225360434
 31
0.0
  0
LINE
  5
15A
  8
2
 10
191.36436298060389
 20
188.68612253604351
 30
0.0
 11
177.56436298060419
 21
188.68612253604351
 31
0.0
  0
LINE
  5
15B
  8
2
 10
192.46436298060419
 20
194.68612253604351
 30
0.0
 11
192.46436298060371
 21
229.68612253604351
 31
0.0
  0
LINE
  5
15C
  8
2
 10
191.36436298060389
 20
188.68612253604351
 30
0.0
 11
184.53843705467801
 21
184.6861225360436
 31
0.0
  0
LINE
  5
15D
  8
2
 10
191.36436298060389
 20
229.68612253604351
 30
0.0
 11
191.36436298060389
 21
188.68612253604351
 31
0.0
  0
LINE
  5
15E
  8
2
 10
177.56436298060419
 20
229.68612253604351
 30
0.0
 11
177.56436298060419
 21
188.68612253604351
 31
0.0
  0
LINE
  5
15F
  8
0
 10
208.59764280925131
 20
104.9748225360435
 30
0.0
 11
187.8310831519567
 21
79.974822536043575
 31
0.0
  0
LINE
  5
160
  8
0
 10
187.83108315195659
 20
104.9748225360435
 30
0.0
 11
208.59764280925111
 21
79.974822536043575
 31
0.0
  0
LINE
  5
161
  8
0
 10
181.09764280925131
 20
104.9748225360435
 30
0.0
 11
160.33108315195659
 21
79.974822536043632
 31
0.0
  0
LINE
  5
162
  8
0
 10
160.33108315195659
 20
104.9748225360439
 30
0.0
 11
181.09764280925111
 21
79.974822536043575
 31
0.0
  0
TEXT
  5
1D1
  8
0
 62
     3
 10
0.0
 20
0.0
 30
0.0
 40
10.0
  1
BJ600-16160
  7
STANDARD1
  0
ENDSEC
  0
EOF
