  0
SECTION
  2
HEADER
  9
$ACADVER
  1
AC1009
  9
$INSBASE
 10
0.0
 20
0.0
 30
0.0
  9
$EXTMIN
 10
0.0
 20
-2.960436562073669
 30
0.0
  9
$EXTMAX
 10
113.80381625472801
 20
170.6004131449225
 30
0.0
  9
$LIMMIN
 10
0.0
 20
0.0
  9
$LIMMAX
 10
0.0
 20
0.0
  9
$ORTHOMODE
 70
     0
  9
$REGENMODE
 70
     1
  9
$FILLMODE
 70
     1
  9
$QTEXTMODE
 70
     0
  9
$MIRRTEXT
 70
     0
  9
$DRAGMODE
 70
     2
  9
$LTSCALE
 40
1.0
  9
$OSMODE
 70
  3071
  9
$ATTMODE
 70
     1
  9
$TEXTSIZE
 40
0.0
  9
$TRACEWID
 40
0.05
  9
$TEXTSTYLE
  7
STANDARD
  9
$CLAYER
  8
0
  9
$CELTYPE
  6
BYLAYER
  9
$CECOLOR
 62
   256
  9
$DIMSCALE
 40
1.0
  9
$DIMASZ
 40
6.0
  9
$DIMEXO
 40
1.0
  9
$DIMDLI
 40
0.38
  9
$DIMRND
 40
0.0
  9
$DIMDLE
 40
1.0
  9
$DIMEXE
 40
0.18
  9
$DIMTP
 40
0.0
  9
$DIMTM
 40
0.0
  9
$DIMTXT
 40
3.5
  9
$DIMCEN
 40
0.09
  9
$DIMTSZ
 40
0.0
  9
$DIMTOL
 70
     0
  9
$DIMLIM
 70
     0
  9
$DIMTIH
 70
     1
  9
$DIMTOH
 70
     1
  9
$DIMSE1
 70
     0
  9
$DIMSE2
 70
     0
  9
$DIMTAD
 70
     1
  9
$DIMZIN
 70
     0
  9
$DIMBLK
  1

  9
$DIMASO
 70
     1
  9
$DIMSHO
 70
     1
  9
$DIMPOST
  1

  9
$DIMAPOST
  1

  9
$DIMALT
 70
     0
  9
$DIMALTD
 70
     2
  9
$DIMALTF
 40
0.0394
  9
$DIMLFAC
 40
2.0
  9
$DIMTOFL
 70
     0
  9
$DIMTVP
 40
0.0
  9
$DIMTIX
 70
     0
  9
$DIMSOXD
 70
     0
  9
$DIMSAH
 70
     0
  9
$DIMBLK1
  1

  9
$DIMBLK2
  1

  9
$DIMSTYLE
  2
STANDARD
  9
$DIMCLRD
 70
     0
  9
$DIMCLRE
 70
     0
  9
$DIMCLRT
 70
     0
  9
$DIMTFAC
 40
1.0
  9
$DIMGAP
 40
1.0
  9
$LUNITS
 70
     2
  9
$LUPREC
 70
     2
  9
$SKETCHINC
 40
0.1
  9
$FILLETRAD
 40
0.0
  9
$AUNITS
 70
     0
  9
$AUPREC
 70
     2
  9
$MENU
  1
acad
  9
$ELEVATION
 40
0.0
  9
$PELEVATION
 40
0.0
  9
$THICKNESS
 40
0.0
  9
$LIMCHECK
 70
     0
  9
$BLIPMODE
 70
     0
  9
$CHAMFERA
 40
0.0
  9
$CHAMFERB
 40
0.0
  9
$SKPOLY
 70
     0
  9
$TDCREATE
 40
2444972.375
  9
$TDUPDATE
 40
2456597.6798294908
  9
$TDINDWG
 40
0.0097621759
  9
$TDUSRTIMER
 40
0.0097621759
  9
$USRTIMER
 70
     1
  9
$ANGBASE
 50
0.0
  9
$ANGDIR
 70
     0
  9
$PDMODE
 70
     0
  9
$PDSIZE
 40
-1.0
  9
$PLINEWID
 40
0.0
  9
$COORDS
 70
     1
  9
$SPLFRAME
 70
     0
  9
$SPLINETYPE
 70
     6
  9
$SPLINESEGS
 70
     8
  9
$ATTDIA
 70
     0
  9
$ATTREQ
 70
     1
  9
$HANDLING
 70
     1
  9
$HANDSEED
  5
215
  9
$SURFTAB1
 70
     6
  9
$SURFTAB2
 70
     6
  9
$SURFTYPE
 70
     6
  9
$SURFU
 70
     6
  9
$SURFV
 70
     6
  9
$UCSNAME
  2

  9
$UCSORG
 10
0.0
 20
0.0
 30
0.0
  9
$UCSXDIR
 10
1.0
 20
0.0
 30
0.0
  9
$UCSYDIR
 10
0.0
 20
1.0
 30
0.0
  9
$PUCSNAME
  2

  9
$PUCSORG
 10
0.0
 20
0.0
 30
0.0
  9
$PUCSXDIR
 10
1.0
 20
0.0
 30
0.0
  9
$PUCSYDIR
 10
0.0
 20
1.0
 30
0.0
  9
$USERI1
 70
     0
  9
$USERI2
 70
     1
  9
$USERI3
 70
     0
  9
$USERI4
 70
     0
  9
$USERI5
 70
     0
  9
$USERR1
 40
0.0
  9
$USERR2
 40
0.0
  9
$USERR3
 40
0.0
  9
$USERR4
 40
0.0
  9
$USERR5
 40
0.0
  9
$WORLDVIEW
 70
     1
  9
$SHADEDGE
 70
     3
  9
$SHADEDIF
 70
    70
  9
$TILEMODE
 70
     1
  9
$MAXACTVP
 70
    16
  9
$PLIMCHECK
 70
     0
  9
$PEXTMIN
 10
1.0000000000000000E+020
 20
1.0000000000000000E+020
 30
1.0000000000000000E+020
  9
$PEXTMAX
 10
-1.0000000000000000E+020
 20
-1.0000000000000000E+020
 30
-1.0000000000000000E+020
  9
$PLIMMIN
 10
0.0
 20
0.0
  9
$PLIMMAX
 10
12.0
 20
9.0
  9
$UNITMODE
 70
     0
  9
$VISRETAIN
 70
     0
  9
$PLINEGEN
 70
     1
  9
$PSLTSCALE
 70
     1
  0
ENDSEC
  0
SECTION
  2
TABLES
  0
TABLE
  2
VPORT
 70
     1
  0
VPORT
  2
*ACTIVE
 70
     0
 10
0.0
 20
0.0
 11
1.0
 21
1.0
 12
61.711579060384977
 22
83.816408208596286
 13
0.0
 23
0.0
 14
1.0
 24
1.0
 15
0.0
 25
0.0
 16
0.0
 26
0.0
 36
1.0
 17
0.0
 27
0.0
 37
0.0
 40
175.13518044950831
 41
1.831871345029239
 42
50.0
 43
0.0
 44
0.0
 50
0.0
 51
0.0
 71
     0
 72
  2000
 73
     1
 74
     0
 75
     0
 76
     0
 77
     0
 78
     0
  0
ENDTAB
  0
TABLE
  2
LTYPE
 70
     4
  0
LTYPE
  2
CONTINUOUS
 70
     0
  3
Solid Line
 72
    65
 73
     0
 40
0.0
  0
LTYPE
  2
HIDDEN
 70
     0
  3
Hidden __ __ __ __ __ __ __ __ __ __ __ __ __ __
 72
    65
 73
     2
 40
1.905
 49
1.27
 49
-0.635
  0
LTYPE
  2
CENTER
 70
     0
  3
Center ____ _ ____ _ ____ _ ____ _ ____ _ ____
 72
    65
 73
     4
 40
10.16
 49
6.3499999999999988
 49
-1.27
 49
1.27
 49
-1.27
  0
LTYPE
  2
PHANTOM2
 70
     0
  3
___ _ _ ___ _ _ ___ _ _ ___ _ _
 72
    65
 73
     6
 40
1.25
 49
0.625
 49
-0.125
 49
0.125
 49
-0.125
 49
0.125
 49
-0.125
  0
ENDTAB
  0
TABLE
  2
LAYER
 70
     5
  0
LAYER
  2
0
 70
     0
 62
     7
  6
CONTINUOUS
  0
LAYER
  2
DEFPOINTS
 70
     0
 62
     7
  6
CONTINUOUS
  0
LAYER
  2
1
 70
     0
 62
     1
  6
CENTER
  0
LAYER
  2
2
 70
     0
 62
     2
  6
HIDDEN
  0
LAYER
  2
3
 70
     0
 62
     3
  6
CONTINUOUS
  0
ENDTAB
  0
TABLE
  2
STYLE
 70
     2
  0
STYLE
  2
STANDARD
 70
     0
 40
0.0
 41
1.0
 50
0.0
 71
     0
 42
0.0
  3
txt
  4
bigfont
  0
STYLE
  2
STANDARD1
 70
     0
 40
0.0
 41
1.0
 50
0.0
 71
     0
 42
3.0
  3
txt
  4

  0
ENDTAB
  0
TABLE
  2
VIEW
 70
     0
  0
ENDTAB
  0
TABLE
  2
UCS
 70
     0
  0
ENDTAB
  0
TABLE
  2
APPID
 70
     3
  0
APPID
  2
ACAD
 70
     0
  0
APPID
  2
ACAD_MLEADERVER
 70
     0
  0
APPID
  2
ACAD_NAV_VCDISPLAY
 70
     0
  0
ENDTAB
  0
TABLE
  2
DIMSTYLE
 70
     1
  0
DIMSTYLE
  2
STANDARD
 70
     0
  3

  4

  5

  6

  7

 40
1.0
 41
0.18
 42
0.0625
 43
0.38
 44
0.18
 45
0.0
 46
0.0
 47
0.0
 48
0.0
140
0.18
141
0.09
142
0.0
143
25.399999999999999
144
1.0
145
0.0
146
1.0
147
0.09
 71
     0
 72
     0
 73
     1
 74
     1
 75
     0
 76
     0
 77
     0
 78
     0
170
     0
171
     2
172
     0
173
     0
174
     0
175
     0
176
     0
177
     0
178
     0
  0
ENDTAB
  0
ENDSEC
  0
SECTION
  2
BLOCKS
  0
BLOCK
  8
0
  2
$MODEL_SPACE
 70
     0
 10
0.0
 20
0.0
 30
0.0
  3
$MODEL_SPACE
  1

  0
ENDBLK
  5
E
  8
0
  0
BLOCK
 67
     1
  8
0
  2
$PAPER_SPACE
 70
     0
 10
0.0
 20
0.0
 30
0.0
  3
$PAPER_SPACE
  1

  0
ENDBLK
  5
10
 67
     1
  8
0
  0
ENDSEC
  0
SECTION
  2
ENTITIES
  0
LINE
  5
A3
  8
0
  6
CONTINUOUS
 62
     7
 10
102.3038162547285
 20
31.100413144922982
 30
0.0
 11
95.303816254728446
 21
31.100413144922939
 31
0.0
  0
LINE
  5
A4
  8
0
  6
CONTINUOUS
 62
     7
 10
103.8038162547284
 20
32.600413144923003
 30
0.0
 11
103.8038162547283
 21
45.600413144922989
 31
0.0
  0
LINE
  5
A5
  8
0
  6
CONTINUOUS
 62
     7
 10
93.80381625472836
 20
45.600413144922918
 30
0.0
 11
93.803816254728446
 21
32.600413144922932
 31
0.0
  0
LINE
  5
A6
  8
0
  6
CONTINUOUS
 62
     7
 10
95.303816254728446
 20
31.100413144922939
 30
0.0
 11
93.803816254728446
 21
32.600413144922932
 31
0.0
  0
LINE
  5
A7
  8
0
  6
CONTINUOUS
 62
     7
 10
102.3038162547285
 20
31.100413144922982
 30
0.0
 11
103.8038162547284
 21
32.600413144923003
 31
0.0
  0
LINE
  5
A8
  8
3
  6
CONTINUOUS
 62
     3
 10
102.99181625472841
 20
31.788413144922991
 30
0.0
 11
102.99181625472831
 21
45.600413144922967
 31
0.0
  0
LINE
  5
A9
  8
3
  6
CONTINUOUS
 62
     3
 10
94.615816254728358
 20
45.600413144922918
 30
0.0
 11
94.615816254728429
 21
31.788413144922941
 31
0.0
  0
LINE
  5
AA
  8
0
 10
93.803816254728446
 20
32.600413144922932
 30
0.0
 11
103.8038162547284
 21
32.600413144923003
 31
0.0
  0
LINE
  5
AB
  8
2
  6
HIDDEN
 62
     2
 10
94.615816254727633
 20
125.6004131449229
 30
0.0
 11
94.615816254727775
 21
100.6004131449229
 31
0.0
  0
LINE
  5
AC
  8
2
  6
HIDDEN
 62
     2
 10
102.99181625472779
 20
100.600413144923
 30
0.0
 11
102.9918162547276
 21
125.600413144923
 31
0.0
  0
LINE
  5
AD
  8
2
  6
HIDDEN
 62
     2
 10
93.803816254727636
 20
125.6004131449229
 30
0.0
 11
93.803816254727764
 21
100.6004131449229
 31
0.0
  0
LINE
  5
AE
  8
2
  6
HIDDEN
 62
     2
 10
103.80381625472781
 20
100.600413144923
 30
0.0
 11
103.80381625472759
 21
125.600413144923
 31
0.0
  0
LINE
  5
AF
  8
2
  6
HIDDEN
 62
     2
 10
103.80381625472781
 20
100.600413144923
 30
0.0
 11
93.803816254727764
 21
100.6004131449229
 31
0.0
  0
CIRCLE
  5
B0
  8
3
  6
CONTINUOUS
 62
     3
 10
98.803816254728048
 20
155.60041314492301
 30
0.0
 40
5.0
  0
CIRCLE
  5
B1
  8
0
  6
CONTINUOUS
 62
     7
 10
98.803816254728048
 20
155.6004131449225
 30
0.0
 40
9.9999999999999858
  0
CIRCLE
  5
B2
  8
0
 10
98.803816254728048
 20
155.6004131449225
 30
0.0
 40
4.1879999999999953
  0
LINE
  5
B3
  8
1
 10
83.803816254728048
 20
155.6004131449225
 30
0.0
 11
113.80381625472801
 21
155.6004131449225
 31
0.0
  0
LINE
  5
B4
  8
1
 10
98.803816254728048
 20
140.6004131449225
 30
0.0
 11
98.803816254728048
 21
170.6004131449225
 31
0.0
  0
LINE
  5
B5
  8
1
 10
98.803816254727764
 20
130.60041314492301
 30
0.0
 11
98.803816254727764
 21
26.100412942343748
 31
0.0
  0
LINE
  5
B6
  8
0
  6
CONTINUOUS
 62
     7
 10
108.8038162547281
 20
68.466438548707444
 30
0.0
 11
108.80381625472781
 21
125.600413144923
 31
0.0
  0
LINE
  5
B7
  8
0
  6
CONTINUOUS
 62
     7
 10
108.8038162547283
 20
45.600413144923039
 30
0.0
 11
108.8038162547282
 21
56.734387741138612
 31
0.0
  0
LINE
  5
B8
  8
0
  6
CONTINUOUS
 62
     7
 10
88.803816254728247
 20
56.734387741138519
 30
0.0
 11
88.80381625472836
 21
45.600413144922889
 31
0.0
  0
LINE
  5
B9
  8
0
  6
CONTINUOUS
 62
     7
 10
88.803816254727792
 20
125.6004131449229
 30
0.0
 11
88.803816254728204
 21
68.466438548707302
 31
0.0
  0
LINE
  5
BA
  8
0
  6
CONTINUOUS
 62
     7
 10
88.80381625472836
 20
45.600413144922889
 30
0.0
 11
108.8038162547283
 21
45.600413144923039
 31
0.0
  0
LINE
  5
BB
  8
0
  6
CONTINUOUS
 62
     7
 10
88.803816254727792
 20
125.6004131449229
 30
0.0
 11
108.80381625472781
 21
125.600413144923
 31
0.0
  0
LINE
  5
BC
  8
0
  6
CONTINUOUS
 62
     7
 10
90.303816254728176
 20
67.600413144922925
 30
0.0
 11
90.303816254728247
 21
57.600413144922918
 31
0.0
  0
LINE
  5
BD
  8
0
  6
CONTINUOUS
 62
     7
 10
88.803816254728204
 20
68.466438548707302
 30
0.0
 11
90.303816254728247
 21
67.600413144922854
 31
0.0
  0
LINE
  5
BE
  8
0
  6
CONTINUOUS
 62
     7
 10
90.303816254728247
 20
57.600413144922982
 30
0.0
 11
88.803816254728247
 21
56.734387741138526
 31
0.0
  0
LINE
  5
BF
  8
0
  6
CONTINUOUS
 62
     7
 10
108.8038162547282
 20
56.734387741138612
 30
0.0
 11
107.3038162547282
 21
57.600413144923053
 31
0.0
  0
LINE
  5
C0
  8
0
  6
CONTINUOUS
 62
     7
 10
107.3038162547282
 20
67.60041314492301
 30
0.0
 11
108.8038162547281
 21
68.466438548707444
 31
0.0
  0
LINE
  5
C1
  8
0
  6
CONTINUOUS
 62
     7
 10
107.3038162547282
 20
57.600413144923039
 30
0.0
 11
107.3038162547281
 21
67.600413144923039
 31
0.0
  0
LINE
  5
C2
  8
0
  6
CONTINUOUS
 62
     7
 10
104.0716431311545
 20
67.600413144923024
 30
0.0
 11
104.0716431311546
 21
57.600413144923017
 31
0.0
  0
POLYLINE
  5
C3
  8
0
  6
CONTINUOUS
 62
     7
 66
     1
 10
0.0
 20
0.0
 30
0.0
 70
   128
  0
VERTEX
  5
1C1
  8
0
  6
CONTINUOUS
 62
     7
 10
93.535989378301835
 20
67.600413144922925
 30
0.0
  0
VERTEX
  5
1C2
  8
0
  6
CONTINUOUS
 62
     7
 10
94.343357108926341
 20
67.860278959045644
 30
0.0
  0
VERTEX
  5
1C3
  8
0
  6
CONTINUOUS
 62
     7
 10
95.188836491237836
 20
68.075993269024465
 30
0.0
  0
VERTEX
  5
1C4
  8
0
  6
CONTINUOUS
 62
     7
 10
96.06520346720238
 20
68.245712939797031
 30
0.0
  0
VERTEX
  5
1C5
  8
0
  6
CONTINUOUS
 62
     7
 10
96.964970064876823
 20
68.367987829849753
 30
0.0
  0
VERTEX
  5
1C6
  8
0
  6
CONTINUOUS
 62
     7
 10
97.880448378139775
 20
68.441773181710985
 30
0.0
  0
VERTEX
  5
1C7
  8
0
  6
CONTINUOUS
 62
     7
 10
98.803816254728247
 20
68.466438548707401
 30
0.0
  0
VERTEX
  5
1C8
  8
0
  6
CONTINUOUS
 62
     7
 10
99.727184131316733
 20
68.441773181710985
 30
0.0
  0
VERTEX
  5
1C9
  8
0
  6
CONTINUOUS
 62
     7
 10
100.6426624445797
 20
68.367987829849781
 30
0.0
  0
VERTEX
  5
1CA
  8
0
  6
CONTINUOUS
 62
     7
 10
101.5424290422541
 20
68.245712939797059
 30
0.0
  0
VERTEX
  5
1CB
  8
0
  6
CONTINUOUS
 62
     7
 10
102.4187960182186
 20
68.075993269024494
 30
0.0
  0
VERTEX
  5
1CC
  8
0
  6
CONTINUOUS
 62
     7
 10
103.2642754005301
 20
67.860278959045687
 30
0.0
  0
VERTEX
  5
1CD
  8
0
  6
CONTINUOUS
 62
     7
 10
104.0716431311546
 20
67.600413144922967
 30
0.0
  0
SEQEND
  5
1CE
  8
0
  6
CONTINUOUS
 62
     7
  0
LINE
  5
C4
  8
0
  6
CONTINUOUS
 62
     7
 10
93.535989378301906
 20
57.600413144922953
 30
0.0
 11
93.535989378301835
 21
67.600413144922953
 31
0.0
  0
POLYLINE
  5
C5
  8
0
  6
CONTINUOUS
 62
     7
 66
     1
 10
0.0
 20
0.0
 30
0.0
 70
   128
  0
VERTEX
  5
1CF
  8
0
  6
CONTINUOUS
 62
     7
 10
104.0716431311546
 20
57.600413144923081
 30
0.0
  0
VERTEX
  5
1D0
  8
0
  6
CONTINUOUS
 62
     7
 10
103.2642754005301
 20
57.340547330800369
 30
0.0
  0
VERTEX
  5
1D1
  8
0
  6
CONTINUOUS
 62
     7
 10
102.4187960182186
 20
57.124833020821548
 30
0.0
  0
VERTEX
  5
1D2
  8
0
  6
CONTINUOUS
 62
     7
 10
101.5424290422541
 20
56.955113350049011
 30
0.0
  0
VERTEX
  5
1D3
  8
0
  6
CONTINUOUS
 62
     7
 10
100.6426624445797
 20
56.832838459996282
 30
0.0
  0
VERTEX
  5
1D4
  8
0
  6
CONTINUOUS
 62
     7
 10
99.727184131316733
 20
56.759053108135042
 30
0.0
  0
VERTEX
  5
1D5
  8
0
  6
CONTINUOUS
 62
     7
 10
98.803816254728247
 20
56.734387741138633
 30
0.0
  0
VERTEX
  5
1D6
  8
0
  6
CONTINUOUS
 62
     7
 10
97.880448378139818
 20
56.759053108135042
 30
0.0
  0
VERTEX
  5
1D7
  8
0
  6
CONTINUOUS
 62
     7
 10
96.964970064876823
 20
56.832838459996253
 30
0.0
  0
VERTEX
  5
1D8
  8
0
  6
CONTINUOUS
 62
     7
 10
96.06520346720248
 20
56.955113350048983
 30
0.0
  0
VERTEX
  5
1D9
  8
0
  6
CONTINUOUS
 62
     7
 10
95.188836491237964
 20
57.124833020821519
 30
0.0
  0
VERTEX
  5
1DA
  8
0
  6
CONTINUOUS
 62
     7
 10
94.343357108926455
 20
57.34054733080032
 30
0.0
  0
VERTEX
  5
1DB
  8
0
  6
CONTINUOUS
 62
     7
 10
93.535989378301963
 20
57.600413144923017
 30
0.0
  0
SEQEND
  5
1DC
  8
0
  6
CONTINUOUS
 62
     7
  0
LINE
  5
C6
  8
0
  6
CONTINUOUS
 62
     7
 10
93.535989378301906
 20
57.600413144922953
 30
0.0
 11
104.0716431311546
 21
57.600413144923017
 31
0.0
  0
LINE
  5
C7
  8
0
  6
CONTINUOUS
 62
     7
 10
93.535989378301835
 20
67.600413144922953
 30
0.0
 11
104.0716431311545
 21
67.600413144923024
 31
0.0
  0
LINE
  5
128
  8
0
 10
93.535989378301835
 20
67.600413144922925
 30
0.0
 11
104.0716431311546
 21
57.600413144923102
 31
0.0
  0
LINE
  5
129
  8
0
 10
104.0716431311544
 20
67.600413144923024
 30
0.0
 11
93.535989378302176
 21
57.600413144922953
 31
0.0
  0
TEXT
  5
193
  8
0
 62
     3
 10
0.0
 20
0.0
 30
0.0
 40
10.0
  1
BJ601-10080
  7
STANDARD1
  0
ENDSEC
  0
EOF
