  0
SECTION
  2
HEADER
  9
$ACADVER
  1
AC1009
  9
$INSBASE
 10
0.0
 20
0.0
 30
0.0
  9
$EXTMIN
 10
0.0
 20
-2.960436562073669
 30
0.0
  9
$EXTMAX
 10
173.49999999999
 20
188.49999999997269
 30
0.0
  9
$LIMMIN
 10
0.0
 20
0.0
  9
$LIMMAX
 10
375.0
 20
270.0
  9
$ORTHOMODE
 70
     1
  9
$REGENMODE
 70
     1
  9
$FILLMODE
 70
     1
  9
$QTEXTMODE
 70
     0
  9
$MIRRTEXT
 70
     0
  9
$DRAGMODE
 70
     2
  9
$LTSCALE
 40
10.0
  9
$OSMODE
 70
  3071
  9
$ATTMODE
 70
     1
  9
$TEXTSIZE
 40
0.2
  9
$TRACEWID
 40
0.05
  9
$TEXTSTYLE
  7
STANDARD
  9
$CLAYER
  8
0
  9
$CELTYPE
  6
BYLAYER
  9
$CECOLOR
 62
   256
  9
$DIMSCALE
 40
1.0
  9
$DIMASZ
 40
3.0
  9
$DIMEXO
 40
2.0
  9
$DIMDLI
 40
0.38
  9
$DIMRND
 40
0.0
  9
$DIMDLE
 40
0.0
  9
$DIMEXE
 40
2.0
  9
$DIMTP
 40
0.0
  9
$DIMTM
 40
0.0
  9
$DIMTXT
 40
3.2000000000000002
  9
$DIMCEN
 40
0.0
  9
$DIMTSZ
 40
0.0
  9
$DIMTOL
 70
     0
  9
$DIMLIM
 70
     0
  9
$DIMTIH
 70
     0
  9
$DIMTOH
 70
     0
  9
$DIMSE1
 70
     0
  9
$DIMSE2
 70
     0
  9
$DIMTAD
 70
     1
  9
$DIMZIN
 70
     0
  9
$DIMBLK
  1

  9
$DIMASO
 70
     0
  9
$DIMSHO
 70
     0
  9
$DIMPOST
  1

  9
$DIMAPOST
  1

  9
$DIMALT
 70
     0
  9
$DIMALTD
 70
     2
  9
$DIMALTF
 40
25.399999999999999
  9
$DIMLFAC
 40
1.0
  9
$DIMTOFL
 70
     1
  9
$DIMTVP
 40
1.6000000000000001
  9
$DIMTIX
 70
     1
  9
$DIMSOXD
 70
     0
  9
$DIMSAH
 70
     0
  9
$DIMBLK1
  1

  9
$DIMBLK2
  1

  9
$DIMSTYLE
  2
STANDARD
  9
$DIMCLRD
 70
     0
  9
$DIMCLRE
 70
     0
  9
$DIMCLRT
 70
     0
  9
$DIMTFAC
 40
1.0
  9
$DIMGAP
 40
0.09
  9
$LUNITS
 70
     2
  9
$LUPREC
 70
     4
  9
$SKETCHINC
 40
0.1
  9
$FILLETRAD
 40
0.0
  9
$AUNITS
 70
     0
  9
$AUPREC
 70
     4
  9
$MENU
  1
E:\r13\win\SUPPORT\ACAD
  9
$ELEVATION
 40
0.0
  9
$PELEVATION
 40
0.0
  9
$THICKNESS
 40
0.0
  9
$LIMCHECK
 70
     0
  9
$BLIPMODE
 70
     0
  9
$CHAMFERA
 40
0.0
  9
$CHAMFERB
 40
0.0
  9
$SKPOLY
 70
     0
  9
$TDCREATE
 40
2449839.7649537041
  9
$TDUPDATE
 40
2456597.6816068171
  9
$TDINDWG
 40
0.0321591088
  9
$TDUSRTIMER
 40
0.0321591088
  9
$USRTIMER
 70
     1
  9
$ANGBASE
 50
0.0
  9
$ANGDIR
 70
     0
  9
$PDMODE
 70
     0
  9
$PDSIZE
 40
0.0
  9
$PLINEWID
 40
0.0
  9
$COORDS
 70
     1
  9
$SPLFRAME
 70
     0
  9
$SPLINETYPE
 70
     6
  9
$SPLINESEGS
 70
     8
  9
$ATTDIA
 70
     0
  9
$ATTREQ
 70
     1
  9
$HANDLING
 70
     1
  9
$HANDSEED
  5
676
  9
$SURFTAB1
 70
     6
  9
$SURFTAB2
 70
     6
  9
$SURFTYPE
 70
     6
  9
$SURFU
 70
     6
  9
$SURFV
 70
     6
  9
$UCSNAME
  2

  9
$UCSORG
 10
0.0
 20
0.0
 30
0.0
  9
$UCSXDIR
 10
1.0
 20
0.0
 30
0.0
  9
$UCSYDIR
 10
0.0
 20
1.0
 30
0.0
  9
$PUCSNAME
  2

  9
$PUCSORG
 10
0.0
 20
0.0
 30
0.0
  9
$PUCSXDIR
 10
1.0
 20
0.0
 30
0.0
  9
$PUCSYDIR
 10
0.0
 20
1.0
 30
0.0
  9
$USERI1
 70
     0
  9
$USERI2
 70
     1
  9
$USERI3
 70
     0
  9
$USERI4
 70
     0
  9
$USERI5
 70
     0
  9
$USERR1
 40
0.0
  9
$USERR2
 40
0.0
  9
$USERR3
 40
0.0
  9
$USERR4
 40
0.0
  9
$USERR5
 40
0.0
  9
$WORLDVIEW
 70
     1
  9
$SHADEDGE
 70
     3
  9
$SHADEDIF
 70
    70
  9
$TILEMODE
 70
     1
  9
$MAXACTVP
 70
    16
  9
$PLIMCHECK
 70
     0
  9
$PEXTMIN
 10
1.0000000000000000E+020
 20
1.0000000000000000E+020
 30
1.0000000000000000E+020
  9
$PEXTMAX
 10
-1.0000000000000000E+020
 20
-1.0000000000000000E+020
 30
-1.0000000000000000E+020
  9
$PLIMMIN
 10
0.0
 20
0.0
  9
$PLIMMAX
 10
12.0
 20
9.0
  9
$UNITMODE
 70
     0
  9
$VISRETAIN
 70
     0
  9
$PLINEGEN
 70
     0
  9
$PSLTSCALE
 70
     0
  0
ENDSEC
  0
SECTION
  2
TABLES
  0
TABLE
  2
VPORT
 70
     1
  0
VPORT
  2
*ACTIVE
 70
     0
 10
0.0
 20
0.0
 11
1.0
 21
1.0
 12
195.0581083320873
 22
133.5127261426681
 13
0.0
 23
0.0
 14
10.0
 24
10.0
 15
10.0
 25
10.0
 16
0.0
 26
0.0
 36
1.0
 17
0.0
 27
0.0
 37
0.0
 40
275.42274993631997
 41
1.831871345029239
 42
50.0
 43
0.0
 44
0.0
 50
0.0
 51
0.0
 71
     0
 72
   500
 73
     1
 74
     0
 75
     0
 76
     0
 77
     0
 78
     2
  0
ENDTAB
  0
TABLE
  2
LTYPE
 70
     4
  0
LTYPE
  2
CONTINUOUS
 70
     0
  3
Solid Line
 72
    65
 73
     0
 40
0.0
  0
LTYPE
  2
CENTER
 70
     0
  3
____ _ ____ _ ____ _ ____ _ ____ _ ____ _ ____
 72
    65
 73
     4
 40
2.0
 49
1.25
 49
-0.25
 49
0.25
 49
-0.25
  0
LTYPE
  2
HIDDEN
 70
     0
  3
_ _ _ _ _ _ _ _ _ _ _ _ _ _ _ _ _ _ _ _ _ _ _
 72
    65
 73
     2
 40
0.375
 49
0.25
 49
-0.125
  0
LTYPE
  2
PHANTOM2
 70
     0
  3
___ _ _ ___ _ _ ___ _ _ ___ _ _
 72
    65
 73
     6
 40
1.25
 49
0.625
 49
-0.125
 49
0.125
 49
-0.125
 49
0.125
 49
-0.125
  0
ENDTAB
  0
TABLE
  2
LAYER
 70
     4
  0
LAYER
  2
0
 70
     0
 62
     7
  6
CONTINUOUS
  0
LAYER
  2
1
 70
     0
 62
     1
  6
CENTER
  0
LAYER
  2
3
 70
     0
 62
     3
  6
CONTINUOUS
  0
LAYER
  2
2
 70
     0
 62
     2
  6
HIDDEN
  0
ENDTAB
  0
TABLE
  2
STYLE
 70
     2
  0
STYLE
  2
STANDARD
 70
     0
 40
0.0
 41
1.0
 50
0.0
 71
     0
 42
0.2
  3
TXT
  4
BIGFONT
  0
STYLE
  2
STANDARD1
 70
     0
 40
0.0
 41
1.0
 50
0.0
 71
     0
 42
3.0
  3
txt
  4

  0
ENDTAB
  0
TABLE
  2
VIEW
 70
     1
  0
VIEW
  2
ALL
 70
     0
 40
270.0
 10
220.99159663865549
 20
135.0
 41
0.0
 11
0.0
 21
0.0
 31
1.0
 12
0.0
 22
0.0
 32
0.0
 42
0.0
 43
0.0
 44
0.0
 50
0.0
 71
     0
  0
ENDTAB
  0
TABLE
  2
UCS
 70
     0
  0
ENDTAB
  0
TABLE
  2
APPID
 70
     4
  0
APPID
  2
ACAD
 70
     0
  0
APPID
  2
ACAD_MLEADERVER
 70
     0
  0
APPID
  2
ACAD_EXEMPT_FROM_CAD_STANDARDS
 70
     0
  0
APPID
  2
ACAD_NAV_VCDISPLAY
 70
     0
  0
ENDTAB
  0
TABLE
  2
DIMSTYLE
 70
     1
  0
DIMSTYLE
  2
STANDARD
 70
     0
  3

  4

  5

  6

  7

 40
1.0
 41
0.18
 42
0.0625
 43
0.38
 44
0.18
 45
0.0
 46
0.0
 47
0.0
 48
0.0
140
0.18
141
0.09
142
0.0
143
25.399999999999999
144
1.0
145
0.0
146
1.0
147
0.09
 71
     0
 72
     0
 73
     1
 74
     1
 75
     0
 76
     0
 77
     0
 78
     0
170
     0
171
     2
172
     0
173
     0
174
     0
175
     0
176
     0
177
     0
178
     0
  0
ENDTAB
  0
ENDSEC
  0
SECTION
  2
BLOCKS
  0
BLOCK
  8
0
  2
$MODEL_SPACE
 70
     0
 10
0.0
 20
0.0
 30
0.0
  3
$MODEL_SPACE
  1

  0
ENDBLK
  5
14D
  8
0
  0
BLOCK
 67
     1
  8
0
  2
$PAPER_SPACE
 70
     0
 10
0.0
 20
0.0
 30
0.0
  3
$PAPER_SPACE
  1

  0
ENDBLK
  5
14B
 67
     1
  8
0
  0
ENDSEC
  0
SECTION
  2
ENTITIES
  0
LINE
  5
43
  8
1
 10
79.411542731879763
 20
169.99999999997269
 30
0.0
 11
120.5884572681197
 21
169.99999999997269
 31
0.0
  0
LINE
  5
44
  8
1
 10
100.0
 20
151.49999999997269
 30
0.0
 11
100.0
 21
188.49999999997269
 31
0.0
  0
CIRCLE
  5
45
  8
0
 10
100.0
 20
169.99999999997269
 30
0.0
 40
6.9175000000000004
  0
CIRCLE
  5
46
  8
3
 10
100.0
 20
169.99999999997269
 30
0.0
 40
8.0
  0
CIRCLE
  5
47
  8
0
 10
100.0000000000571
 20
169.99999999997269
 30
0.0
 40
13.0
  0
LINE
  5
48
  8
0
 10
107.7942286341171
 20
183.49999999997269
 30
0.0
 11
115.588457268177
 21
169.99999999997269
 31
0.0
  0
LINE
  5
49
  8
0
 10
115.58845726817709
 20
169.99999999997269
 30
0.0
 11
107.7942286341171
 21
156.49999999997269
 31
0.0
  0
LINE
  5
4A
  8
0
 10
107.7942286341171
 20
156.49999999997269
 30
0.0
 11
92.205771365997265
 21
156.49999999997269
 31
0.0
  0
LINE
  5
4B
  8
0
 10
92.205771365997194
 20
156.49999999997269
 30
0.0
 11
84.411542731937288
 21
169.99999999997269
 31
0.0
  0
LINE
  5
4C
  8
0
 10
84.41154273193726
 20
169.99999999997269
 30
0.0
 11
92.20577136599718
 21
183.4999999999726
 31
0.0
  0
LINE
  5
4D
  8
0
 10
92.205771365997194
 20
183.49999999997269
 30
0.0
 11
107.794228634117
 21
183.49999999997269
 31
0.0
  0
LINE
  5
66
  8
0
 10
172.99999999999091
 20
129.0
 30
0.0
 11
147.00000000000909
 21
129.0
 31
0.0
  0
LINE
  5
67
  8
0
 10
159.9999999999998
 20
126.9274669844302
 30
0.0
 11
160.0
 21
81.072533015569988
 31
0.0
  0
LINE
  5
68
  8
0
 10
173.49999999999
 20
128.71132486540591
 30
0.0
 11
173.4999999999886
 21
79.288675134594087
 31
0.0
  0
LINE
  5
6F
  8
0
 10
147.00000000001
 20
79.000000000000014
 30
0.0
 11
172.99999999999
 21
79.0
 31
0.0
  0
LINE
  5
7A
  8
0
 10
173.49999999999
 20
128.71132486540591
 30
0.0
 11
172.99999999999091
 21
129.0
 31
0.0
  0
LINE
  5
7B
  8
0
 10
173.4999999999886
 20
79.288675134594087
 30
0.0
 11
172.99999999999091
 21
79.000000000000682
 31
0.0
  0
ARC
  5
7C
  8
0
 10
166.749999999995
 20
116.97174936997349
 30
0.0
 40
12.02825063002649
 50
55.86263683392793
 51
124.1373631660728
  0
LINE
  5
7E
  8
0
 10
146.50000000001131
 20
79.288675134594101
 30
0.0
 11
147.00000000000909
 21
79.000000000000696
 31
0.0
  0
LINE
  5
7F
  8
0
 10
146.50000000001
 20
128.71132486540591
 30
0.0
 11
147.00000000000909
 21
129.0
 31
0.0
  0
LINE
  5
80
  8
0
 10
146.50000000001
 20
128.71132486540591
 30
0.0
 11
146.50000000001131
 21
79.288675134594101
 31
0.0
  0
ARC
  5
82
  8
0
 10
153.25000000000509
 20
116.97174936997349
 30
0.0
 40
12.02825063002649
 50
55.862636833927439
 51
124.1373631660723
  0
LINE
  5
2B6
  8
1
 10
99.999999999999844
 20
44.0
 30
0.0
 11
99.999999999999844
 21
134.0
 31
0.0
  0
LINE
  5
2B9
  8
0
 10
86.999999999999829
 20
129.0
 30
0.0
 11
112.9999999999998
 21
129.0
 31
0.0
  0
LINE
  5
2BC
  8
0
 10
93.999999999999886
 20
49.0
 30
0.0
 11
105.9999999999998
 21
49.0
 31
0.0
  0
LINE
  5
2BD
  8
0
 10
86.999999999999829
 20
79.0
 30
0.0
 11
112.9999999999998
 21
79.0
 31
0.0
  0
LINE
  5
2BE
  8
2
 10
91.999999999999829
 20
99.000000000000014
 30
0.0
 11
107.9999999999998
 21
99.0
 31
0.0
  0
LINE
  5
2BF
  8
0
 10
93.499999999999829
 20
75.399999999999977
 30
0.0
 11
93.499999999999829
 21
78.600000000000023
 31
0.0
  0
LINE
  5
2C0
  8
0
 10
106.4999999999998
 20
75.399999999999977
 30
0.0
 11
106.4999999999998
 21
78.600000000000023
 31
0.0
  0
LINE
  5
2C1
  8
0
 10
107.9999999999998
 20
51.0
 30
0.0
 11
107.9999999999998
 21
75.0
 31
0.0
  0
LINE
  5
2C2
  8
3
 10
106.9174999999999
 20
49.917500000000018
 30
0.0
 11
106.9174999999999
 21
75.0
 31
0.0
  0
LINE
  5
2C3
  8
3
 10
93.082499999999811
 20
49.917500000000068
 30
0.0
 11
93.082499999999811
 21
75.0
 31
0.0
  0
LINE
  5
2C4
  8
0
 10
91.999999999999886
 20
51.0
 30
0.0
 11
91.999999999999886
 21
75.0
 31
0.0
  0
LINE
  5
2C5
  8
2
 10
106.9174999999999
 20
127.0
 30
0.0
 11
106.9174999999999
 21
93.75
 31
0.0
  0
LINE
  5
2C6
  8
2
 10
107.9999999999998
 20
128.08250000000001
 30
0.0
 11
107.9999999999998
 21
99.0
 31
0.0
  0
LINE
  5
2CD
  8
2
 10
93.082499999999698
 20
93.750000000000014
 30
0.0
 11
106.9174999999999
 21
93.75
 31
0.0
  0
LINE
  5
2CE
  8
2
 10
106.9174999999999
 20
93.75
 30
0.0
 11
99.999999999999844
 21
89.756179512880749
 31
0.0
  0
LINE
  5
2CF
  8
2
 10
106.9174999999999
 20
127.0
 30
0.0
 11
108.9174999999999
 21
129.0
 31
0.0
  0
LINE
  5
2D0
  8
2
 10
106.9174999999999
 20
127.0
 30
0.0
 11
93.082499999999698
 21
127.0
 31
0.0
  0
LINE
  5
2D1
  8
0
 10
107.9999999999998
 20
51.0
 30
0.0
 11
105.9999999999998
 21
49.0
 31
0.0
  0
LINE
  5
2D2
  8
0
 10
91.999999999999886
 20
51.0
 30
0.0
 11
93.999999999999886
 21
49.0
 31
0.0
  0
ARC
  5
2D3
  8
0
 10
93.099999999999866
 20
78.600000000000023
 30
0.0
 40
0.4
 50
0.0
 51
90.0
  0
ARC
  5
2D4
  8
0
 10
106.89999999999981
 20
78.600000000000023
 30
0.0
 40
0.4
 50
90.0
 51
180.0
  0
LINE
  5
2D5
  8
0
 10
92.205771365939881
 20
126.9274669844834
 30
0.0
 11
92.205771365939881
 21
81.072533015516797
 31
0.0
  0
LINE
  5
2D8
  8
0
 10
86.999999999999829
 20
129.0
 30
0.0
 11
84.411542731937288
 21
127.50555349949821
 31
0.0
  0
LINE
  5
2D9
  8
0
 10
86.999999999999829
 20
79.0
 30
0.0
 11
84.411542731937288
 21
80.494446500501766
 31
0.0
  0
LINE
  5
2DA
  8
0
 10
112.9999999999998
 20
129.0
 30
0.0
 11
115.588457268177
 21
127.5055534994321
 31
0.0
  0
LINE
  5
2DB
  8
0
 10
112.9999999999998
 20
79.0
 30
0.0
 11
115.588457268177
 21
80.494446500567975
 31
0.0
  0
ARC
  5
2DC
  8
0
 10
86.995764290752845
 20
121.4151874427843
 30
0.0
 40
7.5848137399234394
 50
46.61480022040169
 51
89.968003396786031
  0
ARC
  5
2DD
  8
0
 10
99.989577855188656
 20
113.346949492335
 30
0.0
 40
15.65305397731108
 50
89.961851217267281
 51
119.81960047086881
  0
ARC
  5
2DE
  8
0
 10
99.989577855188656
 20
94.653050507665014
 30
0.0
 40
15.65305397731108
 50
240.18039952913119
 51
270.03814878273272
  0
ARC
  5
2DF
  8
0
 10
86.995764290752845
 20
86.584812557215685
 30
0.0
 40
7.5848137399234394
 50
270.031996603214
 51
313.38519977959822
  0
LINE
  5
2EE
  8
0
 10
91.999999999999886
 20
51.0
 30
0.0
 11
107.9999999999998
 21
51.0
 31
0.0
  0
LINE
  5
2FD
  8
2
 10
107.9999999999998
 20
99.0
 30
0.0
 11
106.9174999999999
 21
98.375018333602284
 31
0.0
  0
LINE
  5
2FF
  8
0
 10
107.9999999999998
 20
75.0
 30
0.0
 11
91.999999999999886
 21
75.0
 31
0.0
  0
ARC
  5
300
  8
0
 10
106.89999999999981
 20
75.399999999999977
 30
0.0
 40
0.4
 50
180.0
 51
270.0
  0
ARC
  5
301
  8
0
 10
93.099999999999866
 20
75.399999999999977
 30
0.0
 40
0.4
 50
270.0
 51
0.0
  0
LINE
  5
30F
  8
2
 10
93.082499999999698
 20
127.0
 30
0.0
 11
93.082499999999698
 21
93.75
 31
0.0
  0
LINE
  5
310
  8
2
 10
91.999999999999829
 20
128.08250000000001
 30
0.0
 11
91.999999999999829
 21
99.0
 31
0.0
  0
LINE
  5
311
  8
2
 10
93.082499999999698
 20
93.75
 30
0.0
 11
99.999999999999844
 21
89.756179512880749
 31
0.0
  0
LINE
  5
312
  8
2
 10
93.082499999999698
 20
127.0
 30
0.0
 11
91.082499999999683
 21
129.0
 31
0.0
  0
LINE
  5
313
  8
0
 10
107.79422863405981
 20
126.9274669844834
 30
0.0
 11
107.79422863405981
 21
81.072533015516797
 31
0.0
  0
ARC
  5
314
  8
0
 10
113.0042357092468
 20
121.4151874427843
 30
0.0
 40
7.5848137399234394
 50
90.031996603213955
 51
133.38519977959771
  0
ARC
  5
315
  8
0
 10
100.010422144811
 20
113.346949492335
 30
0.0
 40
15.65305397731108
 50
60.1803995291313
 51
90.038148782732719
  0
ARC
  5
316
  8
0
 10
100.010422144811
 20
94.653050507665014
 30
0.0
 40
15.65305397731108
 50
269.96185121726728
 51
299.81960047086881
  0
ARC
  5
317
  8
0
 10
113.0042357092468
 20
86.584812557215685
 30
0.0
 40
7.5848137399234394
 50
226.61480022040229
 51
269.96800339678612
  0
LINE
  5
318
  8
2
 10
91.999999999999829
 20
99.0
 30
0.0
 11
93.082499999999698
 21
98.375018333602284
 31
0.0
  0
LINE
  5
31B
  8
1
 10
159.9999999999998
 20
44.0
 30
0.0
 11
159.9999999999998
 21
134.0
 31
0.0
  0
LINE
  5
31D
  8
0
 10
153.99999999999989
 20
49.0
 30
0.0
 11
165.9999999999998
 21
49.0
 31
0.0
  0
LINE
  5
31F
  8
2
 10
151.9999999999998
 20
99.000000000000014
 30
0.0
 11
167.9999999999998
 21
99.0
 31
0.0
  0
LINE
  5
320
  8
0
 10
153.4999999999998
 20
75.399999999999977
 30
0.0
 11
153.4999999999998
 21
78.600000000000023
 31
0.0
  0
LINE
  5
321
  8
0
 10
166.4999999999998
 20
75.399999999999977
 30
0.0
 11
166.4999999999998
 21
78.600000000000023
 31
0.0
  0
LINE
  5
322
  8
0
 10
167.9999999999998
 20
51.0
 30
0.0
 11
167.9999999999998
 21
75.0
 31
0.0
  0
LINE
  5
323
  8
3
 10
166.9174999999999
 20
49.917500000000018
 30
0.0
 11
166.9174999999999
 21
75.0
 31
0.0
  0
LINE
  5
324
  8
3
 10
153.08249999999981
 20
49.917500000000068
 30
0.0
 11
153.08249999999981
 21
75.0
 31
0.0
  0
LINE
  5
325
  8
0
 10
151.99999999999989
 20
51.0
 30
0.0
 11
151.99999999999989
 21
75.0
 31
0.0
  0
LINE
  5
326
  8
2
 10
166.9174999999999
 20
127.0
 30
0.0
 11
166.9174999999999
 21
93.75
 31
0.0
  0
LINE
  5
327
  8
2
 10
167.9999999999998
 20
128.08250000000001
 30
0.0
 11
167.9999999999998
 21
99.0
 31
0.0
  0
LINE
  5
328
  8
2
 10
153.0824999999997
 20
93.750000000000014
 30
0.0
 11
166.9174999999999
 21
93.75
 31
0.0
  0
LINE
  5
329
  8
2
 10
166.9174999999999
 20
93.75
 30
0.0
 11
159.9999999999998
 21
89.756179512880749
 31
0.0
  0
LINE
  5
32A
  8
2
 10
166.9174999999999
 20
127.0
 30
0.0
 11
168.9174999999999
 21
129.0
 31
0.0
  0
LINE
  5
32B
  8
2
 10
166.9174999999999
 20
127.0
 30
0.0
 11
153.0824999999997
 21
127.0
 31
0.0
  0
LINE
  5
32C
  8
0
 10
167.9999999999998
 20
51.0
 30
0.0
 11
165.9999999999998
 21
49.0
 31
0.0
  0
LINE
  5
32D
  8
0
 10
151.99999999999989
 20
51.0
 30
0.0
 11
153.99999999999989
 21
49.0
 31
0.0
  0
ARC
  5
32E
  8
0
 10
153.0999999999998
 20
78.600000000000023
 30
0.0
 40
0.4
 50
0.0
 51
90.0
  0
ARC
  5
32F
  8
0
 10
166.89999999999981
 20
78.600000000000023
 30
0.0
 40
0.4
 50
90.0
 51
180.0
  0
LINE
  5
33B
  8
0
 10
151.99999999999989
 20
51.0
 30
0.0
 11
167.9999999999998
 21
51.0
 31
0.0
  0
LINE
  5
33C
  8
2
 10
167.9999999999998
 20
99.0
 30
0.0
 11
166.9174999999999
 21
98.375018333602284
 31
0.0
  0
LINE
  5
33D
  8
0
 10
167.9999999999998
 20
75.0
 30
0.0
 11
151.99999999999989
 21
75.0
 31
0.0
  0
ARC
  5
33E
  8
0
 10
166.89999999999981
 20
75.399999999999977
 30
0.0
 40
0.4
 50
180.0
 51
270.0
  0
ARC
  5
33F
  8
0
 10
153.0999999999998
 20
75.399999999999977
 30
0.0
 40
0.4
 50
270.0
 51
0.0
  0
LINE
  5
340
  8
2
 10
153.0824999999997
 20
127.0
 30
0.0
 11
153.0824999999997
 21
93.75
 31
0.0
  0
LINE
  5
341
  8
2
 10
151.9999999999998
 20
128.08250000000001
 30
0.0
 11
151.9999999999998
 21
99.0
 31
0.0
  0
LINE
  5
342
  8
2
 10
153.0824999999997
 20
93.75
 30
0.0
 11
159.9999999999998
 21
89.756179512880749
 31
0.0
  0
LINE
  5
343
  8
2
 10
153.0824999999997
 20
127.0
 30
0.0
 11
151.0824999999997
 21
129.0
 31
0.0
  0
LINE
  5
349
  8
2
 10
151.9999999999998
 20
99.0
 30
0.0
 11
153.0824999999997
 21
98.375018333602284
 31
0.0
  0
ARC
  5
567
  8
0
 10
166.749999999995
 20
91.028250630026506
 30
0.0
 40
12.02825063002649
 50
235.8626368339269
 51
304.13736316607179
  0
ARC
  5
568
  8
0
 10
153.25000000000509
 20
91.028250630026506
 30
0.0
 40
12.02825063002649
 50
235.86263683392809
 51
304.13736316607299
  0
LINE
  5
56F
  8
0
 10
84.411542731937288
 20
127.50555349949821
 30
0.0
 11
84.411542731937288
 21
80.494446500501766
 31
0.0
  0
LINE
  5
577
  8
0
 10
115.588457268177
 20
80.494446500567975
 30
0.0
 11
115.588457268177
 21
127.5055534994321
 31
0.0
  0
TEXT
  5
611
  8
0
 62
     3
 10
0.0
 20
0.0
 30
0.0
 40
10.0
  1
BJ611-16050
  7
STANDARD1
  0
ENDSEC
  0
EOF
