  0
SECTION
  2
HEADER
  9
$ACADVER
  1
AC1009
  9
$INSBASE
 10
0.0
 20
0.0
 30
0.0
  9
$EXTMIN
 10
0.0
 20
-2.960436562073669
 30
0.0
  9
$EXTMAX
 10
173.49999999999011
 20
214.49999999997269
 30
0.0
  9
$LIMMIN
 10
0.0
 20
0.0
  9
$LIMMAX
 10
375.0
 20
270.0
  9
$ORTHOMODE
 70
     1
  9
$REGENMODE
 70
     1
  9
$FILLMODE
 70
     1
  9
$QTEXTMODE
 70
     0
  9
$MIRRTEXT
 70
     0
  9
$DRAGMODE
 70
     2
  9
$LTSCALE
 40
10.0
  9
$OSMODE
 70
  3071
  9
$ATTMODE
 70
     1
  9
$TEXTSIZE
 40
0.2
  9
$TRACEWID
 40
0.05
  9
$TEXTSTYLE
  7
STANDARD
  9
$CLAYER
  8
0
  9
$CELTYPE
  6
BYLAYER
  9
$CECOLOR
 62
   256
  9
$DIMSCALE
 40
1.0
  9
$DIMASZ
 40
3.0
  9
$DIMEXO
 40
2.0
  9
$DIMDLI
 40
0.38
  9
$DIMRND
 40
0.0
  9
$DIMDLE
 40
0.0
  9
$DIMEXE
 40
2.0
  9
$DIMTP
 40
0.0
  9
$DIMTM
 40
0.0
  9
$DIMTXT
 40
3.2000000000000002
  9
$DIMCEN
 40
0.0
  9
$DIMTSZ
 40
0.0
  9
$DIMTOL
 70
     0
  9
$DIMLIM
 70
     0
  9
$DIMTIH
 70
     0
  9
$DIMTOH
 70
     0
  9
$DIMSE1
 70
     0
  9
$DIMSE2
 70
     0
  9
$DIMTAD
 70
     1
  9
$DIMZIN
 70
     0
  9
$DIMBLK
  1

  9
$DIMASO
 70
     0
  9
$DIMSHO
 70
     0
  9
$DIMPOST
  1

  9
$DIMAPOST
  1

  9
$DIMALT
 70
     0
  9
$DIMALTD
 70
     2
  9
$DIMALTF
 40
25.399999999999999
  9
$DIMLFAC
 40
1.0
  9
$DIMTOFL
 70
     1
  9
$DIMTVP
 40
1.6000000000000001
  9
$DIMTIX
 70
     1
  9
$DIMSOXD
 70
     0
  9
$DIMSAH
 70
     0
  9
$DIMBLK1
  1

  9
$DIMBLK2
  1

  9
$DIMSTYLE
  2
STANDARD
  9
$DIMCLRD
 70
     0
  9
$DIMCLRE
 70
     0
  9
$DIMCLRT
 70
     0
  9
$DIMTFAC
 40
1.0
  9
$DIMGAP
 40
0.09
  9
$LUNITS
 70
     2
  9
$LUPREC
 70
     4
  9
$SKETCHINC
 40
0.1
  9
$FILLETRAD
 40
0.0
  9
$AUNITS
 70
     0
  9
$AUPREC
 70
     4
  9
$MENU
  1
E:\r13\win\SUPPORT\ACAD
  9
$ELEVATION
 40
0.0
  9
$PELEVATION
 40
0.0
  9
$THICKNESS
 40
0.0
  9
$LIMCHECK
 70
     0
  9
$BLIPMODE
 70
     0
  9
$CHAMFERA
 40
0.0
  9
$CHAMFERB
 40
0.0
  9
$SKPOLY
 70
     0
  9
$TDCREATE
 40
2449839.7649768521
  9
$TDUPDATE
 40
2456597.6816455671
  9
$TDINDWG
 40
0.0678982986
  9
$TDUSRTIMER
 40
0.0678982986
  9
$USRTIMER
 70
     1
  9
$ANGBASE
 50
0.0
  9
$ANGDIR
 70
     0
  9
$PDMODE
 70
     0
  9
$PDSIZE
 40
0.0
  9
$PLINEWID
 40
0.0
  9
$COORDS
 70
     1
  9
$SPLFRAME
 70
     0
  9
$SPLINETYPE
 70
     6
  9
$SPLINESEGS
 70
     8
  9
$ATTDIA
 70
     0
  9
$ATTREQ
 70
     1
  9
$HANDLING
 70
     1
  9
$HANDSEED
  5
555
  9
$SURFTAB1
 70
     6
  9
$SURFTAB2
 70
     6
  9
$SURFTYPE
 70
     6
  9
$SURFU
 70
     6
  9
$SURFV
 70
     6
  9
$UCSNAME
  2

  9
$UCSORG
 10
0.0
 20
0.0
 30
0.0
  9
$UCSXDIR
 10
1.0
 20
0.0
 30
0.0
  9
$UCSYDIR
 10
0.0
 20
1.0
 30
0.0
  9
$PUCSNAME
  2

  9
$PUCSORG
 10
0.0
 20
0.0
 30
0.0
  9
$PUCSXDIR
 10
1.0
 20
0.0
 30
0.0
  9
$PUCSYDIR
 10
0.0
 20
1.0
 30
0.0
  9
$USERI1
 70
     0
  9
$USERI2
 70
     1
  9
$USERI3
 70
     0
  9
$USERI4
 70
     0
  9
$USERI5
 70
     0
  9
$USERR1
 40
0.0
  9
$USERR2
 40
0.0
  9
$USERR3
 40
0.0
  9
$USERR4
 40
0.0
  9
$USERR5
 40
0.0
  9
$WORLDVIEW
 70
     1
  9
$SHADEDGE
 70
     3
  9
$SHADEDIF
 70
    70
  9
$TILEMODE
 70
     1
  9
$MAXACTVP
 70
    16
  9
$PLIMCHECK
 70
     0
  9
$PEXTMIN
 10
1.0000000000000000E+020
 20
1.0000000000000000E+020
 30
1.0000000000000000E+020
  9
$PEXTMAX
 10
-1.0000000000000000E+020
 20
-1.0000000000000000E+020
 30
-1.0000000000000000E+020
  9
$PLIMMIN
 10
0.0
 20
0.0
  9
$PLIMMAX
 10
12.0
 20
9.0
  9
$UNITMODE
 70
     0
  9
$VISRETAIN
 70
     0
  9
$PLINEGEN
 70
     0
  9
$PSLTSCALE
 70
     0
  0
ENDSEC
  0
SECTION
  2
TABLES
  0
TABLE
  2
VPORT
 70
     1
  0
VPORT
  2
*ACTIVE
 70
     0
 10
0.0
 20
0.0
 11
1.0
 21
1.0
 12
195.0581083320873
 22
133.5127261426681
 13
0.0
 23
0.0
 14
10.0
 24
10.0
 15
10.0
 25
10.0
 16
0.0
 26
0.0
 36
1.0
 17
0.0
 27
0.0
 37
0.0
 40
275.42274993631997
 41
1.831871345029239
 42
50.0
 43
0.0
 44
0.0
 50
0.0
 51
0.0
 71
     0
 72
   500
 73
     1
 74
     0
 75
     0
 76
     0
 77
     0
 78
     2
  0
ENDTAB
  0
TABLE
  2
LTYPE
 70
     4
  0
LTYPE
  2
CONTINUOUS
 70
     0
  3
Solid Line
 72
    65
 73
     0
 40
0.0
  0
LTYPE
  2
CENTER
 70
     0
  3
____ _ ____ _ ____ _ ____ _ ____ _ ____ _ ____
 72
    65
 73
     4
 40
2.0
 49
1.25
 49
-0.25
 49
0.25
 49
-0.25
  0
LTYPE
  2
HIDDEN
 70
     0
  3
_ _ _ _ _ _ _ _ _ _ _ _ _ _ _ _ _ _ _ _ _ _ _
 72
    65
 73
     2
 40
0.375
 49
0.25
 49
-0.125
  0
LTYPE
  2
PHANTOM2
 70
     0
  3
___ _ _ ___ _ _ ___ _ _ ___ _ _
 72
    65
 73
     6
 40
1.25
 49
0.625
 49
-0.125
 49
0.125
 49
-0.125
 49
0.125
 49
-0.125
  0
ENDTAB
  0
TABLE
  2
LAYER
 70
     4
  0
LAYER
  2
0
 70
     0
 62
     7
  6
CONTINUOUS
  0
LAYER
  2
1
 70
     0
 62
     1
  6
CENTER
  0
LAYER
  2
3
 70
     0
 62
     3
  6
CONTINUOUS
  0
LAYER
  2
2
 70
     0
 62
     2
  6
HIDDEN
  0
ENDTAB
  0
TABLE
  2
STYLE
 70
     2
  0
STYLE
  2
STANDARD
 70
     0
 40
0.0
 41
1.0
 50
0.0
 71
     0
 42
0.2
  3
TXT
  4
BIGFONT
  0
STYLE
  2
STANDARD1
 70
     0
 40
0.0
 41
1.0
 50
0.0
 71
     0
 42
3.0
  3
txt
  4

  0
ENDTAB
  0
TABLE
  2
VIEW
 70
     1
  0
VIEW
  2
ALL
 70
     0
 40
270.0
 10
220.99159663865549
 20
135.0
 41
0.0
 11
0.0
 21
0.0
 31
1.0
 12
0.0
 22
0.0
 32
0.0
 42
0.0
 43
0.0
 44
0.0
 50
0.0
 71
     0
  0
ENDTAB
  0
TABLE
  2
UCS
 70
     0
  0
ENDTAB
  0
TABLE
  2
APPID
 70
     4
  0
APPID
  2
ACAD
 70
     0
  0
APPID
  2
ACAD_MLEADERVER
 70
     0
  0
APPID
  2
ACAD_EXEMPT_FROM_CAD_STANDARDS
 70
     0
  0
APPID
  2
ACAD_NAV_VCDISPLAY
 70
     0
  0
ENDTAB
  0
TABLE
  2
DIMSTYLE
 70
     1
  0
DIMSTYLE
  2
STANDARD
 70
     0
  3

  4

  5

  6

  7

 40
1.0
 41
0.18
 42
0.0625
 43
0.38
 44
0.18
 45
0.0
 46
0.0
 47
0.0
 48
0.0
140
0.18
141
0.09
142
0.0
143
25.399999999999999
144
1.0
145
0.0
146
1.0
147
0.09
 71
     0
 72
     0
 73
     1
 74
     1
 75
     0
 76
     0
 77
     0
 78
     0
170
     0
171
     2
172
     0
173
     0
174
     0
175
     0
176
     0
177
     0
178
     0
  0
ENDTAB
  0
ENDSEC
  0
SECTION
  2
BLOCKS
  0
BLOCK
  8
0
  2
$MODEL_SPACE
 70
     0
 10
0.0
 20
0.0
 30
0.0
  3
$MODEL_SPACE
  1

  0
ENDBLK
  5
14D
  8
0
  0
BLOCK
 67
     1
  8
0
  2
$PAPER_SPACE
 70
     0
 10
0.0
 20
0.0
 30
0.0
  3
$PAPER_SPACE
  1

  0
ENDBLK
  5
14B
 67
     1
  8
0
  0
ENDSEC
  0
SECTION
  2
ENTITIES
  0
LINE
  5
3E0
  8
1
 10
79.411542731879877
 20
195.99999999997269
 30
0.0
 11
120.5884572681199
 21
195.99999999997269
 31
0.0
  0
LINE
  5
3E1
  8
1
 10
100.0000000000001
 20
177.49999999997269
 30
0.0
 11
100.0000000000001
 21
214.49999999997269
 31
0.0
  0
CIRCLE
  5
3E2
  8
0
 10
100.0000000000001
 20
195.99999999997269
 30
0.0
 40
6.9175000000000004
  0
CIRCLE
  5
3E3
  8
3
 10
100.0000000000001
 20
195.99999999997269
 30
0.0
 40
8.0
  0
CIRCLE
  5
3E4
  8
0
 10
100.0000000000573
 20
195.99999999997269
 30
0.0
 40
13.0
  0
LINE
  5
3E5
  8
0
 10
107.7942286341172
 20
209.49999999997269
 30
0.0
 11
115.58845726817709
 21
195.99999999997269
 31
0.0
  0
LINE
  5
3E6
  8
0
 10
115.58845726817719
 20
195.99999999997269
 30
0.0
 11
107.7942286341172
 21
182.49999999997269
 31
0.0
  0
LINE
  5
3E7
  8
0
 10
107.7942286341172
 20
182.49999999997269
 30
0.0
 11
92.205771365997407
 21
182.49999999997269
 31
0.0
  0
LINE
  5
3E8
  8
0
 10
92.205771365997293
 20
182.49999999997269
 30
0.0
 11
84.411542731937402
 21
195.99999999997269
 31
0.0
  0
LINE
  5
3E9
  8
0
 10
84.411542731937402
 20
195.99999999997269
 30
0.0
 11
92.205771365997293
 21
209.49999999997269
 31
0.0
  0
LINE
  5
3EA
  8
0
 10
92.205771365997293
 20
209.49999999997269
 30
0.0
 11
107.7942286341172
 21
209.49999999997269
 31
0.0
  0
LINE
  5
3EB
  8
0
 10
172.99999999999099
 20
155.0
 30
0.0
 11
147.00000000000921
 21
155.0
 31
0.0
  0
LINE
  5
3EC
  8
0
 10
159.99999999999989
 20
152.9274669844302
 30
0.0
 11
160.00000000000011
 21
82.072533015570016
 31
0.0
  0
LINE
  5
3ED
  8
0
 10
173.49999999999011
 20
154.71132486540591
 30
0.0
 11
173.49999999998869
 21
80.288675134594087
 31
0.0
  0
LINE
  5
3EE
  8
0
 10
147.00000000001009
 20
80.0
 30
0.0
 11
172.99999999999011
 21
80.0
 31
0.0
  0
LINE
  5
3EF
  8
0
 10
173.49999999999011
 20
154.71132486540591
 30
0.0
 11
172.99999999999099
 21
155.0
 31
0.0
  0
LINE
  5
3F0
  8
0
 10
173.49999999998869
 20
80.288675134594087
 30
0.0
 11
172.99999999999099
 21
80.000000000000696
 31
0.0
  0
ARC
  5
3F1
  8
0
 10
166.74999999999511
 20
142.97174936997351
 30
0.0
 40
12.02825063002649
 50
55.862636833927098
 51
124.1373631660729
  0
LINE
  5
3F2
  8
0
 10
146.50000000001151
 20
80.288675134594087
 30
0.0
 11
147.00000000000921
 21
80.000000000000696
 31
0.0
  0
LINE
  5
3F3
  8
0
 10
146.50000000001009
 20
154.71132486540591
 30
0.0
 11
147.00000000000921
 21
155.0
 31
0.0
  0
LINE
  5
3F4
  8
0
 10
146.50000000001009
 20
154.71132486540591
 30
0.0
 11
146.50000000001151
 21
80.288675134594087
 31
0.0
  0
ARC
  5
3F5
  8
0
 10
153.2500000000052
 20
142.97174936997351
 30
0.0
 40
12.02825063002649
 50
55.862636833927098
 51
124.1373631660729
  0
LINE
  5
3F6
  8
1
 10
99.999999999999943
 20
45.0
 30
0.0
 11
99.999999999999943
 21
160.0
 31
0.0
  0
LINE
  5
3F7
  8
0
 10
86.999999999999929
 20
155.0
 30
0.0
 11
112.9999999999999
 21
155.0
 31
0.0
  0
LINE
  5
3F8
  8
0
 10
94.0
 20
50.0
 30
0.0
 11
105.9999999999999
 21
50.0
 31
0.0
  0
LINE
  5
3F9
  8
0
 10
86.999999999999929
 20
80.0
 30
0.0
 11
112.9999999999999
 21
80.0
 31
0.0
  0
LINE
  5
3FA
  8
2
 10
91.999999999999929
 20
125.0
 30
0.0
 11
107.9999999999999
 21
125.0
 31
0.0
  0
LINE
  5
3FB
  8
0
 10
93.499999999999943
 20
76.399999999999963
 30
0.0
 11
93.499999999999943
 21
79.600000000000023
 31
0.0
  0
LINE
  5
3FC
  8
0
 10
106.4999999999999
 20
76.399999999999963
 30
0.0
 11
106.4999999999999
 21
79.600000000000023
 31
0.0
  0
LINE
  5
3FD
  8
0
 10
107.9999999999999
 20
52.0
 30
0.0
 11
107.9999999999999
 21
76.0
 31
0.0
  0
LINE
  5
3FE
  8
3
 10
106.9175000000001
 20
50.917500000000011
 30
0.0
 11
106.9175000000001
 21
76.0
 31
0.0
  0
LINE
  5
3FF
  8
3
 10
93.082499999999925
 20
50.917500000000082
 30
0.0
 11
93.082499999999925
 21
76.0
 31
0.0
  0
LINE
  5
400
  8
0
 10
92.0
 20
52.0
 30
0.0
 11
92.0
 21
76.0
 31
0.0
  0
LINE
  5
401
  8
2
 10
106.9175000000001
 20
153.0
 30
0.0
 11
106.9175000000001
 21
119.75
 31
0.0
  0
LINE
  5
402
  8
2
 10
107.9999999999999
 20
154.08250000000001
 30
0.0
 11
107.9999999999999
 21
125.0
 31
0.0
  0
LINE
  5
403
  8
2
 10
93.082499999999811
 20
119.75
 30
0.0
 11
106.9175000000001
 21
119.75
 31
0.0
  0
LINE
  5
404
  8
2
 10
106.9175000000001
 20
119.75
 30
0.0
 11
99.999999999999943
 21
115.75617951288071
 31
0.0
  0
LINE
  5
405
  8
2
 10
106.9175000000001
 20
153.0
 30
0.0
 11
108.9175
 21
155.0
 31
0.0
  0
LINE
  5
406
  8
2
 10
106.9175000000001
 20
153.0
 30
0.0
 11
93.082499999999811
 21
153.0
 31
0.0
  0
LINE
  5
407
  8
0
 10
107.9999999999999
 20
52.0
 30
0.0
 11
105.9999999999999
 21
50.0
 31
0.0
  0
LINE
  5
408
  8
0
 10
92.0
 20
52.0
 30
0.0
 11
94.0
 21
50.0
 31
0.0
  0
ARC
  5
409
  8
0
 10
93.099999999999966
 20
79.600000000000023
 30
0.0
 40
0.4
 50
0.0
 51
90.0
  0
ARC
  5
40A
  8
0
 10
106.89999999999991
 20
79.600000000000023
 30
0.0
 40
0.4
 50
90.0
 51
180.0
  0
LINE
  5
40B
  8
0
 10
92.205771365939995
 20
152.9274669844834
 30
0.0
 11
92.205771365939995
 21
82.072533015516797
 31
0.0
  0
LINE
  5
40C
  8
0
 10
86.999999999999929
 20
155.0
 30
0.0
 11
84.411542731937402
 21
153.50555349949821
 31
0.0
  0
LINE
  5
40D
  8
0
 10
86.999999999999929
 20
80.0
 30
0.0
 11
84.411542731937402
 21
81.494446500501766
 31
0.0
  0
LINE
  5
40E
  8
0
 10
112.9999999999999
 20
155.0
 30
0.0
 11
115.58845726817719
 21
153.5055534994321
 31
0.0
  0
LINE
  5
40F
  8
0
 10
112.9999999999999
 20
80.0
 30
0.0
 11
115.58845726817719
 21
81.49444650056796
 31
0.0
  0
ARC
  5
410
  8
0
 10
86.995764290752959
 20
147.41518744278429
 30
0.0
 40
7.5848137399234394
 50
46.614800220402962
 51
89.968003396786031
  0
ARC
  5
411
  8
0
 10
99.98957785518877
 20
139.346949492335
 30
0.0
 40
15.65305397731108
 50
89.961851217267281
 51
119.81960047086829
  0
ARC
  5
412
  8
0
 10
99.98957785518877
 20
95.653050507665
 30
0.0
 40
15.65305397731108
 50
240.18039952913171
 51
270.03814878273272
  0
ARC
  5
413
  8
0
 10
86.995764290752959
 20
87.584812557215685
 30
0.0
 40
7.5848137399234394
 50
270.031996603214
 51
313.38519977959697
  0
LINE
  5
414
  8
0
 10
92.0
 20
52.0
 30
0.0
 11
107.9999999999999
 21
52.0
 31
0.0
  0
LINE
  5
415
  8
2
 10
107.9999999999999
 20
125.0
 30
0.0
 11
106.9175000000001
 21
124.3750183336022
 31
0.0
  0
LINE
  5
416
  8
0
 10
107.9999999999999
 20
76.0
 30
0.0
 11
92.0
 21
76.0
 31
0.0
  0
ARC
  5
417
  8
0
 10
106.89999999999991
 20
76.399999999999963
 30
0.0
 40
0.4
 50
180.0
 51
270.0
  0
ARC
  5
418
  8
0
 10
93.099999999999966
 20
76.399999999999963
 30
0.0
 40
0.4
 50
270.0
 51
0.0
  0
LINE
  5
419
  8
2
 10
93.082499999999811
 20
153.0
 30
0.0
 11
93.082499999999811
 21
119.75
 31
0.0
  0
LINE
  5
41A
  8
2
 10
91.999999999999929
 20
154.08250000000001
 30
0.0
 11
91.999999999999929
 21
125.0
 31
0.0
  0
LINE
  5
41B
  8
2
 10
93.082499999999811
 20
119.75
 30
0.0
 11
99.999999999999943
 21
115.75617951288071
 31
0.0
  0
LINE
  5
41C
  8
2
 10
93.082499999999811
 20
153.0
 30
0.0
 11
91.082499999999825
 21
155.0
 31
0.0
  0
LINE
  5
41D
  8
0
 10
107.79422863405991
 20
152.9274669844834
 30
0.0
 11
107.79422863405991
 21
82.072533015516797
 31
0.0
  0
ARC
  5
41E
  8
0
 10
113.0042357092469
 20
147.41518744278429
 30
0.0
 40
7.5848137399234394
 50
90.031996603213955
 51
133.385199779597
  0
ARC
  5
41F
  8
0
 10
100.0104221448111
 20
139.346949492335
 30
0.0
 40
15.65305397731108
 50
60.180399529131698
 51
90.038148782732719
  0
ARC
  5
420
  8
0
 10
100.0104221448111
 20
95.653050507665
 30
0.0
 40
15.65305397731108
 50
269.96185121726728
 51
299.81960047086829
  0
ARC
  5
421
  8
0
 10
113.0042357092469
 20
87.584812557215685
 30
0.0
 40
7.5848137399234394
 50
226.614800220403
 51
269.96800339678612
  0
LINE
  5
422
  8
2
 10
91.999999999999929
 20
125.0
 30
0.0
 11
93.082499999999811
 21
124.3750183336022
 31
0.0
  0
LINE
  5
423
  8
1
 10
159.99999999999989
 20
45.0
 30
0.0
 11
159.99999999999989
 21
160.0
 31
0.0
  0
LINE
  5
424
  8
0
 10
154.0
 20
50.0
 30
0.0
 11
165.99999999999989
 21
50.0
 31
0.0
  0
LINE
  5
425
  8
2
 10
151.99999999999989
 20
125.0
 30
0.0
 11
167.99999999999989
 21
125.0
 31
0.0
  0
LINE
  5
426
  8
0
 10
153.49999999999989
 20
76.399999999999963
 30
0.0
 11
153.49999999999989
 21
79.600000000000023
 31
0.0
  0
LINE
  5
427
  8
0
 10
166.49999999999989
 20
76.399999999999963
 30
0.0
 11
166.49999999999989
 21
79.600000000000023
 31
0.0
  0
LINE
  5
428
  8
0
 10
167.99999999999989
 20
52.0
 30
0.0
 11
167.99999999999989
 21
76.0
 31
0.0
  0
LINE
  5
429
  8
3
 10
166.91749999999999
 20
50.917500000000011
 30
0.0
 11
166.91749999999999
 21
76.0
 31
0.0
  0
LINE
  5
42A
  8
3
 10
153.0824999999999
 20
50.917500000000082
 30
0.0
 11
153.0824999999999
 21
76.0
 31
0.0
  0
LINE
  5
42B
  8
0
 10
152.0
 20
52.0
 30
0.0
 11
152.0
 21
76.0
 31
0.0
  0
LINE
  5
42C
  8
2
 10
166.91749999999999
 20
153.0
 30
0.0
 11
166.91749999999999
 21
119.75
 31
0.0
  0
LINE
  5
42D
  8
2
 10
167.99999999999989
 20
154.08250000000001
 30
0.0
 11
167.99999999999989
 21
125.0
 31
0.0
  0
LINE
  5
42E
  8
2
 10
153.08249999999981
 20
119.75
 30
0.0
 11
166.91749999999999
 21
119.75
 31
0.0
  0
LINE
  5
42F
  8
2
 10
166.91749999999999
 20
119.75
 30
0.0
 11
159.99999999999989
 21
115.75617951288071
 31
0.0
  0
LINE
  5
430
  8
2
 10
166.91749999999999
 20
153.0
 30
0.0
 11
168.91749999999999
 21
155.0
 31
0.0
  0
LINE
  5
431
  8
2
 10
166.91749999999999
 20
153.0
 30
0.0
 11
153.08249999999981
 21
153.0
 31
0.0
  0
LINE
  5
432
  8
0
 10
167.99999999999989
 20
52.0
 30
0.0
 11
165.99999999999989
 21
50.0
 31
0.0
  0
LINE
  5
433
  8
0
 10
152.0
 20
52.0
 30
0.0
 11
154.0
 21
50.0
 31
0.0
  0
ARC
  5
434
  8
0
 10
153.09999999999991
 20
79.600000000000023
 30
0.0
 40
0.4
 50
0.0
 51
90.0
  0
ARC
  5
435
  8
0
 10
166.90000000000001
 20
79.600000000000023
 30
0.0
 40
0.4
 50
90.0
 51
180.0
  0
LINE
  5
436
  8
0
 10
152.0
 20
52.0
 30
0.0
 11
167.99999999999989
 21
52.0
 31
0.0
  0
LINE
  5
437
  8
2
 10
167.99999999999989
 20
125.0
 30
0.0
 11
166.91749999999999
 21
124.3750183336022
 31
0.0
  0
LINE
  5
438
  8
0
 10
167.99999999999989
 20
76.0
 30
0.0
 11
152.0
 21
76.0
 31
0.0
  0
ARC
  5
439
  8
0
 10
166.90000000000001
 20
76.399999999999963
 30
0.0
 40
0.4
 50
180.0
 51
270.0
  0
ARC
  5
43A
  8
0
 10
153.09999999999991
 20
76.399999999999963
 30
0.0
 40
0.4
 50
270.0
 51
0.0
  0
LINE
  5
43B
  8
2
 10
153.08249999999981
 20
153.0
 30
0.0
 11
153.08249999999981
 21
119.75
 31
0.0
  0
LINE
  5
43C
  8
2
 10
151.99999999999989
 20
154.08250000000001
 30
0.0
 11
151.99999999999989
 21
125.0
 31
0.0
  0
LINE
  5
43D
  8
2
 10
153.08249999999981
 20
119.75
 30
0.0
 11
159.99999999999989
 21
115.75617951288071
 31
0.0
  0
LINE
  5
43E
  8
2
 10
153.08249999999981
 20
153.0
 30
0.0
 11
151.08249999999981
 21
155.0
 31
0.0
  0
LINE
  5
43F
  8
2
 10
151.99999999999989
 20
125.0
 30
0.0
 11
153.08249999999981
 21
124.3750183336022
 31
0.0
  0
ARC
  5
440
  8
0
 10
166.74999999999511
 20
92.028250630026491
 30
0.0
 40
12.02825063002649
 50
235.8626368339271
 51
304.13736316607287
  0
ARC
  5
441
  8
0
 10
153.2500000000052
 20
92.028250630026491
 30
0.0
 40
12.02825063002649
 50
235.8626368339271
 51
304.13736316607287
  0
LINE
  5
442
  8
0
 10
84.411542731937402
 20
153.50555349949821
 30
0.0
 11
84.411542731937402
 21
81.494446500501766
 31
0.0
  0
LINE
  5
443
  8
0
 10
115.58845726817719
 20
81.49444650056796
 30
0.0
 11
115.58845726817719
 21
153.5055534994321
 31
0.0
  0
TEXT
  5
4F0
  8
0
 62
     3
 10
0.0
 20
0.0
 30
0.0
 40
10.0
  1
BJ611-16075
  7
STANDARD1
  0
ENDSEC
  0
EOF
