  0
SECTION
  2
HEADER
  9
$ACADVER
  1
AC1009
  9
$INSBASE
 10
0.0
 20
0.0
 30
0.0
  9
$EXTMIN
 10
0.0
 20
-1.4802182810368341
 30
0.0
  9
$EXTMAX
 10
132.06836975880771
 20
109.9910904248061
 30
0.0
  9
$LIMMIN
 10
0.0
 20
0.0
  9
$LIMMAX
 10
187.5
 20
135.0
  9
$ORTHOMODE
 70
     1
  9
$REGENMODE
 70
     1
  9
$FILLMODE
 70
     1
  9
$QTEXTMODE
 70
     0
  9
$MIRRTEXT
 70
     0
  9
$DRAGMODE
 70
     2
  9
$LTSCALE
 40
5.0
  9
$OSMODE
 70
  3071
  9
$ATTMODE
 70
     1
  9
$TEXTSIZE
 40
0.2
  9
$TRACEWID
 40
0.05
  9
$TEXTSTYLE
  7
STANDARD
  9
$CLAYER
  8
0
  9
$CELTYPE
  6
BYLAYER
  9
$CECOLOR
 62
   256
  9
$DIMSCALE
 40
0.5
  9
$DIMASZ
 40
3.0
  9
$DIMEXO
 40
2.0
  9
$DIMDLI
 40
0.38
  9
$DIMRND
 40
0.0
  9
$DIMDLE
 40
0.0
  9
$DIMEXE
 40
2.0
  9
$DIMTP
 40
0.0
  9
$DIMTM
 40
0.0
  9
$DIMTXT
 40
3.2000000000000002
  9
$DIMCEN
 40
0.0
  9
$DIMTSZ
 40
0.0
  9
$DIMTOL
 70
     0
  9
$DIMLIM
 70
     0
  9
$DIMTIH
 70
     0
  9
$DIMTOH
 70
     0
  9
$DIMSE1
 70
     0
  9
$DIMSE2
 70
     0
  9
$DIMTAD
 70
     1
  9
$DIMZIN
 70
     0
  9
$DIMBLK
  1

  9
$DIMASO
 70
     0
  9
$DIMSHO
 70
     0
  9
$DIMPOST
  1

  9
$DIMAPOST
  1

  9
$DIMALT
 70
     0
  9
$DIMALTD
 70
     2
  9
$DIMALTF
 40
25.399999999999999
  9
$DIMLFAC
 40
1.0
  9
$DIMTOFL
 70
     1
  9
$DIMTVP
 40
1.6000000000000001
  9
$DIMTIX
 70
     1
  9
$DIMSOXD
 70
     0
  9
$DIMSAH
 70
     0
  9
$DIMBLK1
  1

  9
$DIMBLK2
  1

  9
$DIMSTYLE
  2
STANDARD
  9
$DIMCLRD
 70
     0
  9
$DIMCLRE
 70
     0
  9
$DIMCLRT
 70
     0
  9
$DIMTFAC
 40
1.0
  9
$DIMGAP
 40
0.09
  9
$LUNITS
 70
     2
  9
$LUPREC
 70
     4
  9
$SKETCHINC
 40
0.1
  9
$FILLETRAD
 40
0.0
  9
$AUNITS
 70
     0
  9
$AUPREC
 70
     4
  9
$MENU
  1
E:\r13\win\SUPPORT\ACAD
  9
$ELEVATION
 40
0.0
  9
$PELEVATION
 40
0.0
  9
$THICKNESS
 40
0.0
  9
$LIMCHECK
 70
     0
  9
$BLIPMODE
 70
     0
  9
$CHAMFERA
 40
0.0
  9
$CHAMFERB
 40
0.0
  9
$SKPOLY
 70
     0
  9
$TDCREATE
 40
2449839.7679629629
  9
$TDUPDATE
 40
2456597.6902651391
  9
$TDINDWG
 40
0.0006463194
  9
$TDUSRTIMER
 40
0.0006463194
  9
$USRTIMER
 70
     1
  9
$ANGBASE
 50
0.0
  9
$ANGDIR
 70
     0
  9
$PDMODE
 70
     0
  9
$PDSIZE
 40
0.0
  9
$PLINEWID
 40
0.0
  9
$COORDS
 70
     1
  9
$SPLFRAME
 70
     0
  9
$SPLINETYPE
 70
     6
  9
$SPLINESEGS
 70
     8
  9
$ATTDIA
 70
     0
  9
$ATTREQ
 70
     1
  9
$HANDLING
 70
     1
  9
$HANDSEED
  5
29F
  9
$SURFTAB1
 70
     6
  9
$SURFTAB2
 70
     6
  9
$SURFTYPE
 70
     6
  9
$SURFU
 70
     6
  9
$SURFV
 70
     6
  9
$UCSNAME
  2

  9
$UCSORG
 10
0.0
 20
0.0
 30
0.0
  9
$UCSXDIR
 10
1.0
 20
0.0
 30
0.0
  9
$UCSYDIR
 10
0.0
 20
1.0
 30
0.0
  9
$PUCSNAME
  2

  9
$PUCSORG
 10
0.0
 20
0.0
 30
0.0
  9
$PUCSXDIR
 10
1.0
 20
0.0
 30
0.0
  9
$PUCSYDIR
 10
0.0
 20
1.0
 30
0.0
  9
$USERI1
 70
     0
  9
$USERI2
 70
     1
  9
$USERI3
 70
     0
  9
$USERI4
 70
     0
  9
$USERI5
 70
     0
  9
$USERR1
 40
0.0
  9
$USERR2
 40
0.0
  9
$USERR3
 40
0.0
  9
$USERR4
 40
0.0
  9
$USERR5
 40
0.0
  9
$WORLDVIEW
 70
     1
  9
$SHADEDGE
 70
     3
  9
$SHADEDIF
 70
    70
  9
$TILEMODE
 70
     1
  9
$MAXACTVP
 70
    16
  9
$PLIMCHECK
 70
     0
  9
$PEXTMIN
 10
1.0000000000000000E+020
 20
1.0000000000000000E+020
 30
1.0000000000000000E+020
  9
$PEXTMAX
 10
-1.0000000000000000E+020
 20
-1.0000000000000000E+020
 30
-1.0000000000000000E+020
  9
$PLIMMIN
 10
0.0
 20
0.0
  9
$PLIMMAX
 10
12.0
 20
9.0
  9
$UNITMODE
 70
     0
  9
$VISRETAIN
 70
     0
  9
$PLINEGEN
 70
     0
  9
$PSLTSCALE
 70
     0
  0
ENDSEC
  0
SECTION
  2
TABLES
  0
TABLE
  2
VPORT
 70
     1
  0
VPORT
  2
*ACTIVE
 70
     0
 10
0.0
 20
0.0
 11
1.0
 21
1.0
 12
97.52905416604365
 22
66.75636307133405
 13
0.0
 23
0.0
 14
5.0
 24
5.0
 15
5.0
 25
5.0
 16
0.0
 26
0.0
 36
1.0
 17
0.0
 27
0.0
 37
0.0
 40
137.71137496815999
 41
1.831871345029239
 42
50.0
 43
0.0
 44
0.0
 50
0.0
 51
0.0
 71
     0
 72
   500
 73
     1
 74
     0
 75
     0
 76
     0
 77
     0
 78
     2
  0
ENDTAB
  0
TABLE
  2
LTYPE
 70
     4
  0
LTYPE
  2
CONTINUOUS
 70
     0
  3
Solid Line
 72
    65
 73
     0
 40
0.0
  0
LTYPE
  2
CENTER
 70
     0
  3
____ _ ____ _ ____ _ ____ _ ____ _ ____ _ ____
 72
    65
 73
     4
 40
2.0
 49
1.25
 49
-0.25
 49
0.25
 49
-0.25
  0
LTYPE
  2
HIDDEN
 70
     0
  3
_ _ _ _ _ _ _ _ _ _ _ _ _ _ _ _ _ _ _ _ _ _ _
 72
    65
 73
     2
 40
0.375
 49
0.25
 49
-0.125
  0
LTYPE
  2
PHANTOM2
 70
     0
  3
___ _ _ ___ _ _ ___ _ _ ___ _ _
 72
    65
 73
     6
 40
1.25
 49
0.625
 49
-0.125
 49
0.125
 49
-0.125
 49
0.125
 49
-0.125
  0
ENDTAB
  0
TABLE
  2
LAYER
 70
     4
  0
LAYER
  2
0
 70
     0
 62
     7
  6
CONTINUOUS
  0
LAYER
  2
1
 70
     0
 62
     1
  6
CENTER
  0
LAYER
  2
2
 70
     0
 62
     2
  6
HIDDEN
  0
LAYER
  2
3
 70
     0
 62
     3
  6
CONTINUOUS
  0
ENDTAB
  0
TABLE
  2
STYLE
 70
     2
  0
STYLE
  2
STANDARD
 70
     0
 40
0.0
 41
1.0
 50
0.0
 71
     0
 42
0.2
  3
TXT
  4
BIGFONT
  0
STYLE
  2
STANDARD1
 70
     0
 40
0.0
 41
1.0
 50
0.0
 71
     0
 42
3.0
  3
txt
  4

  0
ENDTAB
  0
TABLE
  2
VIEW
 70
     1
  0
VIEW
  2
ALL
 70
     0
 40
135.0
 10
110.4957983193277
 20
67.5
 41
0.0
 11
0.0
 21
0.0
 31
1.0
 12
0.0
 22
0.0
 32
0.0
 42
0.0
 43
0.0
 44
0.0
 50
0.0
 71
     0
  0
ENDTAB
  0
TABLE
  2
UCS
 70
     0
  0
ENDTAB
  0
TABLE
  2
APPID
 70
     3
  0
APPID
  2
ACAD
 70
     0
  0
APPID
  2
ACAD_MLEADERVER
 70
     0
  0
APPID
  2
ACAD_NAV_VCDISPLAY
 70
     0
  0
ENDTAB
  0
TABLE
  2
DIMSTYLE
 70
     1
  0
DIMSTYLE
  2
STANDARD
 70
     0
  3

  4

  5

  6

  7

 40
1.0
 41
0.18
 42
0.0625
 43
0.38
 44
0.18
 45
0.0
 46
0.0
 47
0.0
 48
0.0
140
0.18
141
0.09
142
0.0
143
25.399999999999999
144
1.0
145
0.0
146
1.0
147
0.09
 71
     0
 72
     0
 73
     1
 74
     1
 75
     0
 76
     0
 77
     0
 78
     0
170
     0
171
     2
172
     0
173
     0
174
     0
175
     0
176
     0
177
     0
178
     0
  0
ENDTAB
  0
ENDSEC
  0
SECTION
  2
BLOCKS
  0
BLOCK
  8
0
  2
$MODEL_SPACE
 70
     0
 10
0.0
 20
0.0
 30
0.0
  3
$MODEL_SPACE
  1

  0
ENDBLK
  5
153
  8
0
  0
BLOCK
 67
     1
  8
0
  2
$PAPER_SPACE
 70
     0
 10
0.0
 20
0.0
 30
0.0
  3
$PAPER_SPACE
  1

  0
ENDBLK
  5
151
 67
     1
  8
0
  0
ENDSEC
  0
SECTION
  2
ENTITIES
  0
CIRCLE
  5
40
  8
0
 10
78.607547259338531
 20
96.99109042480616
 30
0.0
 40
2.0669999999999988
  0
CIRCLE
  5
41
  8
3
 10
78.607547259338531
 20
96.99109042480616
 30
0.0
 40
2.5
  0
CIRCLE
  5
42
  8
0
 10
78.607547259338531
 20
96.99109042480616
 30
0.0
 40
5.6905989232415726
  0
LINE
  5
43
  8
1
 10
78.607547259338531
 20
83.991090424806146
 30
0.0
 11
78.607547259338546
 21
109.9910904248061
 31
0.0
  0
LINE
  5
44
  8
1
 10
65.607547259338531
 20
96.99109042480616
 30
0.0
 11
91.607547259338546
 21
96.991090424806146
 31
0.0
  0
LINE
  5
45
  8
0
 10
86.105279342846316
 20
99.781074941598291
 30
0.0
 11
78.607547259338546
 21
104.1098925783231
 31
0.0
  0
LINE
  5
46
  8
0
 10
86.105279342846046
 20
94.201105908013915
 30
0.0
 11
78.607547259338546
 21
89.872288271289136
 31
0.0
  0
ARC
  5
47
  8
0
 10
78.607547259338531
 20
96.99109042480616
 30
0.0
 40
8.0
 50
339.58923973843969
 51
20.410760261559499
  0
ARC
  5
48
  8
0
 10
78.607547259338531
 20
96.99109042480616
 30
0.0
 40
8.0
 50
159.5892397384404
 51
200.41076026156031
  0
LINE
  5
49
  8
0
 10
71.109815175830761
 20
99.781074941598291
 30
0.0
 11
78.607547259338531
 21
104.1098925783231
 31
0.0
  0
LINE
  5
4A
  8
0
 10
71.109815175831031
 20
94.201105908013915
 30
0.0
 11
78.607547259338531
 21
89.872288271289136
 31
0.0
  0
LINE
  5
4B
  8
0
 10
72.607547259337963
 20
35.672295460777349
 30
0.0
 11
84.60754725933856
 21
35.672295460777349
 31
0.0
  0
LINE
  5
4C
  8
2
 10
84.107547259338546
 20
52.772295460777492
 30
0.0
 11
84.107547259338546
 21
52.672295460777391
 31
0.0
  0
ARC
  5
4D
  8
2
 10
84.507547259338565
 20
52.772295460777492
 30
0.0
 40
0.4
 50
57.38789701872409
 51
180.0
  0
LINE
  5
4E
  8
2
 10
85.407547259338415
 20
52.672295460777498
 30
0.0
 11
84.723126751336522
 21
53.109230888760202
 31
0.0
  0
LINE
  5
4F
  8
2
 10
73.107547259338574
 20
52.772295460777499
 30
0.0
 11
73.107547259338574
 21
52.672295460777399
 31
0.0
  0
ARC
  5
50
  8
0
 10
75.403387801459331
 20
61.263976545018878
 30
0.0
 40
3.5
 50
23.726850121176991
 51
103.1430475246666
  0
ARC
  5
51
  8
0
 10
77.31455700517364
 20
55.879565609590387
 30
0.0
 40
9.1999999999999993
 50
107.1119814253135
 51
132.4097825333217
  0
LINE
  5
52
  8
3
 10
78.60754725933856
 20
52.672295460777342
 30
0.0
 11
71.109815175830974
 21
62.672295460777299
 31
0.0
  0
LINE
  5
53
  8
0
 10
71.109815175830974
 20
62.672295460777278
 30
0.0
 11
71.109815175830974
 21
52.672295460777327
 31
0.0
  0
LINE
  5
54
  8
3
 10
78.60754725933856
 20
62.672295460777597
 30
0.0
 11
71.109815175830974
 21
52.672295460777349
 31
0.0
  0
LINE
  5
55
  8
1
 10
78.60754725933856
 20
29.672295460777349
 30
0.0
 11
78.607547259338574
 21
71.672295460777335
 31
0.0
  0
LINE
  5
56
  8
0
 10
86.607547259338574
 20
53.172295460777342
 30
0.0
 11
86.607547259338574
 21
62.672295460777342
 31
0.0
  0
LINE
  5
57
  8
0
 10
84.29814618258014
 20
66.672295460777335
 30
0.0
 11
86.607547259338574
 21
62.672295460777342
 31
0.0
  0
LINE
  5
58
  8
0
 10
72.916948336096993
 20
66.672295460777335
 30
0.0
 11
70.60754725933856
 21
62.672295460777349
 31
0.0
  0
LINE
  5
59
  8
0
 10
70.60754725933856
 20
62.672295460777349
 30
0.0
 11
70.60754725933856
 21
53.172295460777349
 31
0.0
  0
LINE
  5
5A
  8
0
 10
72.916948336096993
 20
66.672295460777335
 30
0.0
 11
84.29814618258014
 21
66.672295460777335
 31
0.0
  0
LINE
  5
5B
  8
0
 10
73.1848975285276
 20
34.672295460777349
 30
0.0
 11
84.030196990149534
 21
34.672295460777349
 31
0.0
  0
LINE
  5
5C
  8
0
 10
72.60754725933856
 20
35.672295460777349
 30
0.0
 11
72.60754725933856
 21
51.472295460777516
 31
0.0
  0
LINE
  5
5D
  8
0
 10
84.60754725933856
 20
35.672295460777349
 30
0.0
 11
84.607547259338574
 21
51.472295460777509
 31
0.0
  0
LINE
  5
5E
  8
0
 10
84.607547259338574
 20
51.472295460777488
 30
0.0
 11
84.107547259338588
 21
52.338320864561943
 31
0.0
  0
LINE
  5
5F
  8
0
 10
84.107547259338588
 20
52.338320864561922
 30
0.0
 11
84.107547259338588
 21
52.672295460777512
 31
0.0
  0
LINE
  5
60
  8
0
 10
71.10754725933856
 20
52.67229546077742
 30
0.0
 11
86.107547259338574
 21
52.672295460777342
 31
0.0
  0
LINE
  5
61
  8
0
 10
73.10754725933856
 20
52.338320864561929
 30
0.0
 11
84.107547259338588
 21
52.338320864561922
 31
0.0
  0
LINE
  5
62
  8
0
 10
72.60754725933856
 20
51.472295460777502
 30
0.0
 11
84.607547259338574
 21
51.472295460777531
 31
0.0
  0
ARC
  5
63
  8
2
 10
72.707547259338568
 20
52.772295460777499
 30
0.0
 40
0.4
 50
360.0
 51
122.6121029812758
  0
LINE
  5
64
  8
2
 10
71.807547259338719
 20
52.672295460777498
 30
0.0
 11
72.491967767340611
 21
53.109230888760209
 31
0.0
  0
LINE
  5
65
  8
0
 10
73.10754725933856
 20
52.338320864561929
 30
0.0
 11
73.107547259338574
 21
52.672295460777399
 31
0.0
  0
LINE
  5
66
  8
0
 10
72.60754725933856
 20
51.472295460777502
 30
0.0
 11
73.10754725933856
 21
52.338320864561929
 31
0.0
  0
LINE
  5
67
  8
0
 10
86.107547259338574
 20
52.672295460777342
 30
0.0
 11
86.607547259338574
 21
53.172295460777342
 31
0.0
  0
LINE
  5
68
  8
0
 10
70.60754725933856
 20
53.172295460777349
 30
0.0
 11
71.10754725933856
 21
52.67229546077742
 31
0.0
  0
LINE
  5
69
  8
0
 10
84.030196990149534
 20
34.672295460777349
 30
0.0
 11
84.607547259339157
 21
35.672295460777349
 31
0.0
  0
LINE
  5
6A
  8
0
 10
73.1848975285276
 20
34.672295460777349
 30
0.0
 11
72.607547259337963
 21
35.672295460777349
 31
0.0
  0
LINE
  5
6B
  8
0
 10
78.60754725933856
 20
62.672295460777271
 30
0.0
 11
78.60754725933856
 21
52.67229546077732
 31
0.0
  0
ARC
  5
6C
  8
0
 10
81.811706717217803
 20
61.26397654501887
 30
0.0
 40
3.5
 50
76.856952475333387
 51
156.27314987882289
  0
LINE
  5
6D
  8
0
 10
86.105279342846174
 20
62.672295460777271
 30
0.0
 11
86.105279342846174
 21
52.67229546077732
 31
0.0
  0
ARC
  5
6E
  8
0
 10
79.900537513503494
 20
55.879565609590387
 30
0.0
 40
9.1999999999999993
 50
47.590217466678197
 51
72.888018574686413
  0
LINE
  5
6F
  8
3
 10
78.60754725933856
 20
52.672295460777342
 30
0.0
 11
86.105279342846174
 21
62.672295460777299
 31
0.0
  0
LINE
  5
70
  8
3
 10
78.60754725933856
 20
62.672295460777597
 30
0.0
 11
86.105279342846174
 21
52.672295460777342
 31
0.0
  0
LINE
  5
71
  8
0
 10
130.64016652853209
 20
66.67229546077732
 30
0.0
 11
132.06836975880751
 21
64.198574902406108
 31
0.0
  0
LINE
  5
72
  8
0
 10
119.2589686820489
 20
66.67229546077732
 30
0.0
 11
117.8307654517735
 21
64.198574902406165
 31
0.0
  0
LINE
  5
73
  8
0
 10
119.2589686820489
 20
66.67229546077732
 30
0.0
 11
130.64016652853209
 21
66.67229546077732
 31
0.0
  0
LINE
  5
74
  8
0
 10
127.7395521220832
 20
62.67229546077732
 30
0.0
 11
127.7395521220832
 21
52.672295460777377
 31
0.0
  0
LINE
  5
75
  8
0
 10
132.06836975880751
 20
64.198574902406108
 30
0.0
 11
132.06836975880751
 21
52.67229546077732
 31
0.0
  0
LINE
  5
76
  8
0
 10
122.1595830884978
 20
62.67229546077732
 30
0.0
 11
127.7395521220832
 21
62.67229546077732
 31
0.0
  0
ARC
  5
77
  8
0
 10
130.38017301830959
 20
61.931169017637231
 30
0.0
 40
2.7426532996916331
 50
91.911927601078972
 51
164.3224967598224
  0
ARC
  5
78
  8
0
 10
130.38045324273551
 20
61.437214175249792
 30
0.0
 40
3.2363830475867652
 50
58.564115553751883
 51
91.625129726449472
  0
LINE
  5
79
  8
3
 10
127.7395521220832
 20
62.67229546078358
 30
0.0
 11
132.06836975880739
 21
52.67229546077732
 31
0.0
  0
LINE
  5
7A
  8
3
 10
127.7395521220832
 20
52.67229546077732
 30
0.0
 11
132.06836975880771
 21
64.198574902405824
 31
0.0
  0
LINE
  5
7B
  8
3
 10
122.1595830884978
 20
52.672295460777377
 30
0.0
 11
117.8307654517735
 21
64.198574902406108
 31
0.0
  0
LINE
  5
7C
  8
3
 10
122.15958308849859
 20
62.67229546077732
 30
0.0
 11
117.8307654517736
 21
52.672295460777441
 31
0.0
  0
ARC
  5
7D
  8
0
 10
119.5186819678455
 20
61.437214175249792
 30
0.0
 40
3.2363830475867652
 50
88.374870273550499
 51
121.435884446248
  0
ARC
  5
7E
  8
0
 10
119.5189621922714
 20
61.931169017637231
 30
0.0
 40
2.7426532996916331
 50
15.677503240177529
 51
88.088072398921014
  0
LINE
  5
7F
  8
0
 10
117.8307654517735
 20
64.198574902406108
 30
0.0
 11
117.8307654517735
 21
52.672295460777377
 31
0.0
  0
LINE
  5
80
  8
0
 10
122.1595830884978
 20
62.67229546077732
 30
0.0
 11
122.1595830884978
 21
52.672295460777377
 31
0.0
  0
LINE
  5
81
  8
0
 10
119.52691787447959
 20
34.67229546077732
 30
0.0
 11
118.9495676052899
 21
35.672295460777299
 31
0.0
  0
LINE
  5
82
  8
0
 10
130.37221733610139
 20
34.672295460777313
 30
0.0
 11
130.94956760529101
 21
35.672295460777292
 31
0.0
  0
LINE
  5
83
  8
0
 10
118.9495676052905
 20
51.472295460777453
 30
0.0
 11
119.4495676052905
 21
52.338320864561872
 31
0.0
  0
LINE
  5
84
  8
0
 10
119.4495676052905
 20
52.338320864561872
 30
0.0
 11
119.4495676052905
 21
52.672295460777377
 31
0.0
  0
LINE
  5
85
  8
2
 10
118.1495676052907
 20
52.672295460777441
 30
0.0
 11
118.83398811329251
 21
53.109230888760187
 31
0.0
  0
ARC
  5
86
  8
2
 10
119.04956760529051
 20
52.772295460777457
 30
0.0
 40
0.4
 50
360.0
 51
122.6121029812758
  0
LINE
  5
87
  8
0
 10
118.9495676052905
 20
51.472295460777453
 30
0.0
 11
130.9495676052905
 21
51.472295460777509
 31
0.0
  0
LINE
  5
88
  8
0
 10
119.4495676052905
 20
52.338320864561872
 30
0.0
 11
130.4495676052905
 21
52.338320864561872
 31
0.0
  0
LINE
  5
89
  8
0
 10
117.8307654517736
 20
52.672295460777377
 30
0.0
 11
132.06836975880751
 21
52.67229546077732
 31
0.0
  0
LINE
  5
8A
  8
0
 10
130.4495676052905
 20
52.338320864561872
 30
0.0
 11
130.4495676052905
 21
52.672295460777441
 31
0.0
  0
LINE
  5
8B
  8
0
 10
130.9495676052905
 20
51.472295460777453
 30
0.0
 11
130.4495676052905
 21
52.338320864561922
 31
0.0
  0
LINE
  5
8C
  8
0
 10
130.9495676052905
 20
35.672295460777292
 30
0.0
 11
130.9495676052905
 21
51.472295460777453
 31
0.0
  0
LINE
  5
8D
  8
0
 10
118.9495676052905
 20
35.672295460777299
 30
0.0
 11
118.9495676052905
 21
51.472295460777453
 31
0.0
  0
LINE
  5
8E
  8
0
 10
119.52691787447959
 20
34.67229546077732
 30
0.0
 11
130.37221733610139
 21
34.672295460777313
 31
0.0
  0
LINE
  5
8F
  8
1
 10
124.9495676052905
 20
29.67229546077731
 30
0.0
 11
124.9495676052905
 21
71.67229546077732
 31
0.0
  0
LINE
  5
90
  8
2
 10
119.4495676052905
 20
52.772295460777457
 30
0.0
 11
119.4495676052905
 21
52.672295460777377
 31
0.0
  0
LINE
  5
91
  8
2
 10
131.74956760529031
 20
52.672295460777427
 30
0.0
 11
131.06514709728839
 21
53.109230888760187
 31
0.0
  0
ARC
  5
92
  8
2
 10
130.8495676052905
 20
52.772295460777457
 30
0.0
 40
0.4
 50
57.38789701872409
 51
180.0
  0
LINE
  5
93
  8
2
 10
130.4495676052905
 20
52.772295460777457
 30
0.0
 11
130.4495676052905
 21
52.672295460777377
 31
0.0
  0
LINE
  5
94
  8
0
 10
118.9495676052899
 20
35.672295460777299
 30
0.0
 11
130.9495676052905
 21
35.672295460777292
 31
0.0
  0
TEXT
  5
20E
  8
0
 62
     3
 10
0.0
 20
0.0
 30
0.0
 40
5.0
  1
BJ723-16021
  7
STANDARD1
  0
ENDSEC
  0
EOF
