  0
SECTION
  2
HEADER
  9
$ACADVER
  1
AC1009
  9
$INSBASE
 10
0.0
 20
0.0
 30
0.0
  9
$EXTMIN
 10
0.0
 20
-1.4802182810368341
 30
0.0
  9
$EXTMAX
 10
144.90422015552531
 20
117.6790075698047
 30
0.0
  9
$LIMMIN
 10
0.0
 20
0.0
  9
$LIMMAX
 10
187.5
 20
135.0
  9
$ORTHOMODE
 70
     1
  9
$REGENMODE
 70
     1
  9
$FILLMODE
 70
     1
  9
$QTEXTMODE
 70
     0
  9
$MIRRTEXT
 70
     0
  9
$DRAGMODE
 70
     2
  9
$LTSCALE
 40
5.0
  9
$OSMODE
 70
  3071
  9
$ATTMODE
 70
     1
  9
$TEXTSIZE
 40
0.2
  9
$TRACEWID
 40
0.05
  9
$TEXTSTYLE
  7
STANDARD
  9
$CLAYER
  8
0
  9
$CELTYPE
  6
BYLAYER
  9
$CECOLOR
 62
   256
  9
$DIMSCALE
 40
0.5
  9
$DIMASZ
 40
3.0
  9
$DIMEXO
 40
2.0
  9
$DIMDLI
 40
0.38
  9
$DIMRND
 40
0.0
  9
$DIMDLE
 40
0.0
  9
$DIMEXE
 40
2.0
  9
$DIMTP
 40
0.0
  9
$DIMTM
 40
0.0
  9
$DIMTXT
 40
3.2000000000000002
  9
$DIMCEN
 40
0.0
  9
$DIMTSZ
 40
0.0
  9
$DIMTOL
 70
     0
  9
$DIMLIM
 70
     0
  9
$DIMTIH
 70
     0
  9
$DIMTOH
 70
     0
  9
$DIMSE1
 70
     0
  9
$DIMSE2
 70
     0
  9
$DIMTAD
 70
     1
  9
$DIMZIN
 70
     0
  9
$DIMBLK
  1

  9
$DIMASO
 70
     0
  9
$DIMSHO
 70
     0
  9
$DIMPOST
  1

  9
$DIMAPOST
  1

  9
$DIMALT
 70
     0
  9
$DIMALTD
 70
     2
  9
$DIMALTF
 40
25.399999999999999
  9
$DIMLFAC
 40
1.0
  9
$DIMTOFL
 70
     1
  9
$DIMTVP
 40
1.6000000000000001
  9
$DIMTIX
 70
     1
  9
$DIMSOXD
 70
     0
  9
$DIMSAH
 70
     0
  9
$DIMBLK1
  1

  9
$DIMBLK2
  1

  9
$DIMSTYLE
  2
STANDARD
  9
$DIMCLRD
 70
     0
  9
$DIMCLRE
 70
     0
  9
$DIMCLRT
 70
     0
  9
$DIMTFAC
 40
1.0
  9
$DIMGAP
 40
0.09
  9
$LUNITS
 70
     2
  9
$LUPREC
 70
     4
  9
$SKETCHINC
 40
0.1
  9
$FILLETRAD
 40
0.0
  9
$AUNITS
 70
     0
  9
$AUPREC
 70
     4
  9
$MENU
  1
E:\r13\win\SUPPORT\ACAD
  9
$ELEVATION
 40
0.0
  9
$PELEVATION
 40
0.0
  9
$THICKNESS
 40
0.0
  9
$LIMCHECK
 70
     0
  9
$BLIPMODE
 70
     0
  9
$CHAMFERA
 40
0.0
  9
$CHAMFERB
 40
0.0
  9
$SKPOLY
 70
     0
  9
$TDCREATE
 40
2449839.7679976858
  9
$TDUPDATE
 40
2456597.6903766668
  9
$TDINDWG
 40
0.0003481597
  9
$TDUSRTIMER
 40
0.0003481597
  9
$USRTIMER
 70
     1
  9
$ANGBASE
 50
0.0
  9
$ANGDIR
 70
     0
  9
$PDMODE
 70
     0
  9
$PDSIZE
 40
0.0
  9
$PLINEWID
 40
0.0
  9
$COORDS
 70
     1
  9
$SPLFRAME
 70
     0
  9
$SPLINETYPE
 70
     6
  9
$SPLINESEGS
 70
     8
  9
$ATTDIA
 70
     0
  9
$ATTREQ
 70
     1
  9
$HANDLING
 70
     1
  9
$HANDSEED
  5
29F
  9
$SURFTAB1
 70
     6
  9
$SURFTAB2
 70
     6
  9
$SURFTYPE
 70
     6
  9
$SURFU
 70
     6
  9
$SURFV
 70
     6
  9
$UCSNAME
  2

  9
$UCSORG
 10
0.0
 20
0.0
 30
0.0
  9
$UCSXDIR
 10
1.0
 20
0.0
 30
0.0
  9
$UCSYDIR
 10
0.0
 20
1.0
 30
0.0
  9
$PUCSNAME
  2

  9
$PUCSORG
 10
0.0
 20
0.0
 30
0.0
  9
$PUCSXDIR
 10
1.0
 20
0.0
 30
0.0
  9
$PUCSYDIR
 10
0.0
 20
1.0
 30
0.0
  9
$USERI1
 70
     0
  9
$USERI2
 70
     1
  9
$USERI3
 70
     0
  9
$USERI4
 70
     0
  9
$USERI5
 70
     0
  9
$USERR1
 40
0.0
  9
$USERR2
 40
0.0
  9
$USERR3
 40
0.0
  9
$USERR4
 40
0.0
  9
$USERR5
 40
0.0
  9
$WORLDVIEW
 70
     1
  9
$SHADEDGE
 70
     3
  9
$SHADEDIF
 70
    70
  9
$TILEMODE
 70
     1
  9
$MAXACTVP
 70
    16
  9
$PLIMCHECK
 70
     0
  9
$PEXTMIN
 10
1.0000000000000000E+020
 20
1.0000000000000000E+020
 30
1.0000000000000000E+020
  9
$PEXTMAX
 10
-1.0000000000000000E+020
 20
-1.0000000000000000E+020
 30
-1.0000000000000000E+020
  9
$PLIMMIN
 10
0.0
 20
0.0
  9
$PLIMMAX
 10
12.0
 20
9.0
  9
$UNITMODE
 70
     0
  9
$VISRETAIN
 70
     0
  9
$PLINEGEN
 70
     0
  9
$PSLTSCALE
 70
     0
  0
ENDSEC
  0
SECTION
  2
TABLES
  0
TABLE
  2
VPORT
 70
     1
  0
VPORT
  2
*ACTIVE
 70
     0
 10
0.0
 20
0.0
 11
1.0
 21
1.0
 12
97.52905416604365
 22
66.75636307133405
 13
0.0
 23
0.0
 14
5.0
 24
5.0
 15
5.0
 25
5.0
 16
0.0
 26
0.0
 36
1.0
 17
0.0
 27
0.0
 37
0.0
 40
137.71137496815999
 41
1.831871345029239
 42
50.0
 43
0.0
 44
0.0
 50
0.0
 51
0.0
 71
     0
 72
   500
 73
     1
 74
     0
 75
     0
 76
     0
 77
     0
 78
     2
  0
ENDTAB
  0
TABLE
  2
LTYPE
 70
     4
  0
LTYPE
  2
CONTINUOUS
 70
     0
  3
Solid Line
 72
    65
 73
     0
 40
0.0
  0
LTYPE
  2
CENTER
 70
     0
  3
____ _ ____ _ ____ _ ____ _ ____ _ ____ _ ____
 72
    65
 73
     4
 40
2.0
 49
1.25
 49
-0.25
 49
0.25
 49
-0.25
  0
LTYPE
  2
HIDDEN
 70
     0
  3
_ _ _ _ _ _ _ _ _ _ _ _ _ _ _ _ _ _ _ _ _ _ _
 72
    65
 73
     2
 40
0.375
 49
0.25
 49
-0.125
  0
LTYPE
  2
PHANTOM2
 70
     0
  3
___ _ _ ___ _ _ ___ _ _ ___ _ _
 72
    65
 73
     6
 40
1.25
 49
0.625
 49
-0.125
 49
0.125
 49
-0.125
 49
0.125
 49
-0.125
  0
ENDTAB
  0
TABLE
  2
LAYER
 70
     4
  0
LAYER
  2
0
 70
     0
 62
     7
  6
CONTINUOUS
  0
LAYER
  2
1
 70
     0
 62
     1
  6
CENTER
  0
LAYER
  2
2
 70
     0
 62
     2
  6
HIDDEN
  0
LAYER
  2
3
 70
     0
 62
     3
  6
CONTINUOUS
  0
ENDTAB
  0
TABLE
  2
STYLE
 70
     2
  0
STYLE
  2
STANDARD
 70
     0
 40
0.0
 41
1.0
 50
0.0
 71
     0
 42
0.2
  3
TXT
  4
BIGFONT
  0
STYLE
  2
STANDARD1
 70
     0
 40
0.0
 41
1.0
 50
0.0
 71
     0
 42
3.0
  3
txt
  4

  0
ENDTAB
  0
TABLE
  2
VIEW
 70
     1
  0
VIEW
  2
ALL
 70
     0
 40
135.0
 10
110.4957983193277
 20
67.5
 41
0.0
 11
0.0
 21
0.0
 31
1.0
 12
0.0
 22
0.0
 32
0.0
 42
0.0
 43
0.0
 44
0.0
 50
0.0
 71
     0
  0
ENDTAB
  0
TABLE
  2
UCS
 70
     0
  0
ENDTAB
  0
TABLE
  2
APPID
 70
     3
  0
APPID
  2
ACAD
 70
     0
  0
APPID
  2
ACAD_MLEADERVER
 70
     0
  0
APPID
  2
ACAD_NAV_VCDISPLAY
 70
     0
  0
ENDTAB
  0
TABLE
  2
DIMSTYLE
 70
     1
  0
DIMSTYLE
  2
STANDARD
 70
     0
  3

  4

  5

  6

  7

 40
1.0
 41
0.18
 42
0.0625
 43
0.38
 44
0.18
 45
0.0
 46
0.0
 47
0.0
 48
0.0
140
0.18
141
0.09
142
0.0
143
25.399999999999999
144
1.0
145
0.0
146
1.0
147
0.09
 71
     0
 72
     0
 73
     1
 74
     1
 75
     0
 76
     0
 77
     0
 78
     0
170
     0
171
     2
172
     0
173
     0
174
     0
175
     0
176
     0
177
     0
178
     0
  0
ENDTAB
  0
ENDSEC
  0
SECTION
  2
BLOCKS
  0
BLOCK
  8
0
  2
$MODEL_SPACE
 70
     0
 10
0.0
 20
0.0
 30
0.0
  3
$MODEL_SPACE
  1

  0
ENDBLK
  5
153
  8
0
  0
BLOCK
 67
     1
  8
0
  2
$PAPER_SPACE
 70
     0
 10
0.0
 20
0.0
 30
0.0
  3
$PAPER_SPACE
  1

  0
ENDBLK
  5
151
 67
     1
  8
0
  0
ENDSEC
  0
SECTION
  2
ENTITIES
  0
LINE
  5
40
  8
0
 10
77.456435627358744
 20
112.19980485920109
 30
0.0
 11
87.884762434665788
 21
106.17900756980499
 31
0.0
  0
LINE
  5
41
  8
0
 10
77.456435627358729
 20
93.158210280408426
 30
0.0
 11
87.884762434665774
 21
99.179007569804526
 31
0.0
  0
LINE
  5
42
  8
0
 10
77.456435627358744
 20
112.19980485920109
 30
0.0
 11
67.028108820051699
 21
106.17900756980499
 31
0.0
  0
LINE
  5
43
  8
0
 10
77.456435627358729
 20
93.158210280408426
 30
0.0
 11
67.028108820051685
 21
99.179007569804526
 31
0.0
  0
ARC
  5
44
  8
0
 10
77.456435627358729
 20
102.6790075698047
 30
0.0
 40
11.0
 50
341.44699546497998
 51
18.553004535022652
  0
ARC
  5
45
  8
0
 10
77.456435627358729
 20
102.6790075698047
 30
0.0
 40
11.0
 50
161.44699546497731
 51
198.55300453501991
  0
LINE
  5
46
  8
1
 10
62.456435627358722
 20
102.6790075698048
 30
0.0
 11
92.456435627358729
 21
102.6790075698047
 31
0.0
  0
LINE
  5
47
  8
1
 10
77.456435627358729
 20
87.679007569804767
 30
0.0
 11
77.456435627358744
 21
117.6790075698047
 31
0.0
  0
CIRCLE
  5
48
  8
0
 10
77.456435627358729
 20
102.6790075698047
 30
0.0
 40
8.1132486540447246
  0
CIRCLE
  5
49
  8
3
 10
77.456435627358729
 20
102.6790075698047
 30
0.0
 40
2.5
  0
CIRCLE
  5
4A
  8
0
 10
77.456435627358729
 20
102.6790075698047
 30
0.0
 40
2.0
  0
LINE
  5
4B
  8
2
 10
84.956435627358729
 20
52.779007569804932
 30
0.0
 11
84.956435627358729
 21
52.679007569804789
 31
0.0
  0
ARC
  5
4C
  8
2
 10
85.356435627358721
 20
52.779007569804932
 30
0.0
 40
0.4
 50
57.38789701872409
 51
180.0
  0
LINE
  5
4D
  8
2
 10
86.256435627358584
 20
52.679007569804916
 30
0.0
 11
85.572015119356692
 21
53.115942997787627
 31
0.0
  0
LINE
  5
4E
  8
2
 10
69.956435627358744
 20
52.779007569804932
 30
0.0
 11
69.956435627358729
 21
52.679007569804789
 31
0.0
  0
ARC
  5
4F
  8
0
 10
72.857466232836686
 20
62.71699826599157
 30
0.0
 40
5.0
 50
23.104032981143451
 51
97.067513127473958
  0
ARC
  5
50
  8
0
 10
77.472179343000235
 20
52.55789413449363
 30
0.0
 40
16.0
 50
109.0788581237907
 51
130.74959576759349
  0
LINE
  5
51
  8
3
 10
67.028108820051841
 20
64.679007569804739
 30
0.0
 11
77.456435627358729
 21
52.67900756980476
 31
0.0
  0
LINE
  5
52
  8
0
 10
67.028108820051841
 20
64.679007569804753
 30
0.0
 11
67.028108820051841
 21
52.67900756980476
 31
0.0
  0
LINE
  5
53
  8
3
 10
67.028108820051841
 20
52.67900756980476
 30
0.0
 11
77.456435627358729
 21
64.679007569804654
 31
0.0
  0
LINE
  5
54
  8
1
 10
77.456435627358729
 20
25.679007569804781
 30
0.0
 11
77.456435627358744
 21
72.679007569804767
 31
0.0
  0
LINE
  5
55
  8
0
 10
87.956435627358729
 20
52.679007569804753
 30
0.0
 11
66.956435627358729
 21
52.679007569804803
 31
0.0
  0
LINE
  5
56
  8
0
 10
66.456435627358729
 20
53.17900756980476
 30
0.0
 11
66.456435627358729
 21
64.679007569804753
 31
0.0
  0
LINE
  5
57
  8
0
 10
85.569684281403468
 20
69.679007569804753
 30
0.0
 11
88.456435627358715
 21
64.679007569804753
 31
0.0
  0
LINE
  5
58
  8
0
 10
69.343186973314019
 20
69.679007569804753
 30
0.0
 11
66.456435627358729
 21
64.679007569804753
 31
0.0
  0
LINE
  5
59
  8
0
 10
88.456435627358715
 20
64.679007569804753
 30
0.0
 11
88.456435627358715
 21
53.179007569804753
 31
0.0
  0
LINE
  5
5A
  8
0
 10
70.033785896548451
 20
30.679007569804781
 30
0.0
 11
84.879085358168993
 21
30.679007569804771
 31
0.0
  0
LINE
  5
5B
  8
0
 10
69.456435627358729
 20
31.679007569804781
 30
0.0
 11
69.456435627358729
 21
51.479007569804942
 31
0.0
  0
LINE
  5
5C
  8
0
 10
84.956435627358744
 20
52.345032973589362
 30
0.0
 11
84.956435627358744
 21
52.679007569804931
 31
0.0
  0
LINE
  5
5D
  8
0
 10
85.456435627358729
 20
51.479007569804921
 30
0.0
 11
84.956435627358744
 21
52.345032973589362
 31
0.0
  0
LINE
  5
5E
  8
0
 10
85.456435627358729
 20
31.679007569804771
 30
0.0
 11
85.456435627358729
 21
51.479007569804942
 31
0.0
  0
LINE
  5
5F
  8
0
 10
69.956435627358729
 20
52.345032973589362
 30
0.0
 11
84.956435627358744
 21
52.345032973589362
 31
0.0
  0
LINE
  5
60
  8
0
 10
69.456435627358729
 20
51.479007569804928
 30
0.0
 11
85.456435627358729
 21
51.479007569804921
 31
0.0
  0
ARC
  5
61
  8
2
 10
69.556435627358738
 20
52.779007569804932
 30
0.0
 40
0.4
 50
360.0
 51
122.6121029812758
  0
LINE
  5
62
  8
2
 10
68.656435627358888
 20
52.679007569804931
 30
0.0
 11
69.340856135360781
 21
53.115942997787627
 31
0.0
  0
LINE
  5
63
  8
0
 10
69.956435627358729
 20
52.345032973589362
 30
0.0
 11
69.956435627358729
 21
52.679007569804789
 31
0.0
  0
LINE
  5
64
  8
0
 10
69.456435627358729
 20
51.479007569804928
 30
0.0
 11
69.956435627358729
 21
52.345032973589362
 31
0.0
  0
LINE
  5
65
  8
0
 10
87.956435627358729
 20
52.679007569804753
 30
0.0
 11
88.456435627358715
 21
53.179007569804753
 31
0.0
  0
LINE
  5
66
  8
0
 10
66.956435627358729
 20
52.679007569804803
 30
0.0
 11
66.456435627358729
 21
53.17900756980476
 31
0.0
  0
LINE
  5
67
  8
0
 10
69.456435627358729
 20
31.679007569804781
 30
0.0
 11
85.456435627358729
 21
31.679007569804771
 31
0.0
  0
LINE
  5
68
  8
0
 10
85.456435627358729
 20
31.679007569804771
 30
0.0
 11
84.879085358168993
 21
30.679007569804771
 31
0.0
  0
LINE
  5
69
  8
0
 10
69.456435627358729
 20
31.679007569804781
 30
0.0
 11
70.033785896548451
 21
30.679007569804781
 31
0.0
  0
LINE
  5
6A
  8
0
 10
69.343186973314019
 20
69.679007569804753
 30
0.0
 11
85.569684281403468
 21
69.679007569804753
 31
0.0
  0
ARC
  5
6B
  8
0
 10
77.440691911717209
 20
52.55789413449363
 30
0.0
 40
16.0
 50
49.250404232406439
 51
70.92114187620929
  0
ARC
  5
6C
  8
0
 10
82.055405021880759
 20
62.71699826599157
 30
0.0
 40
5.0
 50
82.932486872526027
 51
156.89596701885651
  0
LINE
  5
6D
  8
0
 10
87.884762434665603
 20
64.679007569804753
 30
0.0
 11
87.884762434665603
 21
52.679007569804753
 31
0.0
  0
LINE
  5
6E
  8
3
 10
87.884762434665603
 20
52.679007569804753
 30
0.0
 11
77.456435627358729
 21
64.679007569804654
 31
0.0
  0
LINE
  5
6F
  8
3
 10
87.884762434665603
 20
64.679007569804739
 30
0.0
 11
77.456435627358729
 21
52.67900756980476
 31
0.0
  0
LINE
  5
70
  8
0
 10
77.456435627358729
 20
52.67900756980476
 30
0.0
 11
77.456435627358729
 21
64.679007569804654
 31
0.0
  0
LINE
  5
71
  8
2
 10
142.88342286612891
 20
52.779007569804889
 30
0.0
 11
142.88342286612891
 21
52.67900756980476
 31
0.0
  0
ARC
  5
72
  8
2
 10
143.28342286612889
 20
52.779007569804889
 30
0.0
 40
0.4
 50
57.38789701872409
 51
180.0
  0
LINE
  5
73
  8
2
 10
144.18342286612881
 20
52.679007569804902
 30
0.0
 11
143.49900235812689
 21
53.115942997787592
 31
0.0
  0
LINE
  5
74
  8
2
 10
127.8834228661289
 20
52.779007569804897
 30
0.0
 11
127.8834228661289
 21
52.679007569804767
 31
0.0
  0
LINE
  5
75
  8
3
 10
125.8626255767326
 20
67.241061819249396
 30
0.0
 11
131.88342286612649
 21
52.679007569804767
 31
0.0
  0
LINE
  5
76
  8
3
 10
125.8626255767325
 20
52.679007569804767
 30
0.0
 11
131.88342286612649
 21
64.679007569804739
 31
0.0
  0
LINE
  5
77
  8
1
 10
135.38342286612891
 20
25.679007569804739
 30
0.0
 11
135.38342286612891
 21
72.679007569804725
 31
0.0
  0
LINE
  5
78
  8
0
 10
144.90422015552531
 20
52.679007569804732
 30
0.0
 11
125.8626255767325
 21
52.679007569804767
 31
0.0
  0
LINE
  5
79
  8
0
 10
143.49667152017369
 20
69.679007569804739
 30
0.0
 11
144.90422015552531
 21
67.241061819257638
 31
0.0
  0
LINE
  5
7A
  8
0
 10
127.2701742120842
 20
69.679007569804739
 30
0.0
 11
125.8626255767326
 21
67.241061819257524
 31
0.0
  0
LINE
  5
7B
  8
0
 10
127.9607731353186
 20
30.679007569804739
 30
0.0
 11
142.8060725969392
 21
30.679007569804739
 31
0.0
  0
LINE
  5
7C
  8
0
 10
127.3834228661289
 20
31.679007569804739
 30
0.0
 11
127.3834228661289
 21
51.479007569804921
 31
0.0
  0
LINE
  5
7D
  8
0
 10
142.88342286612891
 20
52.34503297358934
 30
0.0
 11
142.88342286612891
 21
52.679007569804902
 31
0.0
  0
LINE
  5
7E
  8
0
 10
143.38342286612891
 20
51.479007569804878
 30
0.0
 11
142.88342286612891
 21
52.34503297358934
 31
0.0
  0
LINE
  5
7F
  8
0
 10
143.38342286612891
 20
31.679007569804739
 30
0.0
 11
143.38342286612891
 21
51.479007569804907
 31
0.0
  0
LINE
  5
80
  8
0
 10
127.8834228661289
 20
52.34503297358934
 30
0.0
 11
142.88342286612891
 21
52.34503297358934
 31
0.0
  0
LINE
  5
81
  8
0
 10
127.3834228661289
 20
51.479007569804892
 30
0.0
 11
143.38342286612891
 21
51.479007569804878
 31
0.0
  0
ARC
  5
82
  8
2
 10
127.4834228661289
 20
52.779007569804897
 30
0.0
 40
0.4
 50
360.0
 51
122.6121029812758
  0
LINE
  5
83
  8
2
 10
126.5834228661291
 20
52.679007569804909
 30
0.0
 11
127.267843374131
 21
53.115942997787599
 31
0.0
  0
LINE
  5
84
  8
0
 10
127.8834228661289
 20
52.34503297358934
 30
0.0
 11
127.8834228661289
 21
52.679007569804767
 31
0.0
  0
LINE
  5
85
  8
0
 10
127.3834228661289
 20
51.479007569804892
 30
0.0
 11
127.8834228661289
 21
52.34503297358934
 31
0.0
  0
LINE
  5
86
  8
0
 10
127.3834228661289
 20
31.679007569804739
 30
0.0
 11
143.38342286612891
 21
31.679007569804739
 31
0.0
  0
LINE
  5
87
  8
0
 10
143.38342286612891
 20
31.679007569804739
 30
0.0
 11
142.8060725969392
 21
30.679007569804739
 31
0.0
  0
LINE
  5
88
  8
0
 10
127.3834228661289
 20
31.679007569804739
 30
0.0
 11
127.9607731353186
 21
30.679007569804739
 31
0.0
  0
LINE
  5
89
  8
0
 10
127.2701742120842
 20
69.679007569804739
 30
0.0
 11
143.49667152017369
 21
69.679007569804739
 31
0.0
  0
LINE
  5
8A
  8
0
 10
125.8626255767327
 20
67.241061819257609
 30
0.0
 11
125.8626255767326
 21
52.679007569804767
 31
0.0
  0
LINE
  5
8B
  8
0
 10
131.88342286612649
 20
64.679007569804739
 30
0.0
 11
131.88342286612649
 21
52.679007569804767
 31
0.0
  0
LINE
  5
8C
  8
0
 10
131.88342286612661
 20
64.679007569804739
 30
0.0
 11
138.8834228661313
 21
64.679007569804739
 31
0.0
  0
ARC
  5
8D
  8
0
 10
128.1590025120139
 20
63.868294106216403
 30
0.0
 40
3.8116352519846131
 50
12.28029773089377
 51
88.739896165440655
  0
ARC
  5
8E
  8
0
 10
127.9703435091162
 20
62.4728544683203
 30
0.0
 40
5.2132788362042897
 50
87.003967926017694
 51
113.8471403900221
  0
LINE
  5
8F
  8
0
 10
138.8834228661313
 20
64.679007569804739
 30
0.0
 11
138.88342286613141
 21
52.679007569804767
 31
0.0
  0
LINE
  5
90
  8
0
 10
144.90422015552519
 20
67.241061819257609
 30
0.0
 11
144.90422015552531
 21
52.67900756980476
 31
0.0
  0
LINE
  5
91
  8
3
 10
144.90422015552531
 20
52.67900756980476
 30
0.0
 11
138.8834228661313
 21
64.679007569804739
 31
0.0
  0
LINE
  5
92
  8
3
 10
144.90422015552531
 20
67.241061819249396
 30
0.0
 11
138.88342286613141
 21
52.679007569804767
 31
0.0
  0
ARC
  5
93
  8
0
 10
142.7965022231416
 20
62.4728544683203
 30
0.0
 40
5.2132788362042897
 50
66.152859609977796
 51
92.996032073982335
  0
ARC
  5
94
  8
0
 10
142.60784322024401
 20
63.868294106216403
 30
0.0
 40
3.8116352519846131
 50
91.260103834559359
 51
167.71970226910619
  0
TEXT
  5
20E
  8
0
 62
     3
 10
0.0
 20
0.0
 30
0.0
 40
5.0
  1
BJ723-22021
  7
STANDARD1
  0
ENDSEC
  0
EOF
