  0
SECTION
  2
HEADER
  9
$ACADVER
  1
AC1009
  9
$INSBASE
 10
0.0
 20
0.0
 30
0.0
  9
$EXTMIN
 10
0.0
 20
-1.4802182810368341
 30
0.0
  9
$EXTMAX
 10
121.50000000000119
 20
111.5
 30
0.0
  9
$LIMMIN
 10
0.0
 20
0.0
  9
$LIMMAX
 10
187.5
 20
135.0
  9
$ORTHOMODE
 70
     1
  9
$REGENMODE
 70
     1
  9
$FILLMODE
 70
     1
  9
$QTEXTMODE
 70
     0
  9
$MIRRTEXT
 70
     0
  9
$DRAGMODE
 70
     2
  9
$LTSCALE
 40
5.0
  9
$OSMODE
 70
  3071
  9
$ATTMODE
 70
     1
  9
$TEXTSIZE
 40
0.2
  9
$TRACEWID
 40
0.05
  9
$TEXTSTYLE
  7
STANDARD
  9
$CLAYER
  8
0
  9
$CELTYPE
  6
BYLAYER
  9
$CECOLOR
 62
   256
  9
$DIMSCALE
 40
0.5
  9
$DIMASZ
 40
3.0
  9
$DIMEXO
 40
2.0
  9
$DIMDLI
 40
0.38
  9
$DIMRND
 40
0.0
  9
$DIMDLE
 40
0.0
  9
$DIMEXE
 40
2.0
  9
$DIMTP
 40
0.0
  9
$DIMTM
 40
0.0
  9
$DIMTXT
 40
3.2000000000000002
  9
$DIMCEN
 40
0.0
  9
$DIMTSZ
 40
0.0
  9
$DIMTOL
 70
     0
  9
$DIMLIM
 70
     0
  9
$DIMTIH
 70
     0
  9
$DIMTOH
 70
     0
  9
$DIMSE1
 70
     0
  9
$DIMSE2
 70
     0
  9
$DIMTAD
 70
     1
  9
$DIMZIN
 70
     0
  9
$DIMBLK
  1

  9
$DIMASO
 70
     0
  9
$DIMSHO
 70
     0
  9
$DIMPOST
  1

  9
$DIMAPOST
  1

  9
$DIMALT
 70
     0
  9
$DIMALTD
 70
     2
  9
$DIMALTF
 40
25.399999999999999
  9
$DIMLFAC
 40
1.0
  9
$DIMTOFL
 70
     1
  9
$DIMTVP
 40
1.6000000000000001
  9
$DIMTIX
 70
     1
  9
$DIMSOXD
 70
     0
  9
$DIMSAH
 70
     0
  9
$DIMBLK1
  1

  9
$DIMBLK2
  1

  9
$DIMSTYLE
  2
STANDARD
  9
$DIMCLRD
 70
     0
  9
$DIMCLRE
 70
     0
  9
$DIMCLRT
 70
     0
  9
$DIMTFAC
 40
1.0
  9
$DIMGAP
 40
0.09
  9
$LUNITS
 70
     2
  9
$LUPREC
 70
     4
  9
$SKETCHINC
 40
0.1
  9
$FILLETRAD
 40
0.0
  9
$AUNITS
 70
     0
  9
$AUPREC
 70
     4
  9
$MENU
  1
E:\r13\win\SUPPORT\ACAD
  9
$ELEVATION
 40
0.0
  9
$PELEVATION
 40
0.0
  9
$THICKNESS
 40
0.0
  9
$LIMCHECK
 70
     0
  9
$BLIPMODE
 70
     0
  9
$CHAMFERA
 40
0.0
  9
$CHAMFERB
 40
0.0
  9
$SKPOLY
 70
     0
  9
$TDCREATE
 40
2449839.768206019
  9
$TDUPDATE
 40
2456597.6907022111
  9
$TDINDWG
 40
0.0006165625
  9
$TDUSRTIMER
 40
0.0006165625
  9
$USRTIMER
 70
     1
  9
$ANGBASE
 50
0.0
  9
$ANGDIR
 70
     0
  9
$PDMODE
 70
     0
  9
$PDSIZE
 40
0.0
  9
$PLINEWID
 40
0.0
  9
$COORDS
 70
     1
  9
$SPLFRAME
 70
     0
  9
$SPLINETYPE
 70
     6
  9
$SPLINESEGS
 70
     8
  9
$ATTDIA
 70
     0
  9
$ATTREQ
 70
     1
  9
$HANDLING
 70
     1
  9
$HANDSEED
  5
289
  9
$SURFTAB1
 70
     6
  9
$SURFTAB2
 70
     6
  9
$SURFTYPE
 70
     6
  9
$SURFU
 70
     6
  9
$SURFV
 70
     6
  9
$UCSNAME
  2

  9
$UCSORG
 10
0.0
 20
0.0
 30
0.0
  9
$UCSXDIR
 10
1.0
 20
0.0
 30
0.0
  9
$UCSYDIR
 10
0.0
 20
1.0
 30
0.0
  9
$PUCSNAME
  2

  9
$PUCSORG
 10
0.0
 20
0.0
 30
0.0
  9
$PUCSXDIR
 10
1.0
 20
0.0
 30
0.0
  9
$PUCSYDIR
 10
0.0
 20
1.0
 30
0.0
  9
$USERI1
 70
     0
  9
$USERI2
 70
     1
  9
$USERI3
 70
     0
  9
$USERI4
 70
     0
  9
$USERI5
 70
     0
  9
$USERR1
 40
0.0
  9
$USERR2
 40
0.0
  9
$USERR3
 40
0.0
  9
$USERR4
 40
0.0
  9
$USERR5
 40
0.0
  9
$WORLDVIEW
 70
     1
  9
$SHADEDGE
 70
     3
  9
$SHADEDIF
 70
    70
  9
$TILEMODE
 70
     1
  9
$MAXACTVP
 70
    16
  9
$PLIMCHECK
 70
     0
  9
$PEXTMIN
 10
1.0000000000000000E+020
 20
1.0000000000000000E+020
 30
1.0000000000000000E+020
  9
$PEXTMAX
 10
-1.0000000000000000E+020
 20
-1.0000000000000000E+020
 30
-1.0000000000000000E+020
  9
$PLIMMIN
 10
0.0
 20
0.0
  9
$PLIMMAX
 10
12.0
 20
9.0
  9
$UNITMODE
 70
     0
  9
$VISRETAIN
 70
     0
  9
$PLINEGEN
 70
     0
  9
$PSLTSCALE
 70
     0
  0
ENDSEC
  0
SECTION
  2
TABLES
  0
TABLE
  2
VPORT
 70
     1
  0
VPORT
  2
*ACTIVE
 70
     0
 10
0.0
 20
0.0
 11
1.0
 21
1.0
 12
97.52905416604365
 22
66.75636307133405
 13
0.0
 23
0.0
 14
5.0
 24
5.0
 15
5.0
 25
5.0
 16
0.0
 26
0.0
 36
1.0
 17
0.0
 27
0.0
 37
0.0
 40
137.71137496815999
 41
1.831871345029239
 42
50.0
 43
0.0
 44
0.0
 50
0.0
 51
0.0
 71
     0
 72
   500
 73
     1
 74
     0
 75
     0
 76
     0
 77
     0
 78
     2
  0
ENDTAB
  0
TABLE
  2
LTYPE
 70
     3
  0
LTYPE
  2
CONTINUOUS
 70
     0
  3
Solid Line
 72
    65
 73
     0
 40
0.0
  0
LTYPE
  2
CENTER
 70
     0
  3
____ _ ____ _ ____ _ ____ _ ____ _ ____ _ ____
 72
    65
 73
     4
 40
2.0
 49
1.25
 49
-0.25
 49
0.25
 49
-0.25
  0
LTYPE
  2
PHANTOM2
 70
     0
  3
___ _ _ ___ _ _ ___ _ _ ___ _ _
 72
    65
 73
     6
 40
1.25
 49
0.625
 49
-0.125
 49
0.125
 49
-0.125
 49
0.125
 49
-0.125
  0
ENDTAB
  0
TABLE
  2
LAYER
 70
     3
  0
LAYER
  2
0
 70
     0
 62
     7
  6
CONTINUOUS
  0
LAYER
  2
1
 70
     0
 62
     1
  6
CENTER
  0
LAYER
  2
3
 70
     0
 62
     3
  6
CONTINUOUS
  0
ENDTAB
  0
TABLE
  2
STYLE
 70
     2
  0
STYLE
  2
STANDARD
 70
     0
 40
0.0
 41
1.0
 50
0.0
 71
     0
 42
0.2
  3
TXT
  4
BIGFONT
  0
STYLE
  2
STANDARD1
 70
     0
 40
0.0
 41
1.0
 50
0.0
 71
     0
 42
3.0
  3
txt
  4

  0
ENDTAB
  0
TABLE
  2
VIEW
 70
     1
  0
VIEW
  2
ALL
 70
     0
 40
135.0
 10
110.4957983193277
 20
67.5
 41
0.0
 11
0.0
 21
0.0
 31
1.0
 12
0.0
 22
0.0
 32
0.0
 42
0.0
 43
0.0
 44
0.0
 50
0.0
 71
     0
  0
ENDTAB
  0
TABLE
  2
UCS
 70
     0
  0
ENDTAB
  0
TABLE
  2
APPID
 70
     3
  0
APPID
  2
ACAD
 70
     0
  0
APPID
  2
ACAD_MLEADERVER
 70
     0
  0
APPID
  2
ACAD_NAV_VCDISPLAY
 70
     0
  0
ENDTAB
  0
TABLE
  2
DIMSTYLE
 70
     1
  0
DIMSTYLE
  2
STANDARD
 70
     0
  3

  4

  5

  6

  7

 40
1.0
 41
0.18
 42
0.0625
 43
0.38
 44
0.18
 45
0.0
 46
0.0
 47
0.0
 48
0.0
140
0.18
141
0.09
142
0.0
143
25.399999999999999
144
1.0
145
0.0
146
1.0
147
0.09
 71
     0
 72
     0
 73
     1
 74
     1
 75
     0
 76
     0
 77
     0
 78
     0
170
     0
171
     2
172
     0
173
     0
174
     0
175
     0
176
     0
177
     0
178
     0
  0
ENDTAB
  0
ENDSEC
  0
SECTION
  2
BLOCKS
  0
BLOCK
  8
0
  2
$MODEL_SPACE
 70
     0
 10
0.0
 20
0.0
 30
0.0
  3
$MODEL_SPACE
  1

  0
ENDBLK
  5
13D
  8
0
  0
BLOCK
 67
     1
  8
0
  2
$PAPER_SPACE
 70
     0
 10
0.0
 20
0.0
 30
0.0
  3
$PAPER_SPACE
  1

  0
ENDBLK
  5
13B
 67
     1
  8
0
  0
ENDSEC
  0
SECTION
  2
ENTITIES
  0
POLYLINE
  5
34
  8
0
 66
     1
 10
0.0
 20
0.0
 30
0.0
 70
     1
  0
VERTEX
  5
35
  8
0
 10
66.247223250267439
 20
106.5
 30
0.0
 50
360.0
  0
VERTEX
  5
36
  8
0
 10
62.49444650053487
 20
100.0
 30
0.0
 50
360.0
  0
VERTEX
  5
37
  8
0
 10
66.247223250267439
 20
93.499999999999986
 30
0.0
 50
360.0
  0
VERTEX
  5
38
  8
0
 10
73.752776749732561
 20
93.499999999999986
 30
0.0
 50
360.0
  0
VERTEX
  5
39
  8
0
 10
77.505553499465137
 20
100.0
 30
0.0
 50
360.0
  0
VERTEX
  5
3A
  8
0
 10
73.752776749732575
 20
106.4999999999999
 30
0.0
 50
360.0
  0
SEQEND
  5
3B
  8
0
  0
LINE
  5
3C
  8
1
 10
83.279056191361406
 20
100.0
 30
0.0
 11
56.720943808638602
 21
100.0
 31
0.0
  0
LINE
  5
3D
  8
1
 10
70.0
 20
88.499999999999986
 30
0.0
 11
70.0
 21
111.5
 31
0.0
  0
CIRCLE
  5
3E
  8
0
 10
70.0
 20
100.0
 30
0.0
 40
6.25
  0
LINE
  5
3F
  8
0
 10
77.505553499465123
 20
48.933902858553537
 30
0.0
 11
77.505553499465108
 21
43.844586461076183
 31
0.0
  0
LINE
  5
40
  8
0
 10
76.250000000000071
 20
43.119692310178031
 30
0.0
 11
63.75
 21
43.119692310178053
 31
0.0
  0
LINE
  5
41
  8
0
 10
62.494446500534863
 20
48.933902858553523
 30
0.0
 11
62.494446500534863
 21
43.844586461076233
 31
0.0
  0
LINE
  5
42
  8
0
 10
76.250000000000071
 20
53.619692310178017
 30
0.0
 11
63.749999999999929
 21
53.619692310178038
 31
0.0
  0
LINE
  5
43
  8
0
 10
73.752776749732504
 20
49.015015175439061
 30
0.0
 11
73.752776749732504
 21
43.119692310178031
 31
0.0
  0
LINE
  5
44
  8
0
 10
76.250000000000071
 20
53.619692310178031
 30
0.0
 11
77.505553499465137
 21
48.933902858553509
 31
0.0
  0
LINE
  5
45
  8
0
 10
63.749999999999929
 20
53.619692310178038
 30
0.0
 11
62.49444650053487
 21
48.933902858553523
 31
0.0
  0
ARC
  5
46
  8
0
 10
69.999999999999986
 20
52.119692310178017
 30
0.0
 40
6.0
 50
149.99999999999929
 51
165.5224878140699
  0
LINE
  5
47
  8
0
 10
64.803847577293524
 20
55.119692310178053
 30
0.0
 11
75.196152422706632
 21
55.119692310178038
 31
0.0
  0
ARC
  5
48
  8
0
 10
69.999999999999986
 20
52.119692310178017
 30
0.0
 40
6.0
 50
14.47751218593007
 51
30.000000000000671
  0
LINE
  5
49
  8
0
 10
73.249999999999844
 20
42.71969231017804
 30
0.0
 11
73.249999999999844
 21
41.019692310178051
 31
0.0
  0
LINE
  5
4A
  8
0
 10
65.999999999999986
 20
40.619692310178053
 30
0.0
 11
73.999999999999986
 21
40.619692310178038
 31
0.0
  0
LINE
  5
4B
  8
0
 10
73.999999999999986
 20
40.619692310178038
 30
0.0
 11
73.999999999999986
 21
35.319692310178041
 31
0.0
  0
LINE
  5
4C
  8
0
 10
72.799999999999983
 20
34.119692310178053
 30
0.0
 11
67.199999999999974
 21
34.119692310178081
 31
0.0
  0
LINE
  5
4D
  8
0
 10
65.999999999999986
 20
35.31969231017807
 30
0.0
 11
65.999999999999986
 21
40.619692310178053
 31
0.0
  0
LINE
  5
4E
  8
0
 10
73.999999999999986
 20
35.319692310178063
 30
0.0
 11
72.799999999999983
 21
34.119692310178053
 31
0.0
  0
ARC
  5
4F
  8
0
 10
73.649999999999849
 20
41.019692310178051
 30
0.0
 40
0.4
 50
180.0
 51
270.0
  0
ARC
  5
50
  8
0
 10
73.649999999999849
 20
42.71969231017804
 30
0.0
 40
0.4
 50
89.999999999999986
 51
180.0000000000002
  0
ARC
  5
51
  8
0
 10
66.350000000000122
 20
42.719692310178047
 30
0.0
 40
0.4
 50
359.99999999999977
 51
89.999999999999986
  0
ARC
  5
52
  8
0
 10
66.350000000000122
 20
41.019692310178058
 30
0.0
 40
0.4
 50
270.0
 51
360.0
  0
LINE
  5
53
  8
0
 10
65.999999999999986
 20
35.31969231017807
 30
0.0
 11
67.199999999999974
 21
34.119692310178053
 31
0.0
  0
LINE
  5
54
  8
0
 10
66.750000000000128
 20
42.71969231017804
 30
0.0
 11
66.750000000000128
 21
41.019692310178051
 31
0.0
  0
LINE
  5
55
  8
0
 10
73.999999999999986
 20
35.319692310178063
 30
0.0
 11
65.999999999999986
 21
35.31969231017807
 31
0.0
  0
LINE
  5
56
  8
3
 10
73.399999999999991
 20
40.619692310178038
 30
0.0
 11
73.399999999999991
 21
34.71969231017804
 31
0.0
  0
LINE
  5
57
  8
3
 10
66.59999999999998
 20
40.619692310178053
 30
0.0
 11
66.59999999999998
 21
34.719692310178047
 31
0.0
  0
LINE
  5
58
  8
0
 10
66.247223250267481
 20
48.933902858548898
 30
0.0
 11
66.247223250267481
 21
43.119692310178038
 31
0.0
  0
ARC
  5
59
  8
0
 10
77.077070408880573
 20
48.974459016993983
 30
0.0
 40
3.3245410411422949
 50
117.7818496685056
 51
180.6989699693751
  0
ARC
  5
5A
  8
0
 10
70.386877121591439
 20
47.518374520655321
 30
0.0
 40
7.2580489009298876
 50
11.246404164755459
 51
35.502276923510401
  0
ARC
  5
5B
  8
0
 10
75.807144401563846
 20
51.384938600149447
 30
0.0
 40
0.6
 50
35.502276923510863
 51
117.781849668506
  0
ARC
  5
5C
  8
0
 10
69.999999999999488
 20
48.132663002530911
 30
0.0
 40
3.837358289267284
 50
12.05202998231564
 51
167.94797001768441
  0
ARC
  5
5D
  8
0
 10
62.92292959111942
 20
48.974459016993983
 30
0.0
 40
3.3245410411422949
 50
359.30103003062482
 51
62.21815033149435
  0
ARC
  5
5E
  8
0
 10
64.19285559843614
 20
51.384938600149447
 30
0.0
 40
0.6
 50
62.218150331493938
 51
144.49772307648911
  0
ARC
  5
5F
  8
0
 10
69.613122878408532
 20
47.518374520655321
 30
0.0
 40
7.2580489009298876
 50
144.49772307648951
 51
168.75359583524451
  0
LINE
  5
60
  8
1
 10
70.000000000000099
 20
60.119692310178038
 30
0.0
 11
70.000000000000014
 21
29.119692310178081
 31
0.0
  0
CIRCLE
  5
61
  8
0
 10
70.000000000000085
 20
100.1570876875421
 30
0.0
 40
5.1962869834378411
  0
LINE
  5
62
  8
0
 10
76.250000000000071
 20
43.119692310178031
 30
0.0
 11
77.505553499465123
 21
43.844586461076162
 31
0.0
  0
LINE
  5
63
  8
0
 10
63.750000000000021
 20
43.119692310178038
 30
0.0
 11
62.49444650053497
 21
43.844586461076169
 31
0.0
  0
LINE
  5
6D
  8
1
 10
115.0000000000001
 20
60.119692310178038
 30
0.0
 11
115.0
 21
29.119692310178081
 31
0.0
  0
LINE
  5
6E
  8
3
 10
111.59999999999999
 20
40.619692310178053
 30
0.0
 11
111.59999999999999
 21
34.719692310178047
 31
0.0
  0
LINE
  5
6F
  8
3
 10
118.40000000000001
 20
40.619692310178038
 30
0.0
 11
118.40000000000001
 21
34.71969231017804
 31
0.0
  0
LINE
  5
70
  8
0
 10
119.0
 20
35.319692310178063
 30
0.0
 11
111.0
 21
35.31969231017807
 31
0.0
  0
LINE
  5
71
  8
0
 10
111.7500000000001
 20
42.71969231017804
 30
0.0
 11
111.7500000000001
 21
41.019692310178051
 31
0.0
  0
LINE
  5
72
  8
0
 10
111.0
 20
35.31969231017807
 30
0.0
 11
112.2
 21
34.119692310178053
 31
0.0
  0
ARC
  5
73
  8
0
 10
111.35000000000009
 20
41.019692310178058
 30
0.0
 40
0.4
 50
270.0
 51
360.0
  0
ARC
  5
74
  8
0
 10
118.64999999999981
 20
41.019692310178051
 30
0.0
 40
0.4
 50
180.0
 51
270.0
  0
LINE
  5
75
  8
0
 10
119.0
 20
35.319692310178063
 30
0.0
 11
117.8
 21
34.119692310178053
 31
0.0
  0
LINE
  5
76
  8
0
 10
111.0
 20
35.31969231017807
 30
0.0
 11
111.0
 21
40.619692310178053
 31
0.0
  0
LINE
  5
77
  8
0
 10
117.8
 20
34.119692310178053
 30
0.0
 11
112.1999999999999
 21
34.119692310178081
 31
0.0
  0
LINE
  5
78
  8
0
 10
119.0
 20
40.619692310178038
 30
0.0
 11
119.0
 21
35.319692310178041
 31
0.0
  0
LINE
  5
79
  8
0
 10
111.0
 20
40.619692310178053
 30
0.0
 11
119.0
 21
40.619692310178038
 31
0.0
  0
LINE
  5
7A
  8
0
 10
118.2499999999998
 20
42.71969231017804
 30
0.0
 11
118.2499999999998
 21
41.019692310178051
 31
0.0
  0
LINE
  5
7B
  8
0
 10
109.8038475772935
 20
55.119692310178053
 30
0.0
 11
120.1961524227066
 21
55.119692310178038
 31
0.0
  0
ARC
  5
7C
  8
0
 10
115.0
 20
52.119692310178017
 30
0.0
 40
6.0
 50
14.47751218593007
 51
30.000000000000671
  0
ARC
  5
7D
  8
0
 10
115.0
 20
52.119692310178017
 30
0.0
 40
6.0
 50
149.99999999999929
 51
165.5224878140699
  0
LINE
  5
7E
  8
0
 10
121.2500000000001
 20
53.619692310178017
 30
0.0
 11
108.7499999999999
 21
53.619692310178038
 31
0.0
  0
LINE
  5
7F
  8
0
 10
121.2500000000001
 20
43.119692310178031
 30
0.0
 11
108.75
 21
43.119692310178053
 31
0.0
  0
LINE
  5
80
  8
0
 10
121.5000000000001
 20
48.933902858553509
 30
0.0
 11
121.5
 21
43.844586461076169
 31
0.0
  0
LINE
  5
81
  8
0
 10
108.5
 20
48.933902858553111
 30
0.0
 11
108.5
 21
43.844586461076048
 31
0.0
  0
LINE
  5
82
  8
0
 10
108.5000000000001
 20
48.933902858553523
 30
0.0
 11
108.7499999999999
 21
53.619692310178038
 31
0.0
  0
LINE
  5
83
  8
0
 10
121.2500000000001
 20
53.619692310178017
 30
0.0
 11
121.5
 21
48.933902858553509
 31
0.0
  0
LINE
  5
84
  8
0
 10
108.5
 20
43.844586461076162
 30
0.0
 11
108.75
 21
43.119692310178053
 31
0.0
  0
LINE
  5
85
  8
0
 10
121.2500000000001
 20
43.119692310178031
 30
0.0
 11
121.5
 21
43.844586461076162
 31
0.0
  0
ARC
  5
86
  8
0
 10
111.35000000000009
 20
42.719692310178047
 30
0.0
 40
0.4
 50
359.99999999999977
 51
89.999999999999986
  0
ARC
  5
87
  8
0
 10
118.64999999999981
 20
42.71969231017804
 30
0.0
 40
0.4
 50
89.999999999999986
 51
180.0000000000002
  0
LINE
  5
88
  8
0
 10
115.0
 20
43.119692310178038
 30
0.0
 11
115.0
 21
48.933902858553509
 31
0.0
  0
ARC
  5
89
  8
0
 10
111.7500000000002
 20
48.712487770691652
 30
0.0
 40
3.2575335211063998
 50
3.8974084386507699
 51
176.1025915613524
  0
ARC
  5
8A
  8
0
 10
118.25000000000129
 20
48.712487770711483
 30
0.0
 40
3.2575335211063998
 50
3.8974084386507699
 51
176.1025915613524
  0
TEXT
  5
1F8
  8
0
 62
     3
 10
0.0
 20
0.0
 30
0.0
 40
5.0
  1
BJ730-08012
  7
STANDARD1
  0
ENDSEC
  0
EOF
