  0
SECTION
  2
HEADER
  9
$ACADVER
  1
AC1009
  9
$INSBASE
 10
0.0
 20
0.0
 30
0.0
  9
$EXTMIN
 10
0.0
 20
-1.4802182810368341
 30
0.0
  9
$EXTMAX
 10
140.03228848450081
 20
124.954170116548
 30
0.0
  9
$LIMMIN
 10
0.0
 20
0.0
  9
$LIMMAX
 10
187.5
 20
135.0
  9
$ORTHOMODE
 70
     1
  9
$REGENMODE
 70
     1
  9
$FILLMODE
 70
     1
  9
$QTEXTMODE
 70
     0
  9
$MIRRTEXT
 70
     0
  9
$DRAGMODE
 70
     2
  9
$LTSCALE
 40
5.0
  9
$OSMODE
 70
  3071
  9
$ATTMODE
 70
     1
  9
$TEXTSIZE
 40
0.2
  9
$TRACEWID
 40
0.05
  9
$TEXTSTYLE
  7
STANDARD
  9
$CLAYER
  8
0
  9
$CELTYPE
  6
BYLAYER
  9
$CECOLOR
 62
   256
  9
$DIMSCALE
 40
0.5
  9
$DIMASZ
 40
3.0
  9
$DIMEXO
 40
2.0
  9
$DIMDLI
 40
0.38
  9
$DIMRND
 40
0.0
  9
$DIMDLE
 40
0.0
  9
$DIMEXE
 40
2.0
  9
$DIMTP
 40
0.0
  9
$DIMTM
 40
0.0
  9
$DIMTXT
 40
3.2000000000000002
  9
$DIMCEN
 40
0.0
  9
$DIMTSZ
 40
0.0
  9
$DIMTOL
 70
     0
  9
$DIMLIM
 70
     0
  9
$DIMTIH
 70
     0
  9
$DIMTOH
 70
     0
  9
$DIMSE1
 70
     0
  9
$DIMSE2
 70
     0
  9
$DIMTAD
 70
     1
  9
$DIMZIN
 70
     0
  9
$DIMBLK
  1

  9
$DIMASO
 70
     0
  9
$DIMSHO
 70
     0
  9
$DIMPOST
  1

  9
$DIMAPOST
  1

  9
$DIMALT
 70
     0
  9
$DIMALTD
 70
     2
  9
$DIMALTF
 40
25.399999999999999
  9
$DIMLFAC
 40
1.0
  9
$DIMTOFL
 70
     1
  9
$DIMTVP
 40
1.6000000000000001
  9
$DIMTIX
 70
     1
  9
$DIMSOXD
 70
     0
  9
$DIMSAH
 70
     0
  9
$DIMBLK1
  1

  9
$DIMBLK2
  1

  9
$DIMSTYLE
  2
STANDARD
  9
$DIMCLRD
 70
     0
  9
$DIMCLRE
 70
     0
  9
$DIMCLRT
 70
     0
  9
$DIMTFAC
 40
1.0
  9
$DIMGAP
 40
0.09
  9
$LUNITS
 70
     2
  9
$LUPREC
 70
     4
  9
$SKETCHINC
 40
0.1
  9
$FILLETRAD
 40
0.0
  9
$AUNITS
 70
     0
  9
$AUPREC
 70
     4
  9
$MENU
  1
E:\r13\win\SUPPORT\ACAD
  9
$ELEVATION
 40
0.0
  9
$PELEVATION
 40
0.0
  9
$THICKNESS
 40
0.0
  9
$LIMCHECK
 70
     0
  9
$BLIPMODE
 70
     0
  9
$CHAMFERA
 40
0.0
  9
$CHAMFERB
 40
0.0
  9
$SKPOLY
 70
     0
  9
$TDCREATE
 40
2449839.7681597229
  9
$TDUPDATE
 40
2456602.6097925701
  9
$TDINDWG
 40
0.0004926273
  9
$TDUSRTIMER
 40
2456598.407129942
  9
$USRTIMER
 70
     1
  9
$ANGBASE
 50
0.0
  9
$ANGDIR
 70
     0
  9
$PDMODE
 70
     0
  9
$PDSIZE
 40
0.0
  9
$PLINEWID
 40
0.0
  9
$COORDS
 70
     1
  9
$SPLFRAME
 70
     0
  9
$SPLINETYPE
 70
     6
  9
$SPLINESEGS
 70
     8
  9
$ATTDIA
 70
     0
  9
$ATTREQ
 70
     1
  9
$HANDLING
 70
     1
  9
$HANDSEED
  5
29E
  9
$SURFTAB1
 70
     6
  9
$SURFTAB2
 70
     6
  9
$SURFTYPE
 70
     6
  9
$SURFU
 70
     6
  9
$SURFV
 70
     6
  9
$UCSNAME
  2

  9
$UCSORG
 10
0.0
 20
0.0
 30
0.0
  9
$UCSXDIR
 10
1.0
 20
0.0
 30
0.0
  9
$UCSYDIR
 10
0.0
 20
1.0
 30
0.0
  9
$PUCSNAME
  2

  9
$PUCSORG
 10
0.0
 20
0.0
 30
0.0
  9
$PUCSXDIR
 10
1.0
 20
0.0
 30
0.0
  9
$PUCSYDIR
 10
0.0
 20
1.0
 30
0.0
  9
$USERI1
 70
     0
  9
$USERI2
 70
     1
  9
$USERI3
 70
     0
  9
$USERI4
 70
     0
  9
$USERI5
 70
     0
  9
$USERR1
 40
0.0
  9
$USERR2
 40
0.0
  9
$USERR3
 40
0.0
  9
$USERR4
 40
0.0
  9
$USERR5
 40
0.0
  9
$WORLDVIEW
 70
     1
  9
$SHADEDGE
 70
     3
  9
$SHADEDIF
 70
    70
  9
$TILEMODE
 70
     1
  9
$MAXACTVP
 70
    16
  9
$PLIMCHECK
 70
     0
  9
$PEXTMIN
 10
1.0000000000000000E+020
 20
1.0000000000000000E+020
 30
1.0000000000000000E+020
  9
$PEXTMAX
 10
-1.0000000000000000E+020
 20
-1.0000000000000000E+020
 30
-1.0000000000000000E+020
  9
$PLIMMIN
 10
0.0
 20
0.0
  9
$PLIMMAX
 10
12.0
 20
9.0
  9
$UNITMODE
 70
     0
  9
$VISRETAIN
 70
     0
  9
$PLINEGEN
 70
     0
  9
$PSLTSCALE
 70
     0
  0
ENDSEC
  0
SECTION
  2
TABLES
  0
TABLE
  2
VPORT
 70
     1
  0
VPORT
  2
*ACTIVE
 70
     0
 10
0.0
 20
0.0
 11
1.0
 21
1.0
 12
97.529168331986526
 22
66.758423165020588
 13
0.0
 23
0.0
 14
5.0
 24
5.0
 15
5.0
 25
5.0
 16
0.0
 26
0.0
 36
1.0
 17
0.0
 27
0.0
 37
0.0
 40
137.71553210788619
 41
1.831871345029239
 42
50.0
 43
0.0
 44
0.0
 50
0.0
 51
0.0
 71
     0
 72
   500
 73
     1
 74
     0
 75
     0
 76
     0
 77
     0
 78
     2
  0
ENDTAB
  0
TABLE
  2
LTYPE
 70
     3
  0
LTYPE
  2
CONTINUOUS
 70
     0
  3
Solid Line
 72
    65
 73
     0
 40
0.0
  0
LTYPE
  2
CENTER
 70
     0
  3
____ _ ____ _ ____ _ ____ _ ____ _ ____ _ ____
 72
    65
 73
     4
 40
2.0
 49
1.25
 49
-0.25
 49
0.25
 49
-0.25
  0
LTYPE
  2
PHANTOM2
 70
     0
  3
___ _ _ ___ _ _ ___ _ _ ___ _ _
 72
    65
 73
     6
 40
1.25
 49
0.625
 49
-0.125
 49
0.125
 49
-0.125
 49
0.125
 49
-0.125
  0
ENDTAB
  0
TABLE
  2
LAYER
 70
     4
  0
LAYER
  2
0
 70
     0
 62
     7
  6
CONTINUOUS
  0
LAYER
  2
1
 70
     0
 62
     1
  6
CENTER
  0
LAYER
  2
3
 70
     0
 62
     3
  6
CONTINUOUS
  0
LAYER
  2
10
 70
     0
 62
     7
  6
CONTINUOUS
  0
ENDTAB
  0
TABLE
  2
STYLE
 70
     2
  0
STYLE
  2
STANDARD
 70
     0
 40
0.0
 41
1.0
 50
0.0
 71
     0
 42
0.2
  3
TXT
  4
BIGFONT
  0
STYLE
  2
STANDARD1
 70
     0
 40
0.0
 41
1.0
 50
0.0
 71
     0
 42
3.0
  3
txt
  4

  0
ENDTAB
  0
TABLE
  2
VIEW
 70
     1
  0
VIEW
  2
ALL
 70
     0
 40
135.0
 10
110.4957983193277
 20
67.5
 41
0.0
 11
0.0
 21
0.0
 31
1.0
 12
0.0
 22
0.0
 32
0.0
 42
0.0
 43
0.0
 44
0.0
 50
0.0
 71
     0
  0
ENDTAB
  0
TABLE
  2
UCS
 70
     0
  0
ENDTAB
  0
TABLE
  2
APPID
 70
     3
  0
APPID
  2
ACAD
 70
     0
  0
APPID
  2
ACAD_MLEADERVER
 70
     0
  0
APPID
  2
ACAD_NAV_VCDISPLAY
 70
     0
  0
ENDTAB
  0
TABLE
  2
DIMSTYLE
 70
     1
  0
DIMSTYLE
  2
STANDARD
 70
     0
  3

  4

  5

  6

  7

 40
1.0
 41
0.18
 42
0.0625
 43
0.38
 44
0.18
 45
0.0
 46
0.0
 47
0.0
 48
0.0
140
0.18
141
0.09
142
0.0
143
25.399999999999999
144
1.0
145
0.0
146
1.0
147
0.09
 71
     0
 72
     0
 73
     1
 74
     1
 75
     0
 76
     0
 77
     0
 78
     0
170
     0
171
     2
172
     0
173
     0
174
     0
175
     0
176
     0
177
     0
178
     0
  0
ENDTAB
  0
ENDSEC
  0
SECTION
  2
BLOCKS
  0
BLOCK
  8
0
  2
$MODEL_SPACE
 70
     0
 10
0.0
 20
0.0
 30
0.0
  3
$MODEL_SPACE
  1

  0
ENDBLK
  5
143
  8
0
  0
BLOCK
 67
     1
  8
0
  2
$PAPER_SPACE
 70
     0
 10
0.0
 20
0.0
 30
0.0
  3
$PAPER_SPACE
  1

  0
ENDBLK
  5
141
 67
     1
  8
0
  0
ENDSEC
  0
SECTION
  2
ENTITIES
  0
LINE
  5
3F
  8
1
 10
51.554889541008478
 20
104.954170116548
 30
0.0
 11
91.554889541008478
 21
104.954170116548
 31
0.0
  0
LINE
  5
40
  8
1
 10
71.554889541008478
 20
124.954170116548
 30
0.0
 11
71.554889541008478
 21
84.954170116547985
 31
0.0
  0
LINE
  5
41
  8
0
 10
65.204036579972509
 20
115.9541701165771
 30
0.0
 11
77.905742502127524
 21
115.9541701165771
 31
0.0
  0
LINE
  5
42
  8
0
 10
58.853183618836439
 20
104.95417011660579
 30
0.0
 11
65.204036579913961
 21
115.9541701165913
 31
0.0
  0
LINE
  5
43
  8
0
 10
65.204036579872437
 20
93.954170116576677
 30
0.0
 11
58.853183618794951
 21
104.9541701165622
 31
0.0
  0
LINE
  5
44
  8
0
 10
77.905742502044447
 20
93.954170116518895
 30
0.0
 11
65.204036579889461
 21
93.954170116518895
 31
0.0
  0
LINE
  5
45
  8
0
 10
84.256595463180489
 20
104.9541701164902
 30
0.0
 11
77.905742502102996
 21
93.954170116504741
 31
0.0
  0
LINE
  5
46
  8
0
 10
77.90574250214452
 20
115.95417011651929
 30
0.0
 11
84.256595463222013
 21
104.9541701165338
 31
0.0
  0
CIRCLE
  5
47
  8
0
 10
71.554889541024849
 20
104.954170116548
 30
0.0
 40
10.9
  0
CIRCLE
  5
48
  8
0
 10
71.554889541008478
 20
104.954170116548
 30
0.0
 40
9.1300000000000008
  0
CIRCLE
  5
49
  8
0
 10
71.554889541008478
 20
104.954170116548
 30
0.0
 40
7.5
  0
LINE
  5
4A
  8
0
 10
65.204036579909427
 20
51.020119193375088
 30
0.0
 11
65.204036579909413
 21
39.95417011654807
 31
0.0
  0
ARC
  5
4B
  8
0
 10
62.028610092738063
 20
57.244170116544502
 30
0.0
 40
0.5
 50
25.27897781673504
 51
154.72102218306259
  0
ARC
  5
4C
  8
0
 10
41.043944811953587
 20
44.594392326899431
 30
0.0
 40
25.0
 50
14.89385068882925
 51
30.966153889410801
  0
ARC
  5
4D
  8
0
 10
83.013275386795328
 20
44.594392326899417
 30
0.0
 40
25.0
 50
149.0338461105892
 51
164.89385068839249
  0
ARC
  5
4E
  8
0
 10
97.913970855687992
 20
27.99708291079132
 30
0.0
 40
40.0
 50
132.62147944471781
 51
144.8600266989437
  0
ARC
  5
4F
  8
0
 10
45.195808226328829
 20
27.997082910791331
 30
0.0
 40
40.0
 50
35.139973301056251
 51
47.378520555282194
  0
ARC
  5
50
  8
0
 10
71.554889541008436
 20
56.74417011654814
 30
0.0
 40
1.0
 50
43.365046175092779
 51
136.6349538249072
  0
ARC
  5
51
  8
0
 10
60.096503695221507
 20
44.594392326899431
 30
0.0
 40
25.0
 50
15.106149311607471
 51
30.966153889410752
  0
ARC
  5
52
  8
0
 10
102.06583427006321
 20
44.594392326899417
 30
0.0
 40
25.0
 50
149.0338461105892
 51
165.1061493111707
  0
ARC
  5
53
  8
0
 10
60.096503695221507
 20
44.594392326899431
 30
0.0
 40
25.0
 50
14.89385068882925
 51
14.893850688830319
  0
ARC
  5
54
  8
0
 10
81.08116898927878
 20
57.244170116544488
 30
0.0
 40
0.5
 50
25.27897781693737
 51
154.72102218326489
  0
LINE
  5
55
  8
0
 10
58.853183618810412
 20
51.020119193375031
 30
0.0
 11
58.853183618810412
 21
39.954170116548042
 31
0.0
  0
LINE
  5
56
  8
0
 10
60.654887633659911
 20
57.744170116925659
 30
0.0
 11
58.853183618810412
 21
51.020119193375031
 31
0.0
  0
LINE
  5
57
  8
1
 10
71.554889541008436
 20
72.744170116548105
 30
0.0
 11
71.554889541008421
 21
17.744170116548091
 31
0.0
  0
ARC
  5
58
  8
0
 10
71.554889541008436
 20
54.742270116548163
 30
0.0
 40
9.1280999999999999
 50
19.199816301762269
 51
34.818114295685412
  0
ARC
  5
59
  8
0
 10
71.554889541008436
 20
54.742270116548163
 30
0.0
 40
9.1280999999999999
 50
145.18188570431451
 51
160.80018369823759
  0
LINE
  5
5A
  8
0
 10
79.048774247888133
 20
59.954170116548148
 30
0.0
 11
64.061004834128738
 21
59.954170116548148
 31
0.0
  0
LINE
  5
5B
  8
0
 10
84.256595463206409
 20
39.954170116548028
 30
0.0
 11
58.853183618810412
 21
39.954170116548042
 31
0.0
  0
LINE
  5
5C
  8
0
 10
76.254889541020063
 20
39.954170116548042
 30
0.0
 11
76.254889541020063
 21
36.954170116548042
 31
0.0
  0
LINE
  5
5D
  8
0
 10
66.85488954099678
 20
39.954170116548042
 30
0.0
 11
66.85488954099678
 21
36.954170116548042
 31
0.0
  0
LINE
  5
5E
  8
0
 10
77.554889541008421
 20
36.954170116548042
 30
0.0
 11
65.554889541008421
 21
36.954170116548042
 31
0.0
  0
LINE
  5
5F
  8
0
 10
65.554889541008421
 20
36.954170116548042
 30
0.0
 11
65.554889541008421
 21
29.954170116548049
 31
0.0
  0
LINE
  5
60
  8
0
 10
65.554889541008421
 20
29.954170116548049
 30
0.0
 11
67.554889541006602
 21
27.954170116548049
 31
0.0
  0
LINE
  5
61
  8
0
 10
67.554889541006602
 20
27.954170116548049
 30
0.0
 11
75.55488954101024
 21
27.954170116548049
 31
0.0
  0
LINE
  5
62
  8
0
 10
75.55488954101024
 20
27.954170116548049
 30
0.0
 11
77.554889541008421
 21
29.954170116548049
 31
0.0
  0
LINE
  5
63
  8
0
 10
77.554889541008421
 20
29.954170116548049
 30
0.0
 11
77.554889541008421
 21
36.954170116548042
 31
0.0
  0
LINE
  5
64
  8
3
 10
76.607889540993753
 20
36.954170116548042
 30
0.0
 11
76.607889540993753
 21
29.007170116532471
 31
0.0
  0
LINE
  5
65
  8
3
 10
66.50188954102309
 20
29.007170116532471
 30
0.0
 11
66.50188954102309
 21
36.954170116548042
 31
0.0
  0
LINE
  5
66
  8
0
 10
60.654891448357169
 20
57.74417011654814
 30
0.0
 11
82.45489144835696
 21
57.744170116548133
 31
0.0
  0
LINE
  5
67
  8
0
 10
82.454891448356918
 20
57.744170116925659
 30
0.0
 11
84.256595463206452
 21
51.020119193375031
 31
0.0
  0
LINE
  5
68
  8
0
 10
84.256595463206452
 20
51.020119193375031
 30
0.0
 11
84.256595463206409
 21
39.954170116548028
 31
0.0
  0
LINE
  5
69
  8
0
 10
77.905742502107415
 20
51.020119193375088
 30
0.0
 11
77.905742502107401
 21
39.95417011654807
 31
0.0
  0
LINE
  5
6A
  8
0
 10
77.554889541008421
 20
29.954170116548021
 30
0.0
 11
65.554889541008421
 21
29.954170116548021
 31
0.0
  0
LINE
  5
6B
  8
1
 10
129.03228848447159
 20
72.744170116548091
 30
0.0
 11
129.03228848447151
 21
17.744170116548091
 31
0.0
  0
LINE
  5
6C
  8
0
 10
118.1322865771231
 20
57.744170116925638
 30
0.0
 11
118.0322884844424
 21
57.370972154385278
 31
0.0
  0
ARC
  5
6D
  8
0
 10
129.03228848447159
 20
54.74227011654817
 30
0.0
 40
9.1280999999999999
 50
19.199816301762269
 51
34.818114295685412
  0
ARC
  5
6E
  8
0
 10
129.03228848447159
 20
54.74227011654817
 30
0.0
 40
9.1280999999999999
 50
145.18188570431451
 51
160.80018369823759
  0
LINE
  5
6F
  8
0
 10
136.52617319135129
 20
59.95417011654812
 30
0.0
 11
121.5384037775919
 21
59.95417011654812
 31
0.0
  0
LINE
  5
70
  8
0
 10
140.03228848450061
 20
39.954170116548013
 30
0.0
 11
118.0322884844424
 21
39.954170116548013
 31
0.0
  0
LINE
  5
71
  8
0
 10
133.73228848448321
 20
39.954170116548013
 30
0.0
 11
133.73228848448321
 21
36.954170116548013
 31
0.0
  0
LINE
  5
72
  8
0
 10
124.33228848445989
 20
39.954170116548013
 30
0.0
 11
124.33228848445989
 21
36.954170116548013
 31
0.0
  0
LINE
  5
73
  8
0
 10
135.03228848447151
 20
36.954170116548013
 30
0.0
 11
123.03228848447159
 21
36.954170116548013
 31
0.0
  0
LINE
  5
74
  8
0
 10
123.03228848447159
 20
36.954170116548013
 30
0.0
 11
123.03228848447159
 21
29.95417011654801
 31
0.0
  0
LINE
  5
75
  8
0
 10
123.03228848447159
 20
29.95417011654801
 30
0.0
 11
125.0322884844697
 21
27.95417011654801
 31
0.0
  0
LINE
  5
76
  8
0
 10
125.0322884844697
 20
27.95417011654801
 30
0.0
 11
133.03228848447341
 21
27.95417011654801
 31
0.0
  0
LINE
  5
77
  8
0
 10
133.03228848447341
 20
27.95417011654801
 30
0.0
 11
135.03228848447151
 21
29.95417011654801
 31
0.0
  0
LINE
  5
78
  8
0
 10
135.03228848447151
 20
29.95417011654801
 30
0.0
 11
135.03228848447151
 21
36.954170116548013
 31
0.0
  0
LINE
  5
79
  8
3
 10
134.0852884844569
 20
36.954170116548013
 30
0.0
 11
134.0852884844569
 21
29.007170116532428
 31
0.0
  0
LINE
  5
7A
  8
3
 10
123.9792884844862
 20
29.007170116532428
 30
0.0
 11
123.9792884844862
 21
36.954170116548013
 31
0.0
  0
LINE
  5
7B
  8
0
 10
118.13229039182031
 20
57.744170116548148
 30
0.0
 11
139.93229039182009
 21
57.74417011654814
 31
0.0
  0
LINE
  5
7C
  8
0
 10
139.93229039182009
 20
57.744170116925631
 30
0.0
 11
140.0322884845007
 21
57.370972154385342
 31
0.0
  0
LINE
  5
7D
  8
0
 10
135.03228848447151
 20
29.95417011654801
 30
0.0
 11
123.03228848447159
 21
29.95417011654801
 31
0.0
  0
LINE
  5
7E
  8
0
 10
118.0322884844424
 20
57.370972154385001
 30
0.0
 11
118.0322884844424
 21
39.954170116548013
 31
0.0
  0
LINE
  5
7F
  8
0
 10
140.0322884845007
 20
57.370972154385562
 30
0.0
 11
140.03228848450061
 21
39.954170116548013
 31
0.0
  0
LINE
  5
80
  8
0
 10
129.03228848447159
 20
51.020119193372331
 30
0.0
 11
129.03228848447151
 21
39.954170116548013
 31
0.0
  0
ARC
  5
81
  8
0
 10
113.1996166877302
 20
45.290112761224222
 30
0.0
 40
16.83765036861708
 50
19.895710080821971
 51
41.896430025324094
  0
ARC
  5
82
  8
0
 10
122.34493005059809
 20
52.979289718221523
 30
0.0
 40
4.9105911314849644
 50
46.377355069489369
 51
76.007468374977535
  0
ARC
  5
83
  8
0
 10
133.86496028118381
 20
45.290112761224208
 30
0.0
 40
16.83765036861708
 50
138.10356997467591
 51
160.104289919178
  0
ARC
  5
84
  8
0
 10
124.7196469183159
 20
52.979289718221523
 30
0.0
 40
4.9105911314849644
 50
103.99253162502249
 51
133.6226449305106
  0
ARC
  5
85
  8
0
 10
133.34493005062731
 20
52.979289718221523
 30
0.0
 40
4.9105911314849644
 50
46.377355069489369
 51
76.007468374977535
  0
ARC
  5
86
  8
0
 10
135.71964691834509
 20
52.979289718221523
 30
0.0
 40
4.9105911314849644
 50
103.99253162502249
 51
133.6226449305106
  0
ARC
  5
87
  8
0
 10
144.864960281213
 20
45.290112761224208
 30
0.0
 40
16.83765036861708
 50
138.10356997467591
 51
160.104289919178
  0
ARC
  5
88
  8
0
 10
124.1996166877594
 20
45.290112761224222
 30
0.0
 40
16.83765036861708
 50
19.895710080821971
 51
41.896430025324094
  0
TEXT
  5
1FE
  8
0
 62
     3
 10
0.0
 20
0.0
 30
0.0
 40
5.0
  1
BJ730-12020
  7
STANDARD1
  0
ENDSEC
  0
EOF
