  0
SECTION
  2
HEADER
  9
$ACADVER
  1
AC1009
  9
$INSBASE
 10
0.0
 20
0.0
 30
0.0
  9
$EXTMIN
 10
0.0
 20
-2.960436562073669
 30
0.0
  9
$EXTMAX
 10
179.53983199999999
 20
92.822182999999995
 30
0.0
  9
$LIMMIN
 10
0.0
 20
0.0
  9
$LIMMAX
 10
187.5
 20
135.0
  9
$ORTHOMODE
 70
     1
  9
$REGENMODE
 70
     1
  9
$FILLMODE
 70
     1
  9
$QTEXTMODE
 70
     0
  9
$MIRRTEXT
 70
     0
  9
$DRAGMODE
 70
     2
  9
$LTSCALE
 40
10.0
  9
$OSMODE
 70
  3071
  9
$ATTMODE
 70
     1
  9
$TEXTSIZE
 40
0.2
  9
$TRACEWID
 40
0.05
  9
$TEXTSTYLE
  7
STANDARD
  9
$CLAYER
  8
4
  9
$CELTYPE
  6
BYLAYER
  9
$CECOLOR
 62
   256
  9
$DIMSCALE
 40
1.0
  9
$DIMASZ
 40
3.0
  9
$DIMEXO
 40
2.0
  9
$DIMDLI
 40
0.38
  9
$DIMRND
 40
0.0
  9
$DIMDLE
 40
0.0
  9
$DIMEXE
 40
2.0
  9
$DIMTP
 40
0.0
  9
$DIMTM
 40
0.0
  9
$DIMTXT
 40
3.2000000000000002
  9
$DIMCEN
 40
0.0
  9
$DIMTSZ
 40
0.0
  9
$DIMTOL
 70
     0
  9
$DIMLIM
 70
     0
  9
$DIMTIH
 70
     0
  9
$DIMTOH
 70
     0
  9
$DIMSE1
 70
     0
  9
$DIMSE2
 70
     0
  9
$DIMTAD
 70
     1
  9
$DIMZIN
 70
     0
  9
$DIMBLK
  1

  9
$DIMASO
 70
     0
  9
$DIMSHO
 70
     0
  9
$DIMPOST
  1

  9
$DIMAPOST
  1

  9
$DIMALT
 70
     0
  9
$DIMALTD
 70
     2
  9
$DIMALTF
 40
25.399999999999999
  9
$DIMLFAC
 40
1.0
  9
$DIMTOFL
 70
     1
  9
$DIMTVP
 40
1.6000000000000001
  9
$DIMTIX
 70
     1
  9
$DIMSOXD
 70
     0
  9
$DIMSAH
 70
     0
  9
$DIMBLK1
  1

  9
$DIMBLK2
  1

  9
$DIMSTYLE
  2
STANDARD
  9
$DIMCLRD
 70
     0
  9
$DIMCLRE
 70
     0
  9
$DIMCLRT
 70
     0
  9
$DIMTFAC
 40
1.0
  9
$DIMGAP
 40
0.09
  9
$LUNITS
 70
     2
  9
$LUPREC
 70
     4
  9
$SKETCHINC
 40
0.1
  9
$FILLETRAD
 40
0.0
  9
$AUNITS
 70
     0
  9
$AUPREC
 70
     4
  9
$MENU
  1
E:\r13\win\SUPPORT\ACAD
  9
$ELEVATION
 40
0.0
  9
$PELEVATION
 40
0.0
  9
$THICKNESS
 40
0.0
  9
$LIMCHECK
 70
     0
  9
$BLIPMODE
 70
     0
  9
$CHAMFERA
 40
0.0
  9
$CHAMFERB
 40
0.0
  9
$SKPOLY
 70
     0
  9
$TDCREATE
 40
2449839.7693055561
  9
$TDUPDATE
 40
2456597.6921765278
  9
$TDINDWG
 40
0.0010792014
  9
$TDUSRTIMER
 40
0.0010792014
  9
$USRTIMER
 70
     1
  9
$ANGBASE
 50
0.0
  9
$ANGDIR
 70
     0
  9
$PDMODE
 70
     0
  9
$PDSIZE
 40
0.0
  9
$PLINEWID
 40
0.0
  9
$COORDS
 70
     1
  9
$SPLFRAME
 70
     0
  9
$SPLINETYPE
 70
     6
  9
$SPLINESEGS
 70
     8
  9
$ATTDIA
 70
     0
  9
$ATTREQ
 70
     1
  9
$HANDLING
 70
     1
  9
$HANDSEED
  5
3B1
  9
$SURFTAB1
 70
     6
  9
$SURFTAB2
 70
     6
  9
$SURFTYPE
 70
     6
  9
$SURFU
 70
     6
  9
$SURFV
 70
     6
  9
$UCSNAME
  2

  9
$UCSORG
 10
0.0
 20
0.0
 30
0.0
  9
$UCSXDIR
 10
1.0
 20
0.0
 30
0.0
  9
$UCSYDIR
 10
0.0
 20
1.0
 30
0.0
  9
$PUCSNAME
  2

  9
$PUCSORG
 10
0.0
 20
0.0
 30
0.0
  9
$PUCSXDIR
 10
1.0
 20
0.0
 30
0.0
  9
$PUCSYDIR
 10
0.0
 20
1.0
 30
0.0
  9
$USERI1
 70
     3
  9
$USERI2
 70
     1
  9
$USERI3
 70
     1
  9
$USERI4
 70
     0
  9
$USERI5
 70
     0
  9
$USERR1
 40
0.0
  9
$USERR2
 40
0.0
  9
$USERR3
 40
0.0
  9
$USERR4
 40
0.0
  9
$USERR5
 40
0.0
  9
$WORLDVIEW
 70
     1
  9
$SHADEDGE
 70
     3
  9
$SHADEDIF
 70
    70
  9
$TILEMODE
 70
     1
  9
$MAXACTVP
 70
    16
  9
$PLIMCHECK
 70
     0
  9
$PEXTMIN
 10
1.0000000000000000E+020
 20
1.0000000000000000E+020
 30
1.0000000000000000E+020
  9
$PEXTMAX
 10
-1.0000000000000000E+020
 20
-1.0000000000000000E+020
 30
-1.0000000000000000E+020
  9
$PLIMMIN
 10
0.0
 20
0.0
  9
$PLIMMAX
 10
12.0
 20
9.0
  9
$UNITMODE
 70
     0
  9
$VISRETAIN
 70
     0
  9
$PLINEGEN
 70
     0
  9
$PSLTSCALE
 70
     0
  0
ENDSEC
  0
SECTION
  2
TABLES
  0
TABLE
  2
VPORT
 70
     1
  0
VPORT
  2
*ACTIVE
 70
     0
 10
0.0
 20
0.0
 11
1.0
 21
1.0
 12
97.570150770051072
 22
66.014785922033241
 13
0.0
 23
0.0
 14
10.0
 24
10.0
 15
10.0
 25
10.0
 16
0.0
 26
0.0
 36
1.0
 17
0.0
 27
0.0
 37
0.0
 40
139.20783109903601
 41
1.831871345029239
 42
50.0
 43
0.0
 44
0.0
 50
0.0
 51
0.0
 71
     0
 72
   100
 73
     1
 74
     0
 75
     0
 76
     0
 77
     0
 78
     2
  0
ENDTAB
  0
TABLE
  2
LTYPE
 70
     3
  0
LTYPE
  2
CONTINUOUS
 70
     0
  3
Solid Line
 72
    65
 73
     0
 40
0.0
  0
LTYPE
  2
CENTER
 70
     0
  3
____ _ ____ _ ____ _ ____ _ ____ _ ____ _ ____
 72
    65
 73
     4
 40
2.0
 49
1.25
 49
-0.25
 49
0.25
 49
-0.25
  0
LTYPE
  2
PHANTOM2
 70
     0
  3
___ _ _ ___ _ _ ___ _ _ ___ _ _
 72
    65
 73
     6
 40
1.25
 49
0.625
 49
-0.125
 49
0.125
 49
-0.125
 49
0.125
 49
-0.125
  0
ENDTAB
  0
TABLE
  2
LAYER
 70
     4
  0
LAYER
  2
0
 70
     0
 62
     7
  6
CONTINUOUS
  0
LAYER
  2
4
 70
     0
 62
     4
  6
CONTINUOUS
  0
LAYER
  2
1
 70
     0
 62
     1
  6
CENTER
  0
LAYER
  2
3
 70
     0
 62
     3
  6
CONTINUOUS
  0
ENDTAB
  0
TABLE
  2
STYLE
 70
     2
  0
STYLE
  2
STANDARD
 70
     0
 40
0.0
 41
1.0
 50
0.0
 71
     0
 42
0.2
  3
TXT
  4
BIGFONT
  0
STYLE
  2
STANDARD1
 70
     0
 40
0.0
 41
1.0
 50
0.0
 71
     0
 42
3.0
  3
txt
  4

  0
ENDTAB
  0
TABLE
  2
VIEW
 70
     1
  0
VIEW
  2
ALL
 70
     0
 40
179.538466
 10
135.0
 20
89.769233000000014
 41
0.0
 11
0.0
 21
0.0
 31
1.0
 12
0.0
 22
0.0
 32
0.0
 42
0.0
 43
0.0
 44
0.0
 50
0.0
 71
     0
  0
ENDTAB
  0
TABLE
  2
UCS
 70
     0
  0
ENDTAB
  0
TABLE
  2
APPID
 70
     3
  0
APPID
  2
ACAD
 70
     0
  0
APPID
  2
ACAD_MLEADERVER
 70
     0
  0
APPID
  2
ACAD_NAV_VCDISPLAY
 70
     0
  0
ENDTAB
  0
TABLE
  2
DIMSTYLE
 70
     1
  0
DIMSTYLE
  2
STANDARD
 70
     0
  3

  4

  5

  6

  7

 40
1.0
 41
0.18
 42
0.0625
 43
0.38
 44
0.18
 45
0.0
 46
0.0
 47
0.0
 48
0.0
140
0.18
141
0.09
142
0.0
143
25.399999999999999
144
1.0
145
0.0
146
1.0
147
0.09
 71
     0
 72
     0
 73
     1
 74
     1
 75
     0
 76
     0
 77
     0
 78
     0
170
     0
171
     2
172
     0
173
     0
174
     0
175
     0
176
     0
177
     0
178
     0
  0
ENDTAB
  0
ENDSEC
  0
SECTION
  2
BLOCKS
  0
BLOCK
  8
0
  2
$MODEL_SPACE
 70
     0
 10
0.0
 20
0.0
 30
0.0
  3
$MODEL_SPACE
  1

  0
ENDBLK
  5
265
  8
0
  0
BLOCK
 67
     1
  8
0
  2
$PAPER_SPACE
 70
     0
 10
0.0
 20
0.0
 30
0.0
  3
$PAPER_SPACE
  1

  0
ENDBLK
  5
263
 67
     1
  8
0
  0
BLOCK
  8
0
  2
STDGX5
 70
     0
 10
0.0
 20
0.0
 30
0.0
  3
STDGX5
  1

  0
ENDBLK
  5
4D
  8
0
  0
BLOCK
  8
0
  2
B732018A
 70
     0
 10
0.0
 20
0.0
 30
0.0
  3
B732018A
  1

  0
LINE
  5
80
  8
1
 10
-15.0
 20
0.0
 30
0.0
 11
15.0
 21
0.0
 31
0.0
  0
LINE
  5
81
  8
1
 10
0.0
 20
15.0
 30
0.0
 11
0.0
 21
-15.0
 31
0.0
  0
LINE
  5
82
  8
0
 10
0.0
 20
-10.969654999999999
 30
0.0
 11
9.5
 21
-5.4848280000000003
 31
0.0
  0
LINE
  5
83
  8
0
 10
-9.5
 20
-5.4848280000000003
 30
0.0
 11
0.0
 21
-10.969654999999999
 31
0.0
  0
LINE
  5
84
  8
0
 10
-9.5
 20
5.4848280000000003
 30
0.0
 11
-9.5
 21
-5.4848280000000003
 31
0.0
  0
LINE
  5
85
  8
0
 10
0.0
 20
10.969654999999999
 30
0.0
 11
-9.5
 21
5.4848280000000003
 31
0.0
  0
LINE
  5
86
  8
0
 10
9.5
 20
5.4848280000000003
 30
0.0
 11
0.0
 21
10.969654999999999
 31
0.0
  0
LINE
  5
87
  8
0
 10
9.5
 20
-5.4848280000000003
 30
0.0
 11
9.5
 21
5.4848280000000003
 31
0.0
  0
ENDBLK
  5
88
  8
0
  0
BLOCK
  8
4
  2
NM20B
 70
     0
 10
0.0
 20
0.0
 30
0.0
  3
NM20B
  1

  0
LINE
  5
FB
  8
0
 10
-12.0
 20
-14.5
 30
0.0
 11
-10.371579000000001
 21
-17.320508
 31
0.0
  0
ARC
  5
FC
  8
0
 10
-4.043857
 20
-12.990380999999999
 30
0.0
 40
7.6674679999999986
 50
145.61575300000001
 51
205.61575300000001
  0
ARC
  5
FD
  8
0
 10
-4.043857
 20
-12.990380999999999
 30
0.0
 40
7.6674679999999986
 50
214.38424699999999
 51
214.38424699999999
  0
ARC
  5
FE
  8
0
 10
16.948929
 20
0.0
 30
0.0
 40
28.660253999999998
 50
162.412046
 51
197.587954
  0
ARC
  5
FF
  8
0
 10
-7.9561429999999991
 20
-12.990380999999999
 30
0.0
 40
7.6674679999999986
 50
325.61575299999998
 51
325.61575299999998
  0
ARC
  5
100
  8
0
 10
-7.9561429999999991
 20
-12.990380999999999
 30
0.0
 40
7.6674679999999986
 50
334.38424700000002
 51
34.384247000000002
  0
LINE
  5
101
  8
0
 10
0.0
 20
-14.5
 30
0.0
 11
-1.628420999999999
 21
-17.320508
 31
0.0
  0
LINE
  5
102
  8
0
 10
-10.371579000000001
 20
-17.320508
 30
0.0
 11
-1.628420999999999
 21
-17.320508
 31
0.0
  0
LINE
  5
103
  8
0
 10
-1.628420999999999
 20
-8.6602540000000001
 30
0.0
 11
-10.371579000000001
 21
-8.6602540000000001
 31
0.0
  0
ARC
  5
104
  8
0
 10
-28.948929
 20
0.0
 30
0.0
 40
28.660253999999998
 50
342.41204599999998
 51
17.587954
  0
LINE
  5
105
  8
0
 10
-1.628420999999999
 20
8.6602540000000001
 30
0.0
 11
-10.371579000000001
 21
8.6602540000000001
 31
0.0
  0
LINE
  5
106
  8
0
 10
-10.371579000000001
 20
17.320508
 30
0.0
 11
-1.628420999999999
 21
17.320508
 31
0.0
  0
LINE
  5
107
  8
0
 10
0.0
 20
14.5
 30
0.0
 11
-1.628420999999999
 21
17.320508
 31
0.0
  0
ARC
  5
108
  8
0
 10
-7.9561429999999991
 20
12.990380999999999
 30
0.0
 40
7.6674679999999986
 50
325.61575299999998
 51
25.615753000000002
  0
ARC
  5
109
  8
0
 10
-7.9561429999999991
 20
12.990380999999999
 30
0.0
 40
7.6674679999999986
 50
34.384247000000002
 51
34.384247000000002
  0
ARC
  5
10A
  8
0
 10
-4.043857
 20
12.990380999999999
 30
0.0
 40
7.6674679999999986
 50
145.61575300000001
 51
145.61575300000001
  0
ARC
  5
10B
  8
0
 10
-4.043857
 20
12.990380999999999
 30
0.0
 40
7.6674679999999986
 50
154.38424699999999
 51
214.38424699999999
  0
LINE
  5
10C
  8
0
 10
-12.0
 20
14.5
 30
0.0
 11
-10.371579000000001
 21
17.320508
 31
0.0
  0
LINE
  5
10D
  8
0
 10
-12.0
 20
-14.5
 30
0.0
 11
-12.0
 21
14.5
 31
0.0
  0
LINE
  5
10E
  8
0
 10
0.0
 20
14.5
 30
0.0
 11
0.0
 21
-14.5
 31
0.0
  0
ENDBLK
  5
10F
  8
4
  0
ENDSEC
  0
SECTION
  2
ENTITIES
  0
INSERT
  5
134
  8
0
  2
STDGX5
 10
0.0
 20
0.0
 30
0.0
  0
INSERT
  5
135
  8
0
  2
STDGX5
 10
0.0
 20
0.0
 30
0.0
  0
INSERT
  5
138
  8
0
  2
B732018A
 10
41.30715099999999
 20
69.137978000000004
 30
0.0
 41
1.578946999999999
 42
1.578946999999999
 43
1.578946999999999
  0
INSERT
  5
139
  8
0
  2
STDGX5
 10
0.0
 20
0.0
 30
0.0
  0
ARC
  5
13A
  8
0
 10
122.039832
 20
69.137978000000004
 30
0.0
 40
40.0
 50
154.341094
 51
205.658906
  0
LINE
  5
13B
  8
0
 10
97.839832000000015
 20
59.137978000000011
 30
0.0
 11
169.53983199999999
 21
59.137978000000011
 31
0.0
  0
ARC
  5
13C
  8
0
 10
97.839832000000015
 20
58.337978
 30
0.0
 40
0.8
 50
90.0
 51
180.0
  0
ARC
  5
13D
  8
0
 10
97.839832000000015
 20
79.937978000000001
 30
0.0
 40
0.8
 50
180.0
 51
270.0
  0
LINE
  5
13E
  8
0
 10
169.53983199999999
 20
59.137978000000011
 30
0.0
 11
169.53983199999999
 21
79.137978000000004
 31
0.0
  0
LINE
  5
13F
  8
0
 10
172.03983199999999
 20
61.637978000000011
 30
0.0
 11
169.53983199999999
 21
59.137978000000011
 31
0.0
  0
LINE
  5
140
  8
0
 10
169.53983199999999
 20
79.137978000000004
 30
0.0
 11
172.03983199999999
 21
76.637978000000004
 31
0.0
  0
LINE
  5
141
  8
0
 10
172.03983199999999
 20
61.637978000000011
 30
0.0
 11
172.03983199999999
 21
76.637978000000004
 31
0.0
  0
LINE
  5
142
  8
0
 10
97.839832000000015
 20
79.137978000000004
 30
0.0
 11
169.53983199999999
 21
79.137978000000004
 31
0.0
  0
LINE
  5
143
  8
0
 10
97.03983199999999
 20
51.81747
 30
0.0
 11
97.03983199999999
 21
86.458485999999979
 31
0.0
  0
LINE
  5
144
  8
0
 10
85.984318999999985
 20
51.81747
 30
0.0
 11
97.03983199999999
 21
51.81747
 31
0.0
  0
LINE
  5
145
  8
0
 10
86.168253000000007
 20
60.477724000000002
 30
0.0
 11
97.03983199999999
 21
60.477724000000002
 31
0.0
  0
LINE
  5
146
  8
0
 10
86.168253000000007
 20
77.798231999999999
 30
0.0
 11
97.03983199999999
 21
77.798231999999999
 31
0.0
  0
LINE
  5
147
  8
0
 10
85.984318999999985
 20
86.458485999999979
 30
0.0
 11
97.03983199999999
 21
86.458485999999979
 31
0.0
  0
ARC
  5
148
  8
0
 10
91.111152999999987
 20
82.128358999999989
 30
0.0
 40
6.5713210000000011
 50
169.068635
 51
221.21932200000001
  0
ARC
  5
149
  8
0
 10
91.111152999999987
 20
56.147596999999998
 30
0.0
 40
6.5713210000000011
 50
138.78067799999999
 51
190.931365
  0
ARC
  5
14A
  8
0
 10
108.823122
 20
69.137978000000004
 30
0.0
 40
24.253723000000001
 50
159.07969399999999
 51
200.92030600000001
  0
LINE
  5
14B
  8
3
 10
170.78992600000001
 20
77.887884
 30
0.0
 11
100.039832
 21
77.887884
 31
0.0
  0
LINE
  5
14C
  8
0
 10
100.039832
 20
79.137978000000004
 30
0.0
 11
100.039832
 21
59.137978000000011
 31
0.0
  0
LINE
  5
14D
  8
3
 10
97.874606000000014
 20
79.137978000000004
 30
0.0
 11
100.039832
 21
77.887884
 31
0.0
  0
LINE
  5
14E
  8
3
 10
97.874606000000014
 20
59.137978000000011
 30
0.0
 11
100.039832
 21
60.388071999999987
 31
0.0
  0
LINE
  5
14F
  8
3
 10
170.78992600000001
 20
60.388071999999987
 30
0.0
 11
100.039832
 21
60.388071999999987
 31
0.0
  0
INSERT
  5
150
  8
0
  2
NM20B
 10
123.337903
 20
69.137978000000004
 30
0.0
  0
INSERT
  5
151
  8
4
  2
STDGX5
 10
0.0
 20
0.0
 30
0.0
  0
LINE
  5
152
  8
1
 10
74.53983199999999
 20
69.137978000000004
 30
0.0
 11
179.53983199999999
 21
69.137978000000004
 31
0.0
  0
TEXT
  5
320
  8
0
 62
     3
 10
0.0
 20
0.0
 30
0.0
 40
10.0
  1
BJ732-20075
  7
STANDARD1
  0
ENDSEC
  0
EOF
