  0
SECTION
  2
HEADER
  9
$ACADVER
  1
AC1009
  9
$INSBASE
 10
0.0
 20
0.0
 30
0.0
  9
$EXTMIN
 10
0.0
 20
-1.4802182810368341
 30
0.0
  9
$EXTMAX
 10
129.0
 20
111.0
 30
0.0
  9
$LIMMIN
 10
0.0
 20
0.0
  9
$LIMMAX
 10
187.5
 20
135.0
  9
$ORTHOMODE
 70
     1
  9
$REGENMODE
 70
     1
  9
$FILLMODE
 70
     1
  9
$QTEXTMODE
 70
     0
  9
$MIRRTEXT
 70
     0
  9
$DRAGMODE
 70
     2
  9
$LTSCALE
 40
5.0
  9
$OSMODE
 70
  3071
  9
$ATTMODE
 70
     1
  9
$TEXTSIZE
 40
0.2
  9
$TRACEWID
 40
0.05
  9
$TEXTSTYLE
  7
STANDARD
  9
$CLAYER
  8
0
  9
$CELTYPE
  6
BYLAYER
  9
$CECOLOR
 62
   256
  9
$DIMSCALE
 40
0.5
  9
$DIMASZ
 40
3.0
  9
$DIMEXO
 40
2.0
  9
$DIMDLI
 40
0.38
  9
$DIMRND
 40
0.0
  9
$DIMDLE
 40
0.0
  9
$DIMEXE
 40
2.0
  9
$DIMTP
 40
0.0
  9
$DIMTM
 40
0.0
  9
$DIMTXT
 40
3.0
  9
$DIMCEN
 40
0.0
  9
$DIMTSZ
 40
0.0
  9
$DIMTOL
 70
     0
  9
$DIMLIM
 70
     0
  9
$DIMTIH
 70
     0
  9
$DIMTOH
 70
     0
  9
$DIMSE1
 70
     0
  9
$DIMSE2
 70
     0
  9
$DIMTAD
 70
     1
  9
$DIMZIN
 70
     0
  9
$DIMBLK
  1

  9
$DIMASO
 70
     0
  9
$DIMSHO
 70
     0
  9
$DIMPOST
  1

  9
$DIMAPOST
  1

  9
$DIMALT
 70
     0
  9
$DIMALTD
 70
     2
  9
$DIMALTF
 40
25.399999999999999
  9
$DIMLFAC
 40
1.0
  9
$DIMTOFL
 70
     1
  9
$DIMTVP
 40
1.6000000000000001
  9
$DIMTIX
 70
     1
  9
$DIMSOXD
 70
     0
  9
$DIMSAH
 70
     0
  9
$DIMBLK1
  1

  9
$DIMBLK2
  1

  9
$DIMSTYLE
  2
STANDARD
  9
$DIMCLRD
 70
     0
  9
$DIMCLRE
 70
     0
  9
$DIMCLRT
 70
     0
  9
$DIMTFAC
 40
1.0
  9
$DIMGAP
 40
0.09
  9
$LUNITS
 70
     2
  9
$LUPREC
 70
     4
  9
$SKETCHINC
 40
0.1
  9
$FILLETRAD
 40
0.0
  9
$AUNITS
 70
     0
  9
$AUPREC
 70
     4
  9
$MENU
  1
E:\r13\win\SUPPORT\ACAD
  9
$ELEVATION
 40
0.0
  9
$PELEVATION
 40
0.0
  9
$THICKNESS
 40
0.0
  9
$LIMCHECK
 70
     0
  9
$BLIPMODE
 70
     0
  9
$CHAMFERA
 40
0.0
  9
$CHAMFERB
 40
0.0
  9
$SKPOLY
 70
     0
  9
$TDCREATE
 40
2449840.353298611
  9
$TDUPDATE
 40
2456597.7027568519
  9
$TDINDWG
 40
0.0003788657
  9
$TDUSRTIMER
 40
0.0003788657
  9
$USRTIMER
 70
     1
  9
$ANGBASE
 50
0.0
  9
$ANGDIR
 70
     0
  9
$PDMODE
 70
     0
  9
$PDSIZE
 40
0.0
  9
$PLINEWID
 40
0.0
  9
$COORDS
 70
     1
  9
$SPLFRAME
 70
     0
  9
$SPLINETYPE
 70
     6
  9
$SPLINESEGS
 70
     8
  9
$ATTDIA
 70
     0
  9
$ATTREQ
 70
     1
  9
$HANDLING
 70
     1
  9
$HANDSEED
  5
248
  9
$SURFTAB1
 70
     6
  9
$SURFTAB2
 70
     6
  9
$SURFTYPE
 70
     6
  9
$SURFU
 70
     6
  9
$SURFV
 70
     6
  9
$UCSNAME
  2

  9
$UCSORG
 10
0.0
 20
0.0
 30
0.0
  9
$UCSXDIR
 10
1.0
 20
0.0
 30
0.0
  9
$UCSYDIR
 10
0.0
 20
1.0
 30
0.0
  9
$PUCSNAME
  2

  9
$PUCSORG
 10
0.0
 20
0.0
 30
0.0
  9
$PUCSXDIR
 10
1.0
 20
0.0
 30
0.0
  9
$PUCSYDIR
 10
0.0
 20
1.0
 30
0.0
  9
$USERI1
 70
     3
  9
$USERI2
 70
     1
  9
$USERI3
 70
     0
  9
$USERI4
 70
     0
  9
$USERI5
 70
     0
  9
$USERR1
 40
0.5
  9
$USERR2
 40
3.0
  9
$USERR3
 40
3.0
  9
$USERR4
 40
3.0
  9
$USERR5
 40
10.0
  9
$WORLDVIEW
 70
     1
  9
$SHADEDGE
 70
     3
  9
$SHADEDIF
 70
    70
  9
$TILEMODE
 70
     1
  9
$MAXACTVP
 70
    16
  9
$PLIMCHECK
 70
     0
  9
$PEXTMIN
 10
1.0000000000000000E+020
 20
1.0000000000000000E+020
 30
1.0000000000000000E+020
  9
$PEXTMAX
 10
-1.0000000000000000E+020
 20
-1.0000000000000000E+020
 30
-1.0000000000000000E+020
  9
$PLIMMIN
 10
0.0
 20
0.0
  9
$PLIMMAX
 10
12.0
 20
9.0
  9
$UNITMODE
 70
     0
  9
$VISRETAIN
 70
     0
  9
$PLINEGEN
 70
     0
  9
$PSLTSCALE
 70
     0
  0
ENDSEC
  0
SECTION
  2
TABLES
  0
TABLE
  2
VPORT
 70
     1
  0
VPORT
  2
*ACTIVE
 70
     0
 10
0.0
 20
0.0
 11
1.0
 21
1.0
 12
97.52905416604365
 22
66.75636307133405
 13
0.0
 23
0.0
 14
5.0
 24
5.0
 15
10.0
 25
10.0
 16
0.0
 26
0.0
 36
1.0
 17
0.0
 27
0.0
 37
0.0
 40
137.71137496815999
 41
1.831871345029239
 42
50.0
 43
0.0
 44
0.0
 50
0.0
 51
0.0
 71
     0
 72
   100
 73
     1
 74
     0
 75
     0
 76
     0
 77
     0
 78
     2
  0
ENDTAB
  0
TABLE
  2
LTYPE
 70
     4
  0
LTYPE
  2
CONTINUOUS
 70
     0
  3
Solid Line
 72
    65
 73
     0
 40
0.0
  0
LTYPE
  2
CENTER
 70
     0
  3
____ _ ____ _ ____ _ ____ _ ____ _ ____ _ ____
 72
    65
 73
     4
 40
2.0
 49
1.25
 49
-0.25
 49
0.25
 49
-0.25
  0
LTYPE
  2
HIDDEN
 70
     0
  3
__ __ __ __ __ __ __ __ __ __ __ __ __ __ __ __
 72
    65
 73
     2
 40
0.375
 49
0.25
 49
-0.125
  0
LTYPE
  2
PHANTOM2
 70
     0
  3
___ _ _ ___ _ _ ___ _ _ ___ _ _
 72
    65
 73
     6
 40
1.25
 49
0.625
 49
-0.125
 49
0.125
 49
-0.125
 49
0.125
 49
-0.125
  0
ENDTAB
  0
TABLE
  2
LAYER
 70
     4
  0
LAYER
  2
0
 70
     0
 62
     7
  6
CONTINUOUS
  0
LAYER
  2
1
 70
     0
 62
     1
  6
CENTER
  0
LAYER
  2
2
 70
     0
 62
     2
  6
HIDDEN
  0
LAYER
  2
3
 70
     0
 62
     3
  6
CONTINUOUS
  0
ENDTAB
  0
TABLE
  2
STYLE
 70
     2
  0
STYLE
  2
STANDARD
 70
     0
 40
0.0
 41
1.0
 50
0.0
 71
     0
 42
0.2
  3
TXT
  4
BIGFONT
  0
STYLE
  2
STANDARD1
 70
     0
 40
0.0
 41
1.0
 50
0.0
 71
     0
 42
3.0
  3
txt
  4

  0
ENDTAB
  0
TABLE
  2
VIEW
 70
     0
  0
ENDTAB
  0
TABLE
  2
UCS
 70
     0
  0
ENDTAB
  0
TABLE
  2
APPID
 70
     3
  0
APPID
  2
ACAD
 70
     0
  0
APPID
  2
ACAD_MLEADERVER
 70
     0
  0
APPID
  2
ACAD_NAV_VCDISPLAY
 70
     0
  0
ENDTAB
  0
TABLE
  2
DIMSTYLE
 70
     1
  0
DIMSTYLE
  2
STANDARD
 70
     0
  3

  4

  5

  6

  7

 40
1.0
 41
0.18
 42
0.0625
 43
0.38
 44
0.18
 45
0.0
 46
0.0
 47
0.0
 48
0.0
140
0.18
141
0.09
142
0.0
143
25.399999999999999
144
1.0
145
0.0
146
1.0
147
0.09
 71
     0
 72
     0
 73
     1
 74
     1
 75
     0
 76
     0
 77
     0
 78
     0
170
     0
171
     2
172
     0
173
     0
174
     0
175
     0
176
     0
177
     0
178
     0
  0
ENDTAB
  0
ENDSEC
  0
SECTION
  2
BLOCKS
  0
BLOCK
  8
0
  2
$MODEL_SPACE
 70
     0
 10
0.0
 20
0.0
 30
0.0
  3
$MODEL_SPACE
  1

  0
ENDBLK
  5
100
  8
0
  0
BLOCK
 67
     1
  8
0
  2
$PAPER_SPACE
 70
     0
 10
0.0
 20
0.0
 30
0.0
  3
$PAPER_SPACE
  1

  0
ENDBLK
  5
FE
 67
     1
  8
0
  0
BLOCK
  8
0
  2
B741018B
 70
     0
 10
0.0
 20
0.0
 30
0.0
  3
B741018B
  1

  0
ARC
  5
39
  8
0
 10
5.4375
 20
9.0
 30
0.0
 40
3.0256219999999998
 50
53.198082999999997
 51
53.198082999999997
  0
LINE
  5
3A
  8
0
 10
7.25
 20
11.422650000000001
 30
0.0
 11
6.25
 21
12.0
 31
0.0
  0
LINE
  5
3B
  8
0
 10
-7.25
 20
11.422650000000001
 30
0.0
 11
-6.25
 21
12.0
 31
0.0
  0
ARC
  5
3C
  8
0
 10
-5.4375
 20
9.0
 30
0.0
 40
3.0256219999999998
 50
53.198082999999997
 51
113.198083
  0
ARC
  5
3D
  8
0
 10
-5.4375
 20
9.0
 30
0.0
 40
3.0256219999999998
 50
126.801917
 51
126.801917
  0
LINE
  5
3E
  8
0
 10
-6.25
 20
12.0
 30
0.0
 11
6.25
 21
12.0
 31
0.0
  0
LINE
  5
3F
  8
0
 10
7.25
 20
11.422650000000001
 30
0.0
 11
7.25
 21
3.8999999999999999
 31
0.0
  0
LINE
  5
40
  8
0
 10
9.0
 20
3.0
 30
0.0
 11
9.0
 21
1.7
 31
0.0
  0
LINE
  5
41
  8
0
 10
-3.625
 20
11.422650000000001
 30
0.0
 11
-3.625
 21
3.5
 31
0.0
  0
LINE
  5
42
  8
0
 10
-9.0
 20
3.0
 30
0.0
 11
-9.0
 21
1.7
 31
0.0
  0
LINE
  5
43
  8
0
 10
-8.5
 20
3.5
 30
0.0
 11
8.5
 21
3.5
 31
0.0
  0
ARC
  5
44
  8
0
 10
0.0
 20
0.33121
 30
0.0
 40
11.66879
 50
90.0
 51
108.098873
  0
LINE
  5
45
  8
1
 10
0.0
 20
17.0
 30
0.0
 11
0.0
 21
-5.0
 31
0.0
  0
ARC
  5
46
  8
0
 10
7.6500000000000004
 20
3.8999999999999999
 30
0.0
 40
0.4
 50
180.0
 51
270.0
  0
LINE
  5
47
  8
0
 10
-7.25
 20
11.422650000000001
 30
0.0
 11
-7.25
 21
3.8999999999999999
 31
0.0
  0
ARC
  5
48
  8
0
 10
-7.6500000000000004
 20
3.8999999999999999
 30
0.0
 40
0.4
 50
270.0
 51
0.0
  0
LINE
  5
49
  8
0
 10
9.0
 20
3.0
 30
0.0
 11
8.5
 21
3.5
 31
0.0
  0
LINE
  5
4A
  8
0
 10
-8.5
 20
3.5
 30
0.0
 11
-9.0
 21
3.0
 31
0.0
  0
ARC
  5
4B
  8
0
 10
0.0
 20
21.699999999999999
 30
0.0
 40
21.931712000000001
 50
278.33602300000001
 51
294.22774500000003
  0
LINE
  5
4C
  8
0
 10
3.179622999999999
 20
0.0
 30
0.0
 11
-3.179622999999999
 21
0.0
 31
0.0
  0
ARC
  5
4D
  8
0
 10
0.0
 20
21.699999999999999
 30
0.0
 40
21.931712000000001
 50
245.772255
 51
261.66397699999999
  0
LINE
  5
4E
  8
0
 10
-9.0
 20
1.7
 30
0.0
 11
9.0
 21
1.7
 31
0.0
  0
ARC
  5
4F
  8
0
 10
0.0
 20
0.33121
 30
0.0
 40
11.66879
 50
71.901127000000002
 51
90.0
  0
LINE
  5
50
  8
0
 10
3.625
 20
11.422650000000001
 30
0.0
 11
3.625
 21
3.5
 31
0.0
  0
ARC
  5
51
  8
0
 10
5.4375
 20
9.0
 30
0.0
 40
3.0256219999999998
 50
66.801917000000003
 51
126.801917
  0
ENDBLK
  5
52
  8
0
  0
BLOCK
  8
0
  2
B741018C
 70
     0
 10
0.0
 20
0.0
 30
0.0
  3
B741018C
  1

  0
ARC
  5
54
  8
0
 10
6.8999689999999996
 20
3.8999999999999999
 30
0.0
 40
0.4
 50
180.0
 51
270.0
  0
LINE
  5
55
  8
0
 10
-0.000031
 20
11.275105999999999
 30
0.0
 11
-0.000031
 21
7.724893999999999
 31
0.0
  0
ARC
  5
56
  8
0
 10
3.2499689999999992
 20
4.3520059999999994
 30
0.0
 40
7.6479939999999997
 50
64.852624000000006
 51
115.14737599999999
  0
ARC
  5
57
  8
0
 10
-3.2500309999999999
 20
4.3520059999999994
 30
0.0
 40
7.6479939999999997
 50
64.852624000000006
 51
115.14737599999999
  0
LINE
  5
58
  8
0
 10
6.0999689999999998
 20
12.0
 30
0.0
 11
6.4999690000000001
 21
11.6
 31
0.0
  0
LINE
  5
59
  8
0
 10
-6.1000309999999986
 20
12.0
 30
0.0
 11
-6.500030999999999
 21
11.6
 31
0.0
  0
LINE
  5
5A
  8
0
 10
6.0999689999999998
 20
12.0
 30
0.0
 11
-6.1000309999999986
 21
12.0
 31
0.0
  0
LINE
  5
5B
  8
0
 10
6.4999690000000001
 20
3.8999999999999999
 30
0.0
 11
6.4999690000000001
 21
11.6
 31
0.0
  0
LINE
  5
5C
  8
0
 10
-0.000031
 20
11.275105999999999
 30
0.0
 11
-0.000031
 21
3.5
 31
0.0
  0
LINE
  5
5D
  8
0
 10
-6.500036999999999
 20
3.8999999999999999
 30
0.0
 11
-6.500036999999999
 21
11.6
 31
0.0
  0
ARC
  5
5E
  8
0
 10
-6.9000369999999993
 20
3.8999999999999999
 30
0.0
 40
0.4
 50
270.0
 51
0.0
  0
LINE
  5
5F
  8
0
 10
9.0
 20
3.0
 30
0.0
 11
9.0
 21
1.7
 31
0.0
  0
LINE
  5
60
  8
0
 10
-9.0
 20
3.0
 30
0.0
 11
-9.0
 21
1.7
 31
0.0
  0
LINE
  5
61
  8
0
 10
-8.5
 20
3.5
 30
0.0
 11
8.5
 21
3.5
 31
0.0
  0
LINE
  5
62
  8
1
 10
0.0
 20
17.0
 30
0.0
 11
0.0
 21
-5.0
 31
0.0
  0
LINE
  5
63
  8
0
 10
9.0
 20
3.0
 30
0.0
 11
8.5
 21
3.5
 31
0.0
  0
LINE
  5
64
  8
0
 10
-8.5
 20
3.5
 30
0.0
 11
-9.0
 21
3.0
 31
0.0
  0
ARC
  5
65
  8
0
 10
0.0
 20
21.699999999999999
 30
0.0
 40
21.931712000000001
 50
278.33602300000001
 51
294.22774500000003
  0
LINE
  5
66
  8
0
 10
3.179622999999999
 20
0.0
 30
0.0
 11
-3.179622999999999
 21
0.0
 31
0.0
  0
ARC
  5
67
  8
0
 10
0.0
 20
21.699999999999999
 30
0.0
 40
21.931712000000001
 50
245.772255
 51
261.66397699999999
  0
LINE
  5
68
  8
0
 10
-9.0
 20
1.7
 30
0.0
 11
9.0
 21
1.7
 31
0.0
  0
ENDBLK
  5
69
  8
0
  0
BLOCK
  8
0
  2
598B
 70
     0
 10
65.0
 20
37.991007000000003
 30
0.0
  3
598B
  1

  0
LINE
  5
6B
  8
1
 10
65.0
 20
43.991007000000003
 30
0.0
 11
65.0
 21
34.991007000000003
 31
0.0
  0
LINE
  5
6C
  8
2
 10
60.25
 20
38.49100700000001
 30
0.0
 11
69.75
 21
38.49100700000001
 31
0.0
  0
LINE
  5
6D
  8
2
 10
60.25
 20
39.717111000000003
 30
0.0
 11
69.75
 21
39.717111000000003
 31
0.0
  0
LINE
  5
6E
  8
2
 10
60.25
 20
38.49100700000001
 30
0.0
 11
59.75
 21
37.991007000000003
 31
0.0
  0
LINE
  5
6F
  8
2
 10
60.25
 20
39.717111000000003
 30
0.0
 11
60.25
 21
38.49100700000001
 31
0.0
  0
LINE
  5
70
  8
2
 10
56.75
 20
40.991007000000003
 30
0.0
 11
60.25
 21
39.717111000000003
 31
0.0
  0
LINE
  5
71
  8
2
 10
69.75
 20
38.49100700000001
 30
0.0
 11
70.25
 21
37.991007000000003
 31
0.0
  0
LINE
  5
72
  8
2
 10
69.75
 20
39.717111000000003
 30
0.0
 11
69.75
 21
38.49100700000001
 31
0.0
  0
LINE
  5
73
  8
2
 10
73.25
 20
40.991007000000003
 30
0.0
 11
69.75
 21
39.717111000000003
 31
0.0
  0
LINE
  5
74
  8
0
 10
74.0
 20
40.491007000000003
 30
0.0
 11
73.5
 21
40.991007000000003
 31
0.0
  0
LINE
  5
75
  8
0
 10
73.5
 20
37.991007000000003
 30
0.0
 11
74.0
 21
38.49100700000001
 31
0.0
  0
LINE
  5
76
  8
0
 10
56.0
 20
38.49100700000001
 30
0.0
 11
56.5
 21
37.991007000000003
 31
0.0
  0
LINE
  5
77
  8
0
 10
56.5
 20
40.991007000000003
 30
0.0
 11
56.0
 21
40.491007000000003
 31
0.0
  0
LINE
  5
78
  8
0
 10
56.0
 20
38.49100700000001
 30
0.0
 11
56.0
 21
40.491007000000003
 31
0.0
  0
LINE
  5
79
  8
0
 10
73.5
 20
37.991007000000003
 30
0.0
 11
56.5
 21
37.991007000000003
 31
0.0
  0
LINE
  5
7A
  8
0
 10
74.0
 20
40.491007000000003
 30
0.0
 11
74.0
 21
38.49100700000001
 31
0.0
  0
LINE
  5
7B
  8
0
 10
56.5
 20
40.991007000000003
 30
0.0
 11
73.5
 21
40.991007000000003
 31
0.0
  0
ENDBLK
  5
7C
  8
0
  0
ENDSEC
  0
SECTION
  2
ENTITIES
  0
CIRCLE
  5
7D
  8
0
 10
80.0
 20
95.0
 30
0.0
 40
6.25
  0
ARC
  5
7E
  8
0
 10
80.0
 20
95.0
 30
0.0
 40
7.25
 50
356.29155500000002
 51
3.7084450000000002
  0
ARC
  5
7F
  8
0
 10
80.0
 20
95.0
 30
0.0
 40
7.25
 50
296.2915549999999
 51
303.70844499999998
  0
ARC
  5
80
  8
0
 10
80.0
 20
95.0
 30
0.0
 40
7.25
 50
236.29155499999999
 51
243.70844500000001
  0
ARC
  5
81
  8
0
 10
80.0
 20
95.0
 30
0.0
 40
7.25
 50
176.29155499999999
 51
183.70844500000001
  0
ARC
  5
82
  8
0
 10
80.0
 20
95.0
 30
0.0
 40
7.25
 50
116.291555
 51
123.708445
  0
ARC
  5
83
  8
0
 10
80.0
 20
95.0
 30
0.0
 40
7.25
 50
56.291555000000002
 51
63.708444999999998
  0
LINE
  5
84
  8
0
 10
76.788691999999998
 20
88.499999999999986
 30
0.0
 11
83.211308000000002
 21
88.499999999999986
 31
0.0
  0
LINE
  5
85
  8
0
 10
72.765181000000013
 20
94.531074000000004
 30
0.0
 11
75.976489000000001
 21
88.968925999999996
 31
0.0
  0
LINE
  5
86
  8
0
 10
75.976489000000001
 20
101.031074
 30
0.0
 11
72.765181000000013
 21
95.468925999999996
 31
0.0
  0
LINE
  5
87
  8
0
 10
83.211308000000002
 20
101.5
 30
0.0
 11
76.788691999999998
 21
101.5
 31
0.0
  0
LINE
  5
88
  8
0
 10
87.234818999999987
 20
95.468925999999996
 30
0.0
 11
84.023510999999999
 21
101.031074
 31
0.0
  0
LINE
  5
89
  8
0
 10
84.023510999999999
 20
88.968925999999996
 30
0.0
 11
87.234818999999987
 21
94.531074000000004
 31
0.0
  0
CIRCLE
  5
8A
  8
3
 10
80.0
 20
95.0
 30
0.0
 40
4.0
  0
CIRCLE
  5
8B
  8
0
 10
80.0
 20
95.0
 30
0.0
 40
3.399999999999999
  0
CIRCLE
  5
8C
  8
0
 10
80.0
 20
95.0
 30
0.0
 40
9.0
  0
LINE
  5
8D
  8
1
 10
96.0
 20
95.0
 30
0.0
 11
64.0
 21
95.0
 31
0.0
  0
LINE
  5
8E
  8
1
 10
80.0
 20
111.0
 30
0.0
 11
80.0
 21
79.0
 31
0.0
  0
INSERT
  5
98
  8
0
  2
598B
 10
80.0
 20
45.0
 30
0.0
  0
INSERT
  5
99
  8
0
  2
B741018B
 10
80.0
 20
46.631747999999988
 30
0.0
  0
INSERT
  5
9A
  8
0
  2
598B
 10
120.0
 20
45.0
 30
0.0
  0
INSERT
  5
9B
  8
0
  2
B741018C
 10
120.0
 20
46.631747999999988
 30
0.0
  0
TEXT
  5
1B9
  8
0
 62
     3
 10
0.0
 20
0.0
 30
0.0
 40
5.0
  1
BJ739-08001
  7
STANDARD1
  0
ENDSEC
  0
EOF
