  0
SECTION
  2
HEADER
  9
$ACADVER
  1
AC1009
  9
$INSBASE
 10
0.0
 20
0.0
 30
0.0
  9
$EXTMIN
 10
0.0
 20
-2.960436562073669
 30
0.0
  9
$EXTMAX
 10
123.5045601362657
 20
110.08279754633659
 30
0.0
  9
$LIMMIN
 10
0.0
 20
0.0
  9
$LIMMAX
 10
187.5
 20
135.0
  9
$ORTHOMODE
 70
     1
  9
$REGENMODE
 70
     1
  9
$FILLMODE
 70
     1
  9
$QTEXTMODE
 70
     0
  9
$MIRRTEXT
 70
     0
  9
$DRAGMODE
 70
     2
  9
$LTSCALE
 40
5.0
  9
$OSMODE
 70
  3071
  9
$ATTMODE
 70
     1
  9
$TEXTSIZE
 40
0.2
  9
$TRACEWID
 40
0.05
  9
$TEXTSTYLE
  7
STANDARD
  9
$CLAYER
  8
0
  9
$CELTYPE
  6
BYLAYER
  9
$CECOLOR
 62
   256
  9
$DIMSCALE
 40
0.5
  9
$DIMASZ
 40
3.0
  9
$DIMEXO
 40
2.0
  9
$DIMDLI
 40
0.38
  9
$DIMRND
 40
0.0
  9
$DIMDLE
 40
0.0
  9
$DIMEXE
 40
2.0
  9
$DIMTP
 40
0.0
  9
$DIMTM
 40
0.0
  9
$DIMTXT
 40
3.2000000000000002
  9
$DIMCEN
 40
0.0
  9
$DIMTSZ
 40
0.0
  9
$DIMTOL
 70
     0
  9
$DIMLIM
 70
     0
  9
$DIMTIH
 70
     0
  9
$DIMTOH
 70
     0
  9
$DIMSE1
 70
     0
  9
$DIMSE2
 70
     0
  9
$DIMTAD
 70
     1
  9
$DIMZIN
 70
     0
  9
$DIMBLK
  1

  9
$DIMASO
 70
     0
  9
$DIMSHO
 70
     0
  9
$DIMPOST
  1

  9
$DIMAPOST
  1

  9
$DIMALT
 70
     0
  9
$DIMALTD
 70
     2
  9
$DIMALTF
 40
25.399999999999999
  9
$DIMLFAC
 40
1.0
  9
$DIMTOFL
 70
     1
  9
$DIMTVP
 40
1.6000000000000001
  9
$DIMTIX
 70
     1
  9
$DIMSOXD
 70
     0
  9
$DIMSAH
 70
     0
  9
$DIMBLK1
  1

  9
$DIMBLK2
  1

  9
$DIMSTYLE
  2
STANDARD
  9
$DIMCLRD
 70
     0
  9
$DIMCLRE
 70
     0
  9
$DIMCLRT
 70
     0
  9
$DIMTFAC
 40
1.0
  9
$DIMGAP
 40
0.09
  9
$LUNITS
 70
     2
  9
$LUPREC
 70
     4
  9
$SKETCHINC
 40
0.1
  9
$FILLETRAD
 40
0.0
  9
$AUNITS
 70
     0
  9
$AUPREC
 70
     4
  9
$MENU
  1
E:\r13\win\SUPPORT\ACAD
  9
$ELEVATION
 40
0.0
  9
$PELEVATION
 40
0.0
  9
$THICKNESS
 40
0.0
  9
$LIMCHECK
 70
     0
  9
$BLIPMODE
 70
     0
  9
$CHAMFERA
 40
0.0
  9
$CHAMFERB
 40
0.0
  9
$SKPOLY
 70
     0
  9
$TDCREATE
 40
2449839.770092593
  9
$TDUPDATE
 40
2456597.7129949769
  9
$TDINDWG
 40
0.0005840278
  9
$TDUSRTIMER
 40
0.0005840278
  9
$USRTIMER
 70
     1
  9
$ANGBASE
 50
0.0
  9
$ANGDIR
 70
     0
  9
$PDMODE
 70
     0
  9
$PDSIZE
 40
0.0
  9
$PLINEWID
 40
0.0
  9
$COORDS
 70
     1
  9
$SPLFRAME
 70
     0
  9
$SPLINETYPE
 70
     6
  9
$SPLINESEGS
 70
     8
  9
$ATTDIA
 70
     0
  9
$ATTREQ
 70
     1
  9
$HANDLING
 70
     1
  9
$HANDSEED
  5
278
  9
$SURFTAB1
 70
     6
  9
$SURFTAB2
 70
     6
  9
$SURFTYPE
 70
     6
  9
$SURFU
 70
     6
  9
$SURFV
 70
     6
  9
$UCSNAME
  2

  9
$UCSORG
 10
0.0
 20
0.0
 30
0.0
  9
$UCSXDIR
 10
1.0
 20
0.0
 30
0.0
  9
$UCSYDIR
 10
0.0
 20
1.0
 30
0.0
  9
$PUCSNAME
  2

  9
$PUCSORG
 10
0.0
 20
0.0
 30
0.0
  9
$PUCSXDIR
 10
1.0
 20
0.0
 30
0.0
  9
$PUCSYDIR
 10
0.0
 20
1.0
 30
0.0
  9
$USERI1
 70
     0
  9
$USERI2
 70
     1
  9
$USERI3
 70
     0
  9
$USERI4
 70
     0
  9
$USERI5
 70
     0
  9
$USERR1
 40
0.0
  9
$USERR2
 40
0.0
  9
$USERR3
 40
0.0
  9
$USERR4
 40
0.0
  9
$USERR5
 40
0.0
  9
$WORLDVIEW
 70
     1
  9
$SHADEDGE
 70
     3
  9
$SHADEDIF
 70
    70
  9
$TILEMODE
 70
     1
  9
$MAXACTVP
 70
    16
  9
$PLIMCHECK
 70
     0
  9
$PEXTMIN
 10
1.0000000000000000E+020
 20
1.0000000000000000E+020
 30
1.0000000000000000E+020
  9
$PEXTMAX
 10
-1.0000000000000000E+020
 20
-1.0000000000000000E+020
 30
-1.0000000000000000E+020
  9
$PLIMMIN
 10
0.0
 20
0.0
  9
$PLIMMAX
 10
12.0
 20
9.0
  9
$UNITMODE
 70
     0
  9
$VISRETAIN
 70
     0
  9
$PLINEGEN
 70
     0
  9
$PSLTSCALE
 70
     0
  0
ENDSEC
  0
SECTION
  2
TABLES
  0
TABLE
  2
VPORT
 70
     1
  0
VPORT
  2
*ACTIVE
 70
     0
 10
0.0
 20
0.0
 11
1.0
 21
1.0
 12
97.570150770051072
 22
66.014785922033241
 13
0.0
 23
0.0
 14
5.0
 24
5.0
 15
5.0
 25
5.0
 16
0.0
 26
0.0
 36
1.0
 17
0.0
 27
0.0
 37
0.0
 40
139.20783109903601
 41
1.831871345029239
 42
50.0
 43
0.0
 44
0.0
 50
0.0
 51
0.0
 71
     0
 72
   500
 73
     1
 74
     0
 75
     0
 76
     0
 77
     0
 78
     2
  0
ENDTAB
  0
TABLE
  2
LTYPE
 70
     3
  0
LTYPE
  2
CONTINUOUS
 70
     0
  3
Solid Line
 72
    65
 73
     0
 40
0.0
  0
LTYPE
  2
CENTER
 70
     0
  3
____ _ ____ _ ____ _ ____ _ ____ _ ____ _ ____
 72
    65
 73
     4
 40
2.0
 49
1.25
 49
-0.25
 49
0.25
 49
-0.25
  0
LTYPE
  2
PHANTOM2
 70
     0
  3
___ _ _ ___ _ _ ___ _ _ ___ _ _
 72
    65
 73
     6
 40
1.25
 49
0.625
 49
-0.125
 49
0.125
 49
-0.125
 49
0.125
 49
-0.125
  0
ENDTAB
  0
TABLE
  2
LAYER
 70
     3
  0
LAYER
  2
0
 70
     0
 62
     7
  6
CONTINUOUS
  0
LAYER
  2
1
 70
     0
 62
     1
  6
CENTER
  0
LAYER
  2
3
 70
     0
 62
     3
  6
CONTINUOUS
  0
ENDTAB
  0
TABLE
  2
STYLE
 70
     2
  0
STYLE
  2
STANDARD
 70
     0
 40
0.0
 41
1.0
 50
0.0
 71
     0
 42
0.2
  3
TXT
  4
BIGFONT
  0
STYLE
  2
STANDARD1
 70
     0
 40
0.0
 41
1.0
 50
0.0
 71
     0
 42
3.0
  3
txt
  4

  0
ENDTAB
  0
TABLE
  2
VIEW
 70
     1
  0
VIEW
  2
ALL
 70
     0
 40
135.0
 10
110.4957983193277
 20
67.5
 41
0.0
 11
0.0
 21
0.0
 31
1.0
 12
0.0
 22
0.0
 32
0.0
 42
0.0
 43
0.0
 44
0.0
 50
0.0
 71
     0
  0
ENDTAB
  0
TABLE
  2
UCS
 70
     0
  0
ENDTAB
  0
TABLE
  2
APPID
 70
     3
  0
APPID
  2
ACAD
 70
     0
  0
APPID
  2
ACAD_MLEADERVER
 70
     0
  0
APPID
  2
ACAD_NAV_VCDISPLAY
 70
     0
  0
ENDTAB
  0
TABLE
  2
DIMSTYLE
 70
     1
  0
DIMSTYLE
  2
STANDARD
 70
     0
  3

  4

  5

  6

  7

 40
1.0
 41
0.18
 42
0.0625
 43
0.38
 44
0.18
 45
0.0
 46
0.0
 47
0.0
 48
0.0
140
0.18
141
0.09
142
0.0
143
25.399999999999999
144
1.0
145
0.0
146
1.0
147
0.09
 71
     0
 72
     0
 73
     1
 74
     1
 75
     0
 76
     0
 77
     0
 78
     0
170
     0
171
     2
172
     0
173
     0
174
     0
175
     0
176
     0
177
     0
178
     0
  0
ENDTAB
  0
ENDSEC
  0
SECTION
  2
BLOCKS
  0
BLOCK
  8
0
  2
$MODEL_SPACE
 70
     0
 10
0.0
 20
0.0
 30
0.0
  3
$MODEL_SPACE
  1

  0
ENDBLK
  5
12E
  8
0
  0
BLOCK
 67
     1
  8
0
  2
$PAPER_SPACE
 70
     0
 10
0.0
 20
0.0
 30
0.0
  3
$PAPER_SPACE
  1

  0
ENDBLK
  5
12C
 67
     1
  8
0
  0
ENDSEC
  0
SECTION
  2
ENTITIES
  0
LINE
  5
40
  8
0
 10
84.953841425757261
 20
44.160147815527097
 30
0.0
 11
84.953841425757275
 21
67.005447277147169
 31
0.0
  0
LINE
  5
41
  8
0
 10
81.328841425757034
 20
67.005447277147098
 30
0.0
 11
81.328841425757034
 21
44.160147815526912
 31
0.0
  0
LINE
  5
42
  8
0
 10
74.078841425757474
 20
67.005447277147113
 30
0.0
 11
74.078841425757474
 21
44.160147815526912
 31
0.0
  0
LINE
  5
43
  8
0
 10
70.453841425757247
 20
44.160147815527111
 30
0.0
 11
70.453841425757275
 21
67.005447277147198
 31
0.0
  0
LINE
  5
44
  8
0
 10
84.953841425757261
 20
44.160147815527061
 30
0.0
 11
83.953841425757744
 21
43.582797546337702
 31
0.0
  0
ARC
  5
45
  8
0
 10
83.141341425757147
 20
46.716501448835203
 30
0.0
 40
3.1337039024974991
 50
234.66268393191149
 51
294.6626839318194
  0
ARC
  5
46
  8
0
 10
77.703841425757275
 20
55.251587752541141
 30
0.0
 40
11.66879020620342
 50
251.90112655055799
 51
288.09887344944201
  0
ARC
  5
47
  8
0
 10
83.141341425757147
 20
46.716501448835203
 30
0.0
 40
3.1337039024974991
 50
305.33731606808692
 51
305.33731606808891
  0
ARC
  5
48
  8
0
 10
72.266341425757361
 20
46.71650144883521
 30
0.0
 40
3.1337039024974991
 50
234.662683931911
 51
234.66268393191299
  0
ARC
  5
49
  8
0
 10
72.266341425757361
 20
46.71650144883521
 30
0.0
 40
3.1337039024974991
 50
245.3373160681806
 51
305.33731606808851
  0
LINE
  5
4A
  8
0
 10
70.453841425757275
 20
44.160147815527083
 30
0.0
 11
71.453841425756792
 21
43.582797546337709
 31
0.0
  0
LINE
  5
4B
  8
0
 10
71.453841425756792
 20
43.582797546337709
 30
0.0
 11
83.953841425757744
 21
43.582797546337702
 31
0.0
  0
LINE
  5
4C
  8
0
 10
71.453841425756792
 20
67.582797546336593
 30
0.0
 11
83.953841425757759
 21
67.582797546336565
 31
0.0
  0
LINE
  5
4D
  8
0
 10
70.453841425757275
 20
67.005447277147226
 30
0.0
 11
71.453841425756792
 21
67.582797546336593
 31
0.0
  0
ARC
  5
4E
  8
0
 10
72.266341425757389
 20
64.449093643839092
 30
0.0
 40
3.1337039024974991
 50
54.662683931911467
 51
114.6626839318194
  0
ARC
  5
4F
  8
0
 10
72.266341425757389
 20
64.449093643839092
 30
0.0
 40
3.1337039024974991
 50
125.33731606808691
 51
125.337316068089
  0
LINE
  5
50
  8
0
 10
84.953841425757275
 20
67.005447277147198
 30
0.0
 11
83.953841425757759
 21
67.582797546336565
 31
0.0
  0
ARC
  5
51
  8
0
 10
83.14134142575719
 20
64.449093643839063
 30
0.0
 40
3.1337039024974991
 50
65.33731606818057
 51
125.3373160680885
  0
ARC
  5
52
  8
0
 10
77.703841425757275
 20
55.914007340133161
 30
0.0
 40
11.66879020620342
 50
71.901126550558004
 51
108.098873449442
  0
ARC
  5
53
  8
0
 10
83.14134142575719
 20
64.449093643839063
 30
0.0
 40
3.1337039024974991
 50
54.662683931911069
 51
54.662683931913101
  0
LINE
  5
54
  8
1
 10
77.703841425757247
 20
38.582797546337659
 30
0.0
 11
77.703841425757275
 21
72.582797546336636
 31
0.0
  0
LINE
  5
55
  8
0
 10
123.5045601362657
 20
67.582797546337716
 30
0.0
 11
123.5045601362657
 21
43.582797546337709
 31
0.0
  0
LINE
  5
56
  8
0
 10
110.5045601362657
 20
67.582797546337716
 30
0.0
 11
110.5045601362657
 21
43.582797546337709
 31
0.0
  0
LINE
  5
57
  8
0
 10
117.0045601362657
 20
67.005397546337733
 30
0.0
 11
117.0045601362657
 21
44.16019754633767
 31
0.0
  0
LINE
  5
58
  8
0
 10
110.5045601362657
 20
67.582797546337716
 30
0.0
 11
123.5045601362657
 21
67.582797546337716
 31
0.0
  0
ARC
  5
59
  8
0
 10
113.7545601362657
 20
58.147492073529328
 30
0.0
 40
9.4353054728084391
 50
69.851716246196375
 51
110.1482837538029
  0
ARC
  5
5A
  8
0
 10
120.2545601362656
 20
58.147492073529328
 30
0.0
 40
9.4353054728084391
 50
69.851716246196375
 51
110.1482837538029
  0
ARC
  5
5B
  8
0
 10
120.2545601362656
 20
53.018103019146061
 30
0.0
 40
9.4353054728084391
 50
249.8517162461971
 51
290.14828375380358
  0
ARC
  5
5C
  8
0
 10
113.7545601362657
 20
53.018103019146103
 30
0.0
 40
9.4353054728084391
 50
249.8517162461971
 51
290.14828375380358
  0
LINE
  5
5D
  8
0
 10
110.5045601362657
 20
43.582797546337709
 30
0.0
 11
123.5045601362657
 21
43.582797546337687
 31
0.0
  0
LINE
  5
5E
  8
1
 10
117.0045601362657
 20
72.582797546337716
 30
0.0
 11
117.0045601362657
 21
38.582797546337723
 31
0.0
  0
LINE
  5
5F
  8
0
 10
84.938658715340281
 20
98.113871978996116
 30
0.0
 11
81.727350570675085
 21
92.551723113676189
 31
0.0
  0
LINE
  5
60
  8
0
 10
70.469020321476961
 20
99.051723113675479
 30
0.0
 11
73.680328466143749
 21
104.61387197899811
 31
0.0
  0
LINE
  5
61
  8
0
 10
73.680328466143635
 20
92.551723113675536
 30
0.0
 11
70.46902032147662
 21
98.11387197899856
 31
0.0
  0
LINE
  5
62
  8
0
 10
74.492531373742381
 20
105.08279754633671
 30
0.0
 11
80.915147663074933
 21
105.08279754633671
 31
0.0
  0
LINE
  5
63
  8
0
 10
80.915147663074933
 20
92.082797546336764
 30
0.0
 11
74.492531373742409
 21
92.082797546336735
 31
0.0
  0
LINE
  5
64
  8
0
 10
81.727350570675299
 20
104.6138719789969
 30
0.0
 11
84.938658715340523
 21
99.05172311367707
 31
0.0
  0
ARC
  5
65
  8
0
 10
77.703839518408657
 20
98.582797546336764
 30
0.0
 40
7.25
 50
116.2915552747197
 51
123.70844472526321
  0
ARC
  5
66
  8
0
 10
77.703839518408657
 20
98.582797546336764
 30
0.0
 40
7.25
 50
176.29155527473711
 51
183.70844472526451
  0
ARC
  5
67
  8
0
 10
77.703839518408657
 20
98.582797546336764
 30
0.0
 40
7.25
 50
236.2915552747354
 51
243.7084447252804
  0
ARC
  5
68
  8
0
 10
77.703839518408657
 20
98.582797546336764
 30
0.0
 40
7.25
 50
296.29155527471971
 51
303.70844472527682
  0
ARC
  5
69
  8
0
 10
77.703839518408657
 20
98.582797546336764
 30
0.0
 40
7.25
 50
356.29155527472312
 51
3.7084447252800139
  0
ARC
  5
6A
  8
0
 10
77.703839518408657
 20
98.582797546336764
 30
0.0
 40
7.25
 50
56.291555274720253
 51
63.708444725280302
  0
CIRCLE
  5
6B
  8
0
 10
77.703839518408657
 20
98.582797546336764
 30
0.0
 40
6.25
  0
LINE
  5
6C
  8
1
 10
65.198286018944188
 20
98.582797546336764
 30
0.0
 11
90.209393017874334
 21
98.582797546336764
 31
0.0
  0
LINE
  5
6D
  8
1
 10
77.703839518408643
 20
87.082797546336764
 30
0.0
 11
77.703839518408643
 21
110.08279754633659
 31
0.0
  0
CIRCLE
  5
6E
  8
0
 10
77.703839518408643
 20
98.582797546337716
 30
0.0
 40
3.399999999999999
  0
CIRCLE
  5
6F
  8
3
 10
77.703839518408643
 20
98.582797546337716
 30
0.0
 40
4.0
  0
TEXT
  5
1E7
  8
0
 62
     3
 10
0.0
 20
0.0
 30
0.0
 40
10.0
  1
BJ744-08001
  7
STANDARD1
  0
ENDSEC
  0
EOF
