  0
SECTION
  2
HEADER
  9
$ACADVER
  1
AC1009
  9
$INSBASE
 10
0.0
 20
0.0
 30
0.0
  9
$EXTMIN
 10
0.0
 20
-2.960436562073669
 30
0.0
  9
$EXTMAX
 10
134.3534073864852
 20
111.2248102641821
 30
0.0
  9
$LIMMIN
 10
0.0
 20
0.0
  9
$LIMMAX
 10
187.5
 20
135.0
  9
$ORTHOMODE
 70
     1
  9
$REGENMODE
 70
     1
  9
$FILLMODE
 70
     1
  9
$QTEXTMODE
 70
     0
  9
$MIRRTEXT
 70
     0
  9
$DRAGMODE
 70
     2
  9
$LTSCALE
 40
5.0
  9
$OSMODE
 70
  3071
  9
$ATTMODE
 70
     1
  9
$TEXTSIZE
 40
0.2
  9
$TRACEWID
 40
0.05
  9
$TEXTSTYLE
  7
STANDARD
  9
$CLAYER
  8
0
  9
$CELTYPE
  6
BYLAYER
  9
$CECOLOR
 62
   256
  9
$DIMSCALE
 40
0.5
  9
$DIMASZ
 40
3.0
  9
$DIMEXO
 40
2.0
  9
$DIMDLI
 40
0.38
  9
$DIMRND
 40
0.0
  9
$DIMDLE
 40
0.0
  9
$DIMEXE
 40
2.0
  9
$DIMTP
 40
0.0
  9
$DIMTM
 40
0.0
  9
$DIMTXT
 40
3.2000000000000002
  9
$DIMCEN
 40
0.0
  9
$DIMTSZ
 40
0.0
  9
$DIMTOL
 70
     0
  9
$DIMLIM
 70
     0
  9
$DIMTIH
 70
     0
  9
$DIMTOH
 70
     0
  9
$DIMSE1
 70
     0
  9
$DIMSE2
 70
     0
  9
$DIMTAD
 70
     1
  9
$DIMZIN
 70
     0
  9
$DIMBLK
  1

  9
$DIMASO
 70
     0
  9
$DIMSHO
 70
     0
  9
$DIMPOST
  1

  9
$DIMAPOST
  1

  9
$DIMALT
 70
     0
  9
$DIMALTD
 70
     2
  9
$DIMALTF
 40
25.399999999999999
  9
$DIMLFAC
 40
1.0
  9
$DIMTOFL
 70
     1
  9
$DIMTVP
 40
1.6000000000000001
  9
$DIMTIX
 70
     1
  9
$DIMSOXD
 70
     0
  9
$DIMSAH
 70
     0
  9
$DIMBLK1
  1

  9
$DIMBLK2
  1

  9
$DIMSTYLE
  2
STANDARD
  9
$DIMCLRD
 70
     0
  9
$DIMCLRE
 70
     0
  9
$DIMCLRT
 70
     0
  9
$DIMTFAC
 40
1.0
  9
$DIMGAP
 40
0.09
  9
$LUNITS
 70
     2
  9
$LUPREC
 70
     4
  9
$SKETCHINC
 40
0.1
  9
$FILLETRAD
 40
0.0
  9
$AUNITS
 70
     0
  9
$AUPREC
 70
     4
  9
$MENU
  1
E:\r13\win\SUPPORT\ACAD
  9
$ELEVATION
 40
0.0
  9
$PELEVATION
 40
0.0
  9
$THICKNESS
 40
0.0
  9
$LIMCHECK
 70
     0
  9
$BLIPMODE
 70
     0
  9
$CHAMFERA
 40
0.0
  9
$CHAMFERB
 40
0.0
  9
$SKPOLY
 70
     0
  9
$TDCREATE
 40
2449839.7701157411
  9
$TDUPDATE
 40
2456597.7130512041
  9
$TDINDWG
 40
0.0005265394
  9
$TDUSRTIMER
 40
0.0005265394
  9
$USRTIMER
 70
     1
  9
$ANGBASE
 50
0.0
  9
$ANGDIR
 70
     0
  9
$PDMODE
 70
     0
  9
$PDSIZE
 40
0.0
  9
$PLINEWID
 40
0.0
  9
$COORDS
 70
     1
  9
$SPLFRAME
 70
     0
  9
$SPLINETYPE
 70
     6
  9
$SPLINESEGS
 70
     8
  9
$ATTDIA
 70
     0
  9
$ATTREQ
 70
     1
  9
$HANDLING
 70
     1
  9
$HANDSEED
  5
274
  9
$SURFTAB1
 70
     6
  9
$SURFTAB2
 70
     6
  9
$SURFTYPE
 70
     6
  9
$SURFU
 70
     6
  9
$SURFV
 70
     6
  9
$UCSNAME
  2

  9
$UCSORG
 10
0.0
 20
0.0
 30
0.0
  9
$UCSXDIR
 10
1.0
 20
0.0
 30
0.0
  9
$UCSYDIR
 10
0.0
 20
1.0
 30
0.0
  9
$PUCSNAME
  2

  9
$PUCSORG
 10
0.0
 20
0.0
 30
0.0
  9
$PUCSXDIR
 10
1.0
 20
0.0
 30
0.0
  9
$PUCSYDIR
 10
0.0
 20
1.0
 30
0.0
  9
$USERI1
 70
     0
  9
$USERI2
 70
     1
  9
$USERI3
 70
     0
  9
$USERI4
 70
     0
  9
$USERI5
 70
     0
  9
$USERR1
 40
0.0
  9
$USERR2
 40
0.0
  9
$USERR3
 40
0.0
  9
$USERR4
 40
0.0
  9
$USERR5
 40
0.0
  9
$WORLDVIEW
 70
     1
  9
$SHADEDGE
 70
     3
  9
$SHADEDIF
 70
    70
  9
$TILEMODE
 70
     1
  9
$MAXACTVP
 70
    16
  9
$PLIMCHECK
 70
     0
  9
$PEXTMIN
 10
1.0000000000000000E+020
 20
1.0000000000000000E+020
 30
1.0000000000000000E+020
  9
$PEXTMAX
 10
-1.0000000000000000E+020
 20
-1.0000000000000000E+020
 30
-1.0000000000000000E+020
  9
$PLIMMIN
 10
0.0
 20
0.0
  9
$PLIMMAX
 10
12.0
 20
9.0
  9
$UNITMODE
 70
     0
  9
$VISRETAIN
 70
     0
  9
$PLINEGEN
 70
     0
  9
$PSLTSCALE
 70
     0
  0
ENDSEC
  0
SECTION
  2
TABLES
  0
TABLE
  2
VPORT
 70
     1
  0
VPORT
  2
*ACTIVE
 70
     0
 10
0.0
 20
0.0
 11
1.0
 21
1.0
 12
97.570150770051072
 22
66.014785922033241
 13
0.0
 23
0.0
 14
5.0
 24
5.0
 15
5.0
 25
5.0
 16
0.0
 26
0.0
 36
1.0
 17
0.0
 27
0.0
 37
0.0
 40
139.20783109903601
 41
1.831871345029239
 42
50.0
 43
0.0
 44
0.0
 50
0.0
 51
0.0
 71
     0
 72
   500
 73
     1
 74
     0
 75
     0
 76
     0
 77
     0
 78
     2
  0
ENDTAB
  0
TABLE
  2
LTYPE
 70
     3
  0
LTYPE
  2
CONTINUOUS
 70
     0
  3
Solid Line
 72
    65
 73
     0
 40
0.0
  0
LTYPE
  2
CENTER
 70
     0
  3
____ _ ____ _ ____ _ ____ _ ____ _ ____ _ ____
 72
    65
 73
     4
 40
2.0
 49
1.25
 49
-0.25
 49
0.25
 49
-0.25
  0
LTYPE
  2
PHANTOM2
 70
     0
  3
___ _ _ ___ _ _ ___ _ _ ___ _ _
 72
    65
 73
     6
 40
1.25
 49
0.625
 49
-0.125
 49
0.125
 49
-0.125
 49
0.125
 49
-0.125
  0
ENDTAB
  0
TABLE
  2
LAYER
 70
     3
  0
LAYER
  2
0
 70
     0
 62
     7
  6
CONTINUOUS
  0
LAYER
  2
1
 70
     0
 62
     1
  6
CENTER
  0
LAYER
  2
3
 70
     0
 62
     3
  6
CONTINUOUS
  0
ENDTAB
  0
TABLE
  2
STYLE
 70
     2
  0
STYLE
  2
STANDARD
 70
     0
 40
0.0
 41
1.0
 50
0.0
 71
     0
 42
0.2
  3
TXT
  4
BIGFONT
  0
STYLE
  2
STANDARD1
 70
     0
 40
0.0
 41
1.0
 50
0.0
 71
     0
 42
3.0
  3
txt
  4

  0
ENDTAB
  0
TABLE
  2
VIEW
 70
     1
  0
VIEW
  2
ALL
 70
     0
 40
135.0
 10
110.4957983193277
 20
67.5
 41
0.0
 11
0.0
 21
0.0
 31
1.0
 12
0.0
 22
0.0
 32
0.0
 42
0.0
 43
0.0
 44
0.0
 50
0.0
 71
     0
  0
ENDTAB
  0
TABLE
  2
UCS
 70
     0
  0
ENDTAB
  0
TABLE
  2
APPID
 70
     3
  0
APPID
  2
ACAD
 70
     0
  0
APPID
  2
ACAD_MLEADERVER
 70
     0
  0
APPID
  2
ACAD_NAV_VCDISPLAY
 70
     0
  0
ENDTAB
  0
TABLE
  2
DIMSTYLE
 70
     1
  0
DIMSTYLE
  2
STANDARD
 70
     0
  3

  4

  5

  6

  7

 40
1.0
 41
0.18
 42
0.0625
 43
0.38
 44
0.18
 45
0.0
 46
0.0
 47
0.0
 48
0.0
140
0.18
141
0.09
142
0.0
143
25.399999999999999
144
1.0
145
0.0
146
1.0
147
0.09
 71
     0
 72
     0
 73
     1
 74
     1
 75
     0
 76
     0
 77
     0
 78
     0
170
     0
171
     2
172
     0
173
     0
174
     0
175
     0
176
     0
177
     0
178
     0
  0
ENDTAB
  0
ENDSEC
  0
SECTION
  2
BLOCKS
  0
BLOCK
  8
0
  2
$MODEL_SPACE
 70
     0
 10
0.0
 20
0.0
 30
0.0
  3
$MODEL_SPACE
  1

  0
ENDBLK
  5
12A
  8
0
  0
BLOCK
 67
     1
  8
0
  2
$PAPER_SPACE
 70
     0
 10
0.0
 20
0.0
 30
0.0
  3
$PAPER_SPACE
  1

  0
ENDBLK
  5
128
 67
     1
  8
0
  0
ENDSEC
  0
SECTION
  2
ENTITIES
  0
LINE
  5
40
  8
0
 10
73.817311391326214
 20
91.800575650007644
 30
0.0
 11
69.574670704207506
 21
99.149044878356221
 31
0.0
  0
LINE
  5
41
  8
0
 10
74.814566292816934
 20
108.22481026418301
 30
0.0
 11
83.299847667052504
 21
108.22481026418301
 31
0.0
  0
LINE
  5
42
  8
0
 10
84.297102568545142
 20
107.6490448783554
 30
0.0
 11
88.539743255661847
 21
100.3005756500103
 31
0.0
  0
LINE
  5
43
  8
0
 10
88.539743255661904
 20
99.149044878354346
 30
0.0
 11
84.297102568545299
 21
91.800575650009407
 31
0.0
  0
LINE
  5
44
  8
0
 10
69.574670704207264
 20
100.3005756500079
 30
0.0
 11
73.817311391325731
 21
107.64904487835599
 31
0.0
  0
LINE
  5
45
  8
0
 10
83.299847667052262
 20
91.224810264181514
 30
0.0
 11
74.814566292817133
 21
91.224810264181514
 31
0.0
  0
ARC
  5
46
  8
0
 10
79.057206979934705
 20
99.724810264182267
 30
0.0
 40
9.5
 50
356.52535201659327
 51
3.4746479834073578
  0
ARC
  5
47
  8
0
 10
79.057206979934705
 20
99.724810264182267
 30
0.0
 40
9.5
 50
296.52535201658668
 51
303.47464798340673
  0
ARC
  5
48
  8
0
 10
79.057206979934705
 20
99.724810264182267
 30
0.0
 40
9.5
 50
236.52535201660459
 51
243.47464798341321
  0
ARC
  5
49
  8
0
 10
79.057206979934705
 20
99.724810264182267
 30
0.0
 40
9.5
 50
176.5253520166018
 51
183.47464798339519
  0
ARC
  5
4A
  8
0
 10
79.057206979934705
 20
99.724810264182267
 30
0.0
 40
9.5
 50
116.5253520165878
 51
123.474647983398
  0
ARC
  5
4B
  8
0
 10
79.057206979934705
 20
99.724810264182267
 30
0.0
 40
9.5
 50
56.525352016592542
 51
63.47464798341197
  0
CIRCLE
  5
4C
  8
0
 10
79.057206979934705
 20
99.724810264182267
 30
0.0
 40
8.25
  0
CIRCLE
  5
4D
  8
0
 10
79.057206979934705
 20
99.724810264182267
 30
0.0
 40
4.25
  0
CIRCLE
  5
4E
  8
3
 10
79.057206979934705
 20
99.724810264182267
 30
0.0
 40
5.0
  0
LINE
  5
4F
  8
1
 10
66.551653480470236
 20
99.724810264182267
 30
0.0
 11
91.562760479400367
 21
99.724810264182267
 31
0.0
  0
LINE
  5
50
  8
1
 10
79.057206979934691
 20
88.224810264182267
 30
0.0
 11
79.057206979934691
 21
111.2248102641821
 31
0.0
  0
LINE
  5
51
  8
1
 10
79.057206979934733
 20
29.734136743237158
 30
0.0
 11
79.057206979934733
 21
69.733803069937707
 31
0.0
  0
LINE
  5
52
  8
0
 10
69.557206979934733
 20
64.012115233450672
 30
0.0
 11
69.557206979934705
 21
35.455490906424693
 31
0.0
  0
LINE
  5
53
  8
0
 10
74.307206979935174
 20
35.455490906424778
 30
0.0
 11
74.307206979935614
 21
64.012115233450672
 31
0.0
  0
LINE
  5
54
  8
0
 10
83.807206979934236
 20
35.455490906424771
 30
0.0
 11
83.807206979933852
 21
64.012115233450672
 31
0.0
  0
LINE
  5
55
  8
0
 10
88.557206979934762
 20
64.012115233450643
 30
0.0
 11
88.557206979934719
 21
35.455490906424671
 31
0.0
  0
ARC
  5
56
  8
0
 10
79.057206979934989
 20
50.733803069937942
 30
0.0
 40
15.999666326700289
 50
252.72962381950219
 51
287.27037618049877
  0
ARC
  5
57
  8
0
 10
86.182206979934506
 20
39.002586622760859
 30
0.0
 40
4.2687835528229243
 50
236.1952443062211
 51
296.19524430609709
  0
LINE
  5
58
  8
0
 10
88.557206979934719
 20
35.455490906424671
 30
0.0
 11
87.307206979934719
 21
34.733803069937643
 31
0.0
  0
LINE
  5
59
  8
0
 10
69.557206979934705
 20
35.455490906424693
 30
0.0
 11
70.807206979934705
 21
34.733803069937657
 31
0.0
  0
ARC
  5
5A
  8
0
 10
71.932206979934932
 20
39.002586622760873
 30
0.0
 40
4.2687835528229243
 50
243.80475569390291
 51
303.80475569377887
  0
LINE
  5
5B
  8
0
 10
70.807206979934705
 20
34.733803069937657
 30
0.0
 11
87.307206979934719
 21
34.733803069937643
 31
0.0
  0
LINE
  5
5C
  8
0
 10
70.807206979934733
 20
64.733803069937707
 30
0.0
 11
87.307206979934762
 21
64.733803069937693
 31
0.0
  0
ARC
  5
5D
  8
0
 10
71.932206979934961
 20
60.465019517114513
 30
0.0
 40
4.2687835528229243
 50
56.195244306221142
 51
116.19524430609709
  0
LINE
  5
5E
  8
0
 10
69.557206979934733
 20
64.012115233450672
 30
0.0
 11
70.807206979934733
 21
64.733803069937707
 31
0.0
  0
LINE
  5
5F
  8
0
 10
88.557206979934762
 20
64.012115233450643
 30
0.0
 11
87.307206979934762
 21
64.733803069937693
 31
0.0
  0
ARC
  5
60
  8
0
 10
86.182206979934534
 20
60.465019517114499
 30
0.0
 40
4.2687835528229243
 50
63.804755693902877
 51
123.8047556937788
  0
ARC
  5
61
  8
0
 10
79.057206979934989
 20
48.73380306993743
 30
0.0
 40
15.999666326700289
 50
72.729623819501157
 51
107.27037618049781
  0
LINE
  5
62
  8
0
 10
125.85340738648441
 20
64.012103069937709
 30
0.0
 11
125.85340738648441
 21
35.455503069937713
 31
0.0
  0
LINE
  5
63
  8
0
 10
134.35340738648509
 20
64.733803069937707
 30
0.0
 11
134.3534073864852
 21
34.7338030699377
 31
0.0
  0
LINE
  5
64
  8
0
 10
117.3534073864836
 20
64.733803069937736
 30
0.0
 11
117.3534073864836
 21
34.733803069937743
 31
0.0
  0
LINE
  5
65
  8
0
 10
134.35340738648509
 20
64.733803069937707
 30
0.0
 11
117.3534073864836
 21
64.733803069937736
 31
0.0
  0
ARC
  5
66
  8
0
 10
121.60340738648399
 20
51.85909689701041
 30
0.0
 40
12.874706172927301
 50
70.724874326941176
 51
109.27512567305889
  0
ARC
  5
67
  8
0
 10
130.10340738648469
 20
51.859096897010389
 30
0.0
 40
12.874706172927301
 50
70.724874326941176
 51
109.27512567305889
  0
LINE
  5
68
  8
0
 10
134.35340738648509
 20
34.7338030699377
 30
0.0
 11
117.3534073864836
 21
34.733803069937743
 31
0.0
  0
ARC
  5
69
  8
0
 10
121.60340738648399
 20
47.608509242865019
 30
0.0
 40
12.874706172927301
 50
250.72487432694109
 51
289.27512567305888
  0
ARC
  5
6A
  8
0
 10
130.10340738648469
 20
47.608509242865019
 30
0.0
 40
12.874706172927301
 50
250.72487432694109
 51
289.27512567305888
  0
LINE
  5
6B
  8
1
 10
125.85340738648441
 20
69.733803069937537
 30
0.0
 11
125.85340738648441
 21
29.733803069937711
 31
0.0
  0
TEXT
  5
1E3
  8
0
 62
     3
 10
0.0
 20
0.0
 30
0.0
 40
10.0
  1
BJ744-10001
  7
STANDARD1
  0
ENDSEC
  0
EOF
