  0
SECTION
  2
HEADER
  9
$ACADVER
  1
AC1009
  9
$INSBASE
 10
0.0
 20
0.0
 30
0.0
  9
$EXTMIN
 10
0.0
 20
-2.960436562073669
 30
0.0
  9
$EXTMAX
 10
561.00596874510245
 20
315.02077518128078
 30
0.0
  9
$LIMMIN
 10
0.0
 20
0.0
  9
$LIMMAX
 10
770.0
 20
540.0
  9
$ORTHOMODE
 70
     1
  9
$REGENMODE
 70
     1
  9
$FILLMODE
 70
     1
  9
$QTEXTMODE
 70
     0
  9
$MIRRTEXT
 70
     0
  9
$DRAGMODE
 70
     2
  9
$LTSCALE
 40
10.0
  9
$OSMODE
 70
  3071
  9
$ATTMODE
 70
     1
  9
$TEXTSIZE
 40
0.2
  9
$TRACEWID
 40
0.05
  9
$TEXTSTYLE
  7
STANDARD
  9
$CLAYER
  8
0
  9
$CELTYPE
  6
BYLAYER
  9
$CECOLOR
 62
   256
  9
$DIMSCALE
 40
2.0
  9
$DIMASZ
 40
3.0
  9
$DIMEXO
 40
2.0
  9
$DIMDLI
 40
0.3799999999999999
  9
$DIMRND
 40
0.0
  9
$DIMDLE
 40
0.0
  9
$DIMEXE
 40
2.0
  9
$DIMTP
 40
0.0
  9
$DIMTM
 40
0.0
  9
$DIMTXT
 40
3.0
  9
$DIMCEN
 40
0.09
  9
$DIMTSZ
 40
0.0
  9
$DIMTOL
 70
     0
  9
$DIMLIM
 70
     0
  9
$DIMTIH
 70
     0
  9
$DIMTOH
 70
     0
  9
$DIMSE1
 70
     0
  9
$DIMSE2
 70
     0
  9
$DIMTAD
 70
     1
  9
$DIMZIN
 70
     0
  9
$DIMBLK
  1

  9
$DIMASO
 70
     0
  9
$DIMSHO
 70
     0
  9
$DIMPOST
  1

  9
$DIMAPOST
  1

  9
$DIMALT
 70
     0
  9
$DIMALTD
 70
     2
  9
$DIMALTF
 40
25.399999999999999
  9
$DIMLFAC
 40
1.0
  9
$DIMTOFL
 70
     0
  9
$DIMTVP
 40
0.0
  9
$DIMTIX
 70
     0
  9
$DIMSOXD
 70
     0
  9
$DIMSAH
 70
     0
  9
$DIMBLK1
  1

  9
$DIMBLK2
  1

  9
$DIMSTYLE
  2
STANDARD
  9
$DIMCLRD
 70
     0
  9
$DIMCLRE
 70
     0
  9
$DIMCLRT
 70
     0
  9
$DIMTFAC
 40
1.0
  9
$DIMGAP
 40
0.09
  9
$LUNITS
 70
     2
  9
$LUPREC
 70
     4
  9
$SKETCHINC
 40
0.1
  9
$FILLETRAD
 40
0.0
  9
$AUNITS
 70
     0
  9
$AUPREC
 70
     0
  9
$MENU
  1
E:\r13\win\SUPPORT\ACAD
  9
$ELEVATION
 40
0.0
  9
$PELEVATION
 40
0.0
  9
$THICKNESS
 40
0.0
  9
$LIMCHECK
 70
     0
  9
$BLIPMODE
 70
     0
  9
$CHAMFERA
 40
0.0
  9
$CHAMFERB
 40
0.0
  9
$SKPOLY
 70
     0
  9
$TDCREATE
 40
2447995.5443865741
  9
$TDUPDATE
 40
2456597.714459294
  9
$TDINDWG
 40
0.1476163194
  9
$TDUSRTIMER
 40
0.1476163194
  9
$USRTIMER
 70
     1
  9
$ANGBASE
 50
0.0
  9
$ANGDIR
 70
     0
  9
$PDMODE
 70
     0
  9
$PDSIZE
 40
0.0
  9
$PLINEWID
 40
0.0
  9
$COORDS
 70
     1
  9
$SPLFRAME
 70
     0
  9
$SPLINETYPE
 70
     6
  9
$SPLINESEGS
 70
     8
  9
$ATTDIA
 70
     0
  9
$ATTREQ
 70
     1
  9
$HANDLING
 70
     1
  9
$HANDSEED
  5
AF5
  9
$SURFTAB1
 70
     6
  9
$SURFTAB2
 70
     6
  9
$SURFTYPE
 70
     6
  9
$SURFU
 70
     6
  9
$SURFV
 70
     6
  9
$UCSNAME
  2

  9
$UCSORG
 10
0.0
 20
0.0
 30
0.0
  9
$UCSXDIR
 10
1.0
 20
0.0
 30
0.0
  9
$UCSYDIR
 10
0.0
 20
1.0
 30
0.0
  9
$PUCSNAME
  2

  9
$PUCSORG
 10
0.0
 20
0.0
 30
0.0
  9
$PUCSXDIR
 10
1.0
 20
0.0
 30
0.0
  9
$PUCSYDIR
 10
0.0
 20
1.0
 30
0.0
  9
$USERI1
 70
     3
  9
$USERI2
 70
     1
  9
$USERI3
 70
     0
  9
$USERI4
 70
     0
  9
$USERI5
 70
     0
  9
$USERR1
 40
2.0
  9
$USERR2
 40
3.0
  9
$USERR3
 40
3.0
  9
$USERR4
 40
3.0
  9
$USERR5
 40
10.0
  9
$WORLDVIEW
 70
     1
  9
$SHADEDGE
 70
     3
  9
$SHADEDIF
 70
    70
  9
$TILEMODE
 70
     1
  9
$MAXACTVP
 70
    16
  9
$PLIMCHECK
 70
     0
  9
$PEXTMIN
 10
1.0000000000000000E+020
 20
1.0000000000000000E+020
 30
1.0000000000000000E+020
  9
$PEXTMAX
 10
-1.0000000000000000E+020
 20
-1.0000000000000000E+020
 30
-1.0000000000000000E+020
  9
$PLIMMIN
 10
0.0
 20
0.0
  9
$PLIMMAX
 10
12.0
 20
9.0
  9
$UNITMODE
 70
     0
  9
$VISRETAIN
 70
     0
  9
$PLINEGEN
 70
     1
  9
$PSLTSCALE
 70
     0
  0
ENDSEC
  0
SECTION
  2
TABLES
  0
TABLE
  2
VPORT
 70
     1
  0
VPORT
  2
*ACTIVE
 70
     0
 10
0.0
 20
0.0
 11
1.0
 21
1.0
 12
400.03371830366132
 22
268.50860658393782
 13
0.0
 23
0.0
 14
10.0
 24
10.0
 15
10.0
 25
10.0
 16
0.0
 26
0.0
 36
1.0
 17
0.0
 27
0.0
 37
0.0
 40
547.85258761088789
 41
1.831871345029239
 42
50.0
 43
0.0
 44
0.0
 50
0.0
 51
0.0
 71
     0
 72
   100
 73
     1
 74
     0
 75
     0
 76
     0
 77
     0
 78
     0
  0
ENDTAB
  0
TABLE
  2
LTYPE
 70
     3
  0
LTYPE
  2
CONTINUOUS
 70
     0
  3
Solid Line
 72
    65
 73
     0
 40
0.0
  0
LTYPE
  2
CENTER
 70
     0
  3
____ _ ____ _ ____ _ ____ _ ____ _ ____ _ ____
 72
    65
 73
     4
 40
2.0
 49
1.25
 49
-0.25
 49
0.25
 49
-0.25
  0
LTYPE
  2
PHANTOM2
 70
     0
  3
___ _ _ ___ _ _ ___ _ _ ___ _ _
 72
    65
 73
     6
 40
1.25
 49
0.625
 49
-0.125
 49
0.125
 49
-0.125
 49
0.125
 49
-0.125
  0
ENDTAB
  0
TABLE
  2
LAYER
 70
     1
  0
LAYER
  2
0
 70
     0
 62
     7
  6
CONTINUOUS
  0
ENDTAB
  0
TABLE
  2
STYLE
 70
     2
  0
STYLE
  2
STANDARD
 70
     0
 40
0.0
 41
1.0
 50
0.0
 71
     0
 42
0.2
  3
SIMPLEX
  4
BIGFONT
  0
STYLE
  2
STANDARD1
 70
     0
 40
0.0
 41
1.0
 50
0.0
 71
     0
 42
3.0
  3
txt
  4

  0
ENDTAB
  0
TABLE
  2
VIEW
 70
     0
  0
ENDTAB
  0
TABLE
  2
UCS
 70
     0
  0
ENDTAB
  0
TABLE
  2
APPID
 70
     3
  0
APPID
  2
ACAD
 70
     0
  0
APPID
  2
ACAD_MLEADERVER
 70
     0
  0
APPID
  2
ACAD_NAV_VCDISPLAY
 70
     0
  0
ENDTAB
  0
TABLE
  2
DIMSTYLE
 70
     1
  0
DIMSTYLE
  2
STANDARD
 70
     0
  3

  4

  5

  6

  7

 40
1.0
 41
0.18
 42
0.0625
 43
0.38
 44
0.18
 45
0.0
 46
0.0
 47
0.0
 48
0.0
140
0.18
141
0.09
142
0.0
143
25.399999999999999
144
1.0
145
0.0
146
1.0
147
0.09
 71
     0
 72
     0
 73
     1
 74
     1
 75
     0
 76
     0
 77
     0
 78
     0
170
     0
171
     2
172
     0
173
     0
174
     0
175
     0
176
     0
177
     0
178
     0
  0
ENDTAB
  0
ENDSEC
  0
SECTION
  2
BLOCKS
  0
BLOCK
  8
0
  2
$MODEL_SPACE
 70
     0
 10
0.0
 20
0.0
 30
0.0
  3
$MODEL_SPACE
  1

  0
ENDBLK
  5
9BA
  8
0
  0
BLOCK
 67
     1
  8
0
  2
$PAPER_SPACE
 70
     0
 10
0.0
 20
0.0
 30
0.0
  3
$PAPER_SPACE
  1

  0
ENDBLK
  5
9B8
 67
     1
  8
0
  0
BLOCK
  8
0
  2
STDGX5
 70
     0
 10
0.0
 20
0.0
 30
0.0
  3
STDGX5
  1

  0
ENDBLK
  5
92
  8
0
  0
ENDSEC
  0
SECTION
  2
ENTITIES
  0
INSERT
  5
144
  8
0
  6
CONTINUOUS
 62
     7
  2
STDGX5
 10
0.0
 20
0.0
 30
0.0
  0
INSERT
  5
145
  8
0
  6
CONTINUOUS
 62
     7
  2
STDGX5
 10
0.0
 20
0.0
 30
0.0
  0
INSERT
  5
146
  8
0
  6
CONTINUOUS
 62
     7
  2
STDGX5
 10
275.0
 20
0.0
 30
0.0
  0
INSERT
  5
147
  8
0
  6
CONTINUOUS
 62
     7
  2
STDGX5
 10
275.0
 20
0.0
 30
0.0
  0
INSERT
  5
19E
  8
0
  6
CONTINUOUS
 62
     7
  2
STDGX5
 10
0.0
 20
0.0
 30
0.0
  0
INSERT
  5
19F
  8
0
  6
CONTINUOUS
 62
     7
  2
STDGX5
 10
0.0
 20
0.0
 30
0.0
  0
INSERT
  5
1A0
  8
0
  6
CONTINUOUS
 62
     7
  2
STDGX5
 10
275.0
 20
0.0
 30
0.0
  0
INSERT
  5
1A1
  8
0
  6
CONTINUOUS
 62
     7
  2
STDGX5
 10
275.0
 20
0.0
 30
0.0
  0
INSERT
  5
1B1
  8
0
  6
CONTINUOUS
 62
     7
  2
STDGX5
 10
0.0
 20
0.0
 30
0.0
 41
0.5
 42
0.5
 43
0.5
  0
INSERT
  5
1B2
  8
0
  6
CONTINUOUS
 62
     7
  2
STDGX5
 10
0.0
 20
0.0
 30
0.0
 41
0.5
 42
0.5
 43
0.5
  0
INSERT
  5
1B3
  8
0
  6
CONTINUOUS
 62
     7
  2
STDGX5
 10
137.5
 20
0.0
 30
0.0
 41
0.5
 42
0.5
 43
0.5
  0
INSERT
  5
1B4
  8
0
  6
CONTINUOUS
 62
     7
  2
STDGX5
 10
137.5
 20
0.0
 30
0.0
 41
0.5
 42
0.5
 43
0.5
  0
INSERT
  5
304
  8
0
  6
CONTINUOUS
 62
     7
  2
STDGX5
 10
0.0
 20
0.0
 30
0.0
  0
INSERT
  5
305
  8
0
  6
CONTINUOUS
 62
     7
  2
STDGX5
 10
0.0
 20
0.0
 30
0.0
  0
INSERT
  5
306
  8
0
  6
CONTINUOUS
 62
     7
  2
STDGX5
 10
275.0
 20
0.0
 30
0.0
  0
INSERT
  5
307
  8
0
  6
CONTINUOUS
 62
     7
  2
STDGX5
 10
275.0
 20
0.0
 30
0.0
  0
INSERT
  5
784
  8
0
  6
CONTINUOUS
 62
     7
  2
STDGX5
 10
0.0
 20
0.0
 30
0.0
 41
2.0
 42
2.0
 43
2.0
  0
INSERT
  5
785
  8
0
  6
CONTINUOUS
 62
     7
  2
STDGX5
 10
0.0
 20
0.0
 30
0.0
 41
2.0
 42
2.0
 43
2.0
  0
INSERT
  5
786
  8
0
  6
CONTINUOUS
 62
     7
  2
STDGX5
 10
550.0
 20
0.0
 30
0.0
 41
2.0
 42
2.0
 43
2.0
  0
INSERT
  5
787
  8
0
  6
CONTINUOUS
 62
     7
  2
STDGX5
 10
550.0
 20
0.0
 30
0.0
 41
2.0
 42
2.0
 43
2.0
  0
LINE
  5
86A
  8
0
  6
CENTER
 62
     1
 10
561.00596874510245
 20
300.02077518128078
 30
0.0
 11
291.00596874510262
 21
300.02077518128078
 31
0.0
  0
LINE
  5
881
  8
0
  6
CONTINUOUS
 62
     7
 10
548.50596874510245
 20
310.02077518128078
 30
0.0
 11
548.50596874510245
 21
290.02077518128078
 31
0.0
  0
LINE
  5
882
  8
0
  6
CONTINUOUS
 62
     3
 10
549.75596874510245
 20
308.77077518128078
 30
0.0
 11
488.00596874510268
 21
308.77077518128078
 31
0.0
  0
LINE
  5
883
  8
0
  6
CONTINUOUS
 62
     7
 10
488.00596874510262
 20
310.02077518128078
 30
0.0
 11
488.00596874510262
 21
290.02077518128078
 31
0.0
  0
LINE
  5
884
  8
0
  6
CONTINUOUS
 62
     3
 10
549.75596874510245
 20
291.27077518128078
 30
0.0
 11
488.00596874510268
 21
291.27077518128078
 31
0.0
  0
LINE
  5
885
  8
0
  6
CONTINUOUS
 62
     3
 10
302.25596874510262
 20
291.27077518128078
 30
0.0
 11
364.00596874510239
 21
291.27077518128078
 31
0.0
  0
LINE
  5
886
  8
0
  6
CONTINUOUS
 62
     7
 10
551.00596874510245
 20
292.52077518128078
 30
0.0
 11
548.50596874510245
 21
290.02077518128078
 31
0.0
  0
LINE
  5
887
  8
0
  6
CONTINUOUS
 62
     7
 10
548.50596874510245
 20
310.02077518128078
 30
0.0
 11
551.00596874510245
 21
307.52077518128078
 31
0.0
  0
LINE
  5
888
  8
0
  6
CONTINUOUS
 62
     7
 10
364.00596874510262
 20
310.02077518128078
 30
0.0
 11
364.00596874510262
 21
290.02077518128078
 31
0.0
  0
LINE
  5
889
  8
0
  6
CONTINUOUS
 62
     3
 10
302.25596874510262
 20
308.77077518128078
 30
0.0
 11
364.00596874510239
 21
308.77077518128078
 31
0.0
  0
LINE
  5
88A
  8
0
  6
CONTINUOUS
 62
     7
 10
303.50596874510262
 20
310.02077518128078
 30
0.0
 11
303.50596874510262
 21
290.02077518128078
 31
0.0
  0
LINE
  5
88B
  8
0
  6
CONTINUOUS
 62
     7
 10
301.00596874510262
 20
292.52077518128078
 30
0.0
 11
303.50596874510262
 21
290.02077518128078
 31
0.0
  0
LINE
  5
88C
  8
0
  6
CONTINUOUS
 62
     7
 10
301.00596874510262
 20
307.52077518128078
 30
0.0
 11
303.50596874510262
 21
310.02077518128078
 31
0.0
  0
LINE
  5
88D
  8
0
  6
CONTINUOUS
 62
     7
 10
548.50596874510245
 20
290.02077518128078
 30
0.0
 11
488.00596874510262
 21
290.02077518128078
 31
0.0
  0
LINE
  5
88E
  8
0
  6
CONTINUOUS
 62
     7
 10
551.00596874510245
 20
307.52077518128078
 30
0.0
 11
551.00596874510245
 21
292.52077518128078
 31
0.0
  0
LINE
  5
88F
  8
0
  6
CONTINUOUS
 62
     7
 10
303.50596874510262
 20
310.02077518128078
 30
0.0
 11
364.00596874510262
 21
310.02077518128078
 31
0.0
  0
LINE
  5
890
  8
0
  6
CONTINUOUS
 62
     7
 10
301.00596874510262
 20
292.52077518128078
 30
0.0
 11
301.00596874510262
 21
307.52077518128078
 31
0.0
  0
LINE
  5
8D4
  8
0
  6
CONTINUOUS
 62
     7
 10
488.00596874510262
 20
309.1707751812807
 30
0.0
 11
364.00596874510262
 21
309.1707751812807
 31
0.0
  0
LINE
  5
8D5
  8
0
  6
CONTINUOUS
 62
     7
 10
488.00596874510262
 20
290.87077518128081
 30
0.0
 11
364.00596874510262
 21
290.87077518128081
 31
0.0
  0
LINE
  5
8D6
  8
0
  6
CONTINUOUS
 62
     7
 10
364.00596874510262
 20
290.02077518128078
 30
0.0
 11
303.50596874510262
 21
290.02077518128078
 31
0.0
  0
LINE
  5
8D7
  8
0
  6
CONTINUOUS
 62
     7
 10
488.00596874510262
 20
310.02077518128078
 30
0.0
 11
548.50596874510245
 21
310.02077518128078
 31
0.0
  0
CIRCLE
  5
8E6
  8
0
  6
CONTINUOUS
 62
     7
 10
219.2251892827737
 20
300.02077518128078
 30
0.0
 40
10.0
  0
CIRCLE
  5
8E7
  8
0
  6
CONTINUOUS
 62
     3
 10
219.2251892827737
 20
300.02077518128078
 30
0.0
 40
8.75
  0
LINE
  5
8E8
  8
0
  6
CENTER
 62
     1
 10
234.2251892827737
 20
300.02077518128078
 30
0.0
 11
204.2251892827737
 21
300.02077518128078
 31
0.0
  0
LINE
  5
8E9
  8
0
  6
CENTER
 62
     1
 10
219.2251892827737
 20
315.02077518128078
 30
0.0
 11
219.2251892827737
 21
285.02077518128078
 31
0.0
  0
TEXT
  5
A67
  8
0
 62
     3
 10
0.0
 20
0.0
 30
0.0
 40
10.0
  1
BJ745-20250
  7
STANDARD1
  0
ENDSEC
  0
EOF
