  0
SECTION
  2
HEADER
  9
$ACADVER
  1
AC1009
  9
$INSBASE
 10
0.0
 20
0.0
 30
0.0
  9
$EXTMIN
 10
0.0
 20
-2.960436562073669
 30
0.0
  9
$EXTMAX
 10
228.72521405004491
 20
146.9215800846213
 30
0.0
  9
$LIMMIN
 10
0.0
 20
0.0
  9
$LIMMAX
 10
375.0
 20
270.0
  9
$ORTHOMODE
 70
     1
  9
$REGENMODE
 70
     1
  9
$FILLMODE
 70
     1
  9
$QTEXTMODE
 70
     0
  9
$MIRRTEXT
 70
     0
  9
$DRAGMODE
 70
     2
  9
$LTSCALE
 40
10.0
  9
$OSMODE
 70
  3071
  9
$ATTMODE
 70
     1
  9
$TEXTSIZE
 40
3.200000000000049
  9
$TRACEWID
 40
0.05
  9
$TEXTSTYLE
  7
STANDARD
  9
$CLAYER
  8
0
  9
$CELTYPE
  6
BYLAYER
  9
$CECOLOR
 62
   256
  9
$DIMSCALE
 40
1.0
  9
$DIMASZ
 40
3.0
  9
$DIMEXO
 40
2.0
  9
$DIMDLI
 40
10.0
  9
$DIMRND
 40
0.0
  9
$DIMDLE
 40
0.0
  9
$DIMEXE
 40
2.0
  9
$DIMTP
 40
0.0
  9
$DIMTM
 40
0.0
  9
$DIMTXT
 40
3.2000000000000002
  9
$DIMCEN
 40
0.0
  9
$DIMTSZ
 40
0.0
  9
$DIMTOL
 70
     0
  9
$DIMLIM
 70
     0
  9
$DIMTIH
 70
     0
  9
$DIMTOH
 70
     0
  9
$DIMSE1
 70
     0
  9
$DIMSE2
 70
     0
  9
$DIMTAD
 70
     1
  9
$DIMZIN
 70
     0
  9
$DIMBLK
  1

  9
$DIMASO
 70
     0
  9
$DIMSHO
 70
     0
  9
$DIMPOST
  1

  9
$DIMAPOST
  1

  9
$DIMALT
 70
     0
  9
$DIMALTD
 70
     2
  9
$DIMALTF
 40
25.399999999999999
  9
$DIMLFAC
 40
1.0
  9
$DIMTOFL
 70
     1
  9
$DIMTVP
 40
1.6000000000000001
  9
$DIMTIX
 70
     1
  9
$DIMSOXD
 70
     0
  9
$DIMSAH
 70
     0
  9
$DIMBLK1
  1

  9
$DIMBLK2
  1

  9
$DIMSTYLE
  2
STANDARD
  9
$DIMCLRD
 70
     0
  9
$DIMCLRE
 70
     0
  9
$DIMCLRT
 70
     0
  9
$DIMTFAC
 40
1.0
  9
$DIMGAP
 40
0.09
  9
$LUNITS
 70
     2
  9
$LUPREC
 70
     4
  9
$SKETCHINC
 40
0.1
  9
$FILLETRAD
 40
0.0
  9
$AUNITS
 70
     0
  9
$AUPREC
 70
     4
  9
$MENU
  1
E:\r13\win\SUPPORT\ACAD
  9
$ELEVATION
 40
0.0
  9
$PELEVATION
 40
0.0
  9
$THICKNESS
 40
0.0
  9
$LIMCHECK
 70
     0
  9
$BLIPMODE
 70
     0
  9
$CHAMFERA
 40
0.0
  9
$CHAMFERB
 40
0.0
  9
$SKPOLY
 70
     0
  9
$TDCREATE
 40
2449839.772719908
  9
$TDUPDATE
 40
2456597.7160885301
  9
$TDINDWG
 40
0.0017041204
  9
$TDUSRTIMER
 40
0.0017041204
  9
$USRTIMER
 70
     1
  9
$ANGBASE
 50
0.0
  9
$ANGDIR
 70
     0
  9
$PDMODE
 70
    35
  9
$PDSIZE
 40
0.0
  9
$PLINEWID
 40
0.0
  9
$COORDS
 70
     1
  9
$SPLFRAME
 70
     0
  9
$SPLINETYPE
 70
     6
  9
$SPLINESEGS
 70
     8
  9
$ATTDIA
 70
     0
  9
$ATTREQ
 70
     1
  9
$HANDLING
 70
     1
  9
$HANDSEED
  5
225
  9
$SURFTAB1
 70
     6
  9
$SURFTAB2
 70
     6
  9
$SURFTYPE
 70
     6
  9
$SURFU
 70
     6
  9
$SURFV
 70
     6
  9
$UCSNAME
  2

  9
$UCSORG
 10
0.0
 20
0.0
 30
0.0
  9
$UCSXDIR
 10
1.0
 20
0.0
 30
0.0
  9
$UCSYDIR
 10
0.0
 20
1.0
 30
0.0
  9
$PUCSNAME
  2

  9
$PUCSORG
 10
0.0
 20
0.0
 30
0.0
  9
$PUCSXDIR
 10
1.0
 20
0.0
 30
0.0
  9
$PUCSYDIR
 10
0.0
 20
1.0
 30
0.0
  9
$USERI1
 70
     0
  9
$USERI2
 70
     1
  9
$USERI3
 70
     0
  9
$USERI4
 70
     0
  9
$USERI5
 70
     0
  9
$USERR1
 40
0.0
  9
$USERR2
 40
0.0
  9
$USERR3
 40
0.0
  9
$USERR4
 40
0.0
  9
$USERR5
 40
0.0
  9
$WORLDVIEW
 70
     1
  9
$SHADEDGE
 70
     3
  9
$SHADEDIF
 70
    70
  9
$TILEMODE
 70
     1
  9
$MAXACTVP
 70
    16
  9
$PLIMCHECK
 70
     0
  9
$PEXTMIN
 10
1.0000000000000000E+020
 20
1.0000000000000000E+020
 30
1.0000000000000000E+020
  9
$PEXTMAX
 10
-1.0000000000000000E+020
 20
-1.0000000000000000E+020
 30
-1.0000000000000000E+020
  9
$PLIMMIN
 10
0.0
 20
0.0
  9
$PLIMMAX
 10
12.0
 20
9.0
  9
$UNITMODE
 70
     0
  9
$VISRETAIN
 70
     0
  9
$PLINEGEN
 70
     0
  9
$PSLTSCALE
 70
     0
  0
ENDSEC
  0
SECTION
  2
TABLES
  0
TABLE
  2
VPORT
 70
     1
  0
VPORT
  2
*ACTIVE
 70
     0
 10
0.0
 20
0.0
 11
1.0
 21
1.0
 12
195.0581083320873
 22
133.5127261426681
 13
0.0
 23
0.0
 14
10.0
 24
10.0
 15
10.0
 25
10.0
 16
0.0
 26
0.0
 36
1.0
 17
0.0
 27
0.0
 37
0.0
 40
275.42274993631997
 41
1.831871345029239
 42
50.0
 43
0.0
 44
0.0
 50
0.0
 51
0.0
 71
     0
 72
   500
 73
     1
 74
     0
 75
     0
 76
     0
 77
     0
 78
     2
  0
ENDTAB
  0
TABLE
  2
LTYPE
 70
     3
  0
LTYPE
  2
CONTINUOUS
 70
     0
  3
Solid Line
 72
    65
 73
     0
 40
0.0
  0
LTYPE
  2
CENTER
 70
     0
  3
____ _ ____ _ ____ _ ____ _ ____ _ ____ _ ____
 72
    65
 73
     4
 40
2.0
 49
1.25
 49
-0.25
 49
0.25
 49
-0.25
  0
LTYPE
  2
PHANTOM2
 70
     0
  3
___ _ _ ___ _ _ ___ _ _ ___ _ _
 72
    65
 73
     6
 40
1.25
 49
0.625
 49
-0.125
 49
0.125
 49
-0.125
 49
0.125
 49
-0.125
  0
ENDTAB
  0
TABLE
  2
LAYER
 70
     3
  0
LAYER
  2
0
 70
     0
 62
     7
  6
CONTINUOUS
  0
LAYER
  2
1
 70
     0
 62
     1
  6
CENTER
  0
LAYER
  2
3
 70
     0
 62
     3
  6
CONTINUOUS
  0
ENDTAB
  0
TABLE
  2
STYLE
 70
     2
  0
STYLE
  2
STANDARD
 70
     0
 40
0.0
 41
1.0
 50
0.0
 71
     0
 42
3.200000000000049
  3
TXT
  4
BIGFONT
  0
STYLE
  2
STANDARD1
 70
     0
 40
0.0
 41
1.0
 50
0.0
 71
     0
 42
3.0
  3
txt
  4

  0
ENDTAB
  0
TABLE
  2
VIEW
 70
     1
  0
VIEW
  2
ALL
 70
     0
 40
175.0
 10
143.23529411764699
 20
87.5
 41
0.0
 11
0.0
 21
0.0
 31
1.0
 12
0.0
 22
0.0
 32
0.0
 42
0.0
 43
0.0
 44
0.0
 50
0.0
 71
     0
  0
ENDTAB
  0
TABLE
  2
UCS
 70
     0
  0
ENDTAB
  0
TABLE
  2
APPID
 70
     3
  0
APPID
  2
ACAD
 70
     0
  0
APPID
  2
ACAD_MLEADERVER
 70
     0
  0
APPID
  2
ACAD_NAV_VCDISPLAY
 70
     0
  0
ENDTAB
  0
TABLE
  2
DIMSTYLE
 70
     1
  0
DIMSTYLE
  2
STANDARD
 70
     0
  3

  4

  5

  6

  7

 40
1.0
 41
0.18
 42
0.0625
 43
0.38
 44
0.18
 45
0.0
 46
0.0
 47
0.0
 48
0.0
140
0.18
141
0.09
142
0.0
143
25.399999999999999
144
1.0
145
0.0
146
1.0
147
0.09
 71
     0
 72
     0
 73
     1
 74
     1
 75
     0
 76
     0
 77
     0
 78
     0
170
     0
171
     2
172
     0
173
     0
174
     0
175
     0
176
     0
177
     0
178
     0
  0
ENDTAB
  0
ENDSEC
  0
SECTION
  2
BLOCKS
  0
BLOCK
  8
0
  2
$MODEL_SPACE
 70
     0
 10
0.0
 20
0.0
 30
0.0
  3
$MODEL_SPACE
  1

  0
ENDBLK
  5
DB
  8
0
  0
BLOCK
 67
     1
  8
0
  2
$PAPER_SPACE
 70
     0
 10
0.0
 20
0.0
 30
0.0
  3
$PAPER_SPACE
  1

  0
ENDBLK
  5
D9
 67
     1
  8
0
  0
ENDSEC
  0
SECTION
  2
ENTITIES
  0
LINE
  5
34
  8
1
 10
141.49871674194111
 20
98.214673864380146
 30
0.0
 11
119.9517113581485
 21
98.214673864379918
 31
0.0
  0
LINE
  5
35
  8
1
 10
130.7252140500448
 20
108.2146738643801
 30
0.0
 11
130.7252140500448
 21
88.214673864380046
 31
0.0
  0
LINE
  5
36
  8
1
 10
170.72521405004491
 20
141.14807714175811
 30
0.0
 11
228.72521405004491
 21
141.14807955104061
 31
0.0
  0
LINE
  5
37
  8
0
 10
183.72521405004491
 20
146.9215800846213
 30
0.0
 11
183.72521405004491
 21
135.3745747008287
 31
0.0
  0
LINE
  5
38
  8
0
 10
175.72521405004491
 20
146.04807739272451
 30
0.0
 11
175.72521405004491
 21
136.24807739272549
 31
0.0
  0
LINE
  5
39
  8
0
 10
176.22953106434929
 20
146.92158008462121
 30
0.0
 11
175.72521405004491
 21
146.04807739272451
 31
0.0
  0
ARC
  5
3A
  8
0
 10
178.33877182539251
 20
145.4782044116472
 30
0.0
 40
2.5558227484274911
 50
154.38424746934001
 51
214.38424746797389
  0
LINE
  5
3B
  8
0
 10
176.22953106434929
 20
146.92158008462121
 30
0.0
 11
183.72521405004491
 21
146.9215800846213
 31
0.0
  0
LINE
  5
3C
  8
0
 10
176.2295310643577
 20
144.03482873867321
 30
0.0
 11
183.72521405004491
 21
144.03482873867321
 31
0.0
  0
LINE
  5
3D
  8
0
 10
176.2295310643577
 20
138.26132604677679
 30
0.0
 11
183.72521405004491
 21
138.26132604677679
 31
0.0
  0
LINE
  5
3E
  8
0
 10
176.22953106434929
 20
135.37457470082879
 30
0.0
 11
183.72521405004491
 21
135.3745747008287
 31
0.0
  0
ARC
  5
3F
  8
0
 10
185.33636708952321
 20
141.1480773927367
 30
0.0
 40
9.5534180125581827
 50
162.4120462259726
 51
197.5879537741755
  0
ARC
  5
40
  8
0
 10
178.33877182539251
 20
136.8179503738028
 30
0.0
 40
2.5558227484274911
 50
145.61575253202599
 51
205.6157525306599
  0
LINE
  5
41
  8
0
 10
176.22953106434929
 20
135.37457470082879
 30
0.0
 11
175.72521405004491
 21
136.24807739272549
 31
0.0
  0
LINE
  5
42
  8
0
 10
133.61196539599291
 20
103.2146738643799
 30
0.0
 11
127.8384627040966
 21
103.2146738643801
 31
0.0
  0
LINE
  5
43
  8
0
 10
127.8384627040966
 20
103.2146738643801
 30
0.0
 11
124.9517113581485
 21
98.214673864380032
 31
0.0
  0
LINE
  5
44
  8
0
 10
124.9517113581485
 20
98.214673864380032
 30
0.0
 11
127.8384627040966
 21
93.214673864380046
 31
0.0
  0
LINE
  5
45
  8
0
 10
127.8384627040966
 20
93.214673864380046
 30
0.0
 11
133.6119653959928
 21
93.214673864380103
 31
0.0
  0
LINE
  5
46
  8
0
 10
133.6119653959928
 20
93.214673864380103
 30
0.0
 11
136.498716741941
 21
98.214673864380032
 31
0.0
  0
LINE
  5
47
  8
0
 10
136.498716741941
 20
98.214673864380032
 30
0.0
 11
133.61196539599291
 21
103.2146738643799
 31
0.0
  0
CIRCLE
  5
48
  8
0
 10
130.7252140500448
 20
98.214673864380032
 30
0.0
 40
4.9000000000000004
  0
LINE
  5
49
  8
0
 10
220.79220134815259
 20
138.14807739272501
 30
0.0
 11
184.12521405004489
 21
138.14807739272501
 31
0.0
  0
ARC
  5
4A
  8
0
 10
184.12521405004489
 20
137.74807739272501
 30
0.0
 40
0.4
 50
90.000000000000057
 51
180.0
  0
ARC
  5
4B
  8
0
 10
184.12521405004489
 20
144.54807739272511
 30
0.0
 40
0.4
 50
180.0
 51
269.99999999999989
  0
LINE
  5
4C
  8
3
 10
186.72521405004471
 20
143.6065773927252
 30
0.0
 11
185.78730853774641
 21
144.1480773927251
 31
0.0
  0
LINE
  5
4D
  8
3
 10
186.72521405004491
 20
138.689577392725
 30
0.0
 11
185.7873085377465
 21
138.1480773927251
 31
0.0
  0
LINE
  5
4E
  8
0
 10
186.72521405004491
 20
138.1480773927251
 30
0.0
 11
186.7252140500448
 21
144.1480773927251
 31
0.0
  0
LINE
  5
4F
  8
0
 10
223.19035682491781
 20
138.8980773927251
 30
0.0
 11
223.19035682491699
 21
143.3980773927251
 31
0.0
  0
ARC
  5
50
  8
0
 10
218.72521405004491
 20
141.1480773927251
 30
0.0
 40
5.0
 50
333.25631604956419
 51
26.743683950456901
  0
LINE
  5
51
  8
0
 10
220.7922013481527
 20
138.1480773927251
 30
0.0
 11
220.79220134815259
 21
144.1480773927251
 31
0.0
  0
LINE
  5
52
  8
0
 10
221.22521405004491
 20
138.8980773927251
 30
0.0
 11
220.7922013481527
 21
138.1480773927251
 31
0.0
  0
LINE
  5
53
  8
0
 10
221.22521405004491
 20
143.3980773927251
 30
0.0
 11
220.79220134815259
 21
144.1480773927251
 31
0.0
  0
LINE
  5
54
  8
0
 10
221.22521405004491
 20
138.8980773927251
 30
0.0
 11
221.22521405004491
 21
143.3980773927251
 31
0.0
  0
LINE
  5
55
  8
0
 10
221.22521405004491
 20
143.3980773927251
 30
0.0
 11
223.19035682491699
 21
143.3980773927251
 31
0.0
  0
LINE
  5
56
  8
0
 10
221.22521405004491
 20
138.8980773927251
 30
0.0
 11
223.19035682491781
 21
138.8980773927251
 31
0.0
  0
LINE
  5
57
  8
3
 10
221.1048365189188
 20
138.689577392725
 30
0.0
 11
186.72521405004491
 21
138.689577392725
 31
0.0
  0
LINE
  5
58
  8
3
 10
221.1048365189188
 20
143.6065773927252
 30
0.0
 11
186.72521405004491
 21
143.6065773927252
 31
0.0
  0
LINE
  5
59
  8
0
 10
220.79220134815259
 20
144.1480773927251
 30
0.0
 11
184.12521405004489
 21
144.1480773927251
 31
0.0
  0
LINE
  5
5A
  8
0
 10
220.79220134815259
 20
101.21467411534699
 30
0.0
 11
184.12521405004489
 21
101.21467411534699
 31
0.0
  0
LINE
  5
5B
  8
3
 10
221.1048365189188
 20
100.67317411534709
 30
0.0
 11
186.72521405004491
 21
100.67317411534709
 31
0.0
  0
LINE
  5
5C
  8
3
 10
221.1048365189188
 20
95.756174115346894
 30
0.0
 11
186.72521405004491
 21
95.756174115346894
 31
0.0
  0
LINE
  5
5D
  8
0
 10
221.22521405004491
 20
95.964674115346995
 30
0.0
 11
223.19035682491781
 21
95.964674115346995
 31
0.0
  0
LINE
  5
5E
  8
0
 10
221.22521405004491
 20
100.46467411534699
 30
0.0
 11
223.19035682491699
 21
100.46467411534699
 31
0.0
  0
LINE
  5
5F
  8
0
 10
221.22521405004491
 20
95.964674115346995
 30
0.0
 11
221.22521405004491
 21
100.46467411534699
 31
0.0
  0
LINE
  5
60
  8
0
 10
221.22521405004491
 20
100.46467411534699
 30
0.0
 11
220.79220134815259
 21
101.21467411534699
 31
0.0
  0
LINE
  5
61
  8
0
 10
221.22521405004491
 20
95.964674115346995
 30
0.0
 11
220.7922013481527
 21
95.214674115346995
 31
0.0
  0
LINE
  5
62
  8
0
 10
220.7922013481527
 20
95.214674115346995
 30
0.0
 11
220.79220134815259
 21
101.21467411534699
 31
0.0
  0
ARC
  5
63
  8
0
 10
218.72521405004491
 20
98.214674115346995
 30
0.0
 40
5.0
 50
333.25631604956419
 51
26.743683950456901
  0
LINE
  5
64
  8
0
 10
223.19035682491781
 20
95.964674115346995
 30
0.0
 11
223.19035682491699
 21
100.46467411534699
 31
0.0
  0
LINE
  5
65
  8
0
 10
186.72521405004491
 20
95.214674115346995
 30
0.0
 11
186.7252140500448
 21
101.21467411534699
 31
0.0
  0
LINE
  5
66
  8
3
 10
186.72521405004491
 20
95.756174115346909
 30
0.0
 11
185.7873085377465
 21
95.214674115346995
 31
0.0
  0
LINE
  5
67
  8
3
 10
186.72521405004471
 20
100.67317411534709
 30
0.0
 11
185.78730853774641
 21
101.21467411534699
 31
0.0
  0
ARC
  5
68
  8
0
 10
184.12521405004489
 20
101.614674115347
 30
0.0
 40
0.4
 50
180.0
 51
269.99999999999989
  0
ARC
  5
69
  8
0
 10
184.12521405004489
 20
94.814674115346918
 30
0.0
 40
0.4
 50
90.000000000000057
 51
180.0
  0
LINE
  5
6A
  8
0
 10
220.79220134815259
 20
95.214674115346924
 30
0.0
 11
184.12521405004489
 21
95.214674115346924
 31
0.0
  0
LINE
  5
6B
  8
0
 10
175.78294922185989
 20
93.214673864380103
 30
0.0
 11
175.72521405004491
 21
93.314674115347472
 31
0.0
  0
LINE
  5
6C
  8
0
 10
175.78294893206819
 20
103.2146738643799
 30
0.0
 11
175.72521405004491
 21
103.1146741153464
 31
0.0
  0
LINE
  5
6D
  8
0
 10
175.72521405004491
 20
103.1146741153464
 30
0.0
 11
175.72521405004491
 21
93.314674115347472
 31
0.0
  0
LINE
  5
6E
  8
0
 10
183.7252140500448
 20
103.2146738643799
 30
0.0
 11
183.72521405004491
 21
93.214673864380103
 31
0.0
  0
LINE
  5
6F
  8
1
 10
170.72521405004491
 20
98.214673864380032
 30
0.0
 11
228.72521405004491
 21
98.214676273662562
 31
0.0
  0
LINE
  5
70
  8
0
 10
175.78294893206831
 20
103.2146738643799
 30
0.0
 11
183.72521405004491
 21
103.2146738643799
 31
0.0
  0
LINE
  5
71
  8
0
 10
176.22953103139869
 20
98.214674169418984
 30
0.0
 11
183.72521405004491
 21
98.214674404391644
 31
0.0
  0
LINE
  5
72
  8
0
 10
175.78294922185989
 20
93.214673864380075
 30
0.0
 11
183.72521405004491
 21
93.214673864380103
 31
0.0
  0
ARC
  5
73
  8
0
 10
182.02557492402889
 20
100.7146739787029
 30
0.0
 40
6.3122201998754131
 50
156.6680784397694
 51
203.3319215602308
  0
ARC
  5
74
  8
0
 10
176.20981799257649
 20
98.206171280008633
 30
0.0
 40
0.0214686522148972
 50
23.3321435961128
 51
23.331921560218209
  0
ARC
  5
75
  8
0
 10
182.2243046281597
 20
95.762099577028863
 30
0.0
 40
6.5135771925129022
 50
157.88092727396531
 51
203.0226338539006
  0
TEXT
  5
194
  8
0
 62
     3
 10
0.0
 20
0.0
 30
0.0
 40
10.0
  1
BJ748-06040
  7
STANDARD1
  0
ENDSEC
  0
EOF
