  0
SECTION
  2
HEADER
  9
$ACADVER
  1
AC1009
  9
$INSBASE
 10
0.0
 20
0.0
 30
0.0
  9
$EXTMIN
 10
0.0
 20
-2.960436562073669
 30
0.0
  9
$EXTMAX
 10
172.50555349946521
 20
110.50555349946499
 30
0.0
  9
$LIMMIN
 10
0.0
 20
0.0
  9
$LIMMAX
 10
375.0
 20
270.0
  9
$ORTHOMODE
 70
     1
  9
$REGENMODE
 70
     1
  9
$FILLMODE
 70
     1
  9
$QTEXTMODE
 70
     0
  9
$MIRRTEXT
 70
     0
  9
$DRAGMODE
 70
     2
  9
$LTSCALE
 40
10.0
  9
$OSMODE
 70
    37
  9
$ATTMODE
 70
     1
  9
$TEXTSIZE
 40
0.2
  9
$TRACEWID
 40
0.05
  9
$TEXTSTYLE
  7
STANDARD
  9
$CLAYER
  8
0
  9
$CELTYPE
  6
BYLAYER
  9
$CECOLOR
 62
   256
  9
$DIMSCALE
 40
1.0
  9
$DIMASZ
 40
3.0
  9
$DIMEXO
 40
2.0
  9
$DIMDLI
 40
0.38
  9
$DIMRND
 40
0.0
  9
$DIMDLE
 40
0.0
  9
$DIMEXE
 40
2.0
  9
$DIMTP
 40
0.0
  9
$DIMTM
 40
0.0
  9
$DIMTXT
 40
3.2000000000000002
  9
$DIMCEN
 40
0.0
  9
$DIMTSZ
 40
0.0
  9
$DIMTOL
 70
     0
  9
$DIMLIM
 70
     0
  9
$DIMTIH
 70
     0
  9
$DIMTOH
 70
     0
  9
$DIMSE1
 70
     0
  9
$DIMSE2
 70
     0
  9
$DIMTAD
 70
     1
  9
$DIMZIN
 70
     0
  9
$DIMBLK
  1

  9
$DIMASO
 70
     0
  9
$DIMSHO
 70
     0
  9
$DIMPOST
  1

  9
$DIMAPOST
  1

  9
$DIMALT
 70
     0
  9
$DIMALTD
 70
     2
  9
$DIMALTF
 40
25.399999999999999
  9
$DIMLFAC
 40
1.0
  9
$DIMTOFL
 70
     1
  9
$DIMTVP
 40
1.6000000000000001
  9
$DIMTIX
 70
     1
  9
$DIMSOXD
 70
     0
  9
$DIMSAH
 70
     0
  9
$DIMBLK1
  1

  9
$DIMBLK2
  1

  9
$DIMSTYLE
  2
STANDARD
  9
$DIMCLRD
 70
     0
  9
$DIMCLRE
 70
     0
  9
$DIMCLRT
 70
     0
  9
$DIMTFAC
 40
1.0
  9
$DIMGAP
 40
0.09
  9
$LUNITS
 70
     2
  9
$LUPREC
 70
     4
  9
$SKETCHINC
 40
0.1
  9
$FILLETRAD
 40
0.4
  9
$AUNITS
 70
     0
  9
$AUPREC
 70
     4
  9
$MENU
  1
E:\r13\win\SUPPORT\ACAD
  9
$ELEVATION
 40
0.0
  9
$PELEVATION
 40
0.0
  9
$THICKNESS
 40
0.0
  9
$LIMCHECK
 70
     0
  9
$BLIPMODE
 70
     0
  9
$CHAMFERA
 40
0.0
  9
$CHAMFERB
 40
0.0
  9
$SKPOLY
 70
     0
  9
$TDCREATE
 40
2449839.772627315
  9
$TDUPDATE
 40
2456969.410506655
  9
$TDINDWG
 40
0.0433365972
  9
$TDUSRTIMER
 40
0.0433365972
  9
$USRTIMER
 70
     1
  9
$ANGBASE
 50
0.0
  9
$ANGDIR
 70
     0
  9
$PDMODE
 70
     0
  9
$PDSIZE
 40
0.0
  9
$PLINEWID
 40
0.0
  9
$COORDS
 70
     1
  9
$SPLFRAME
 70
     0
  9
$SPLINETYPE
 70
     6
  9
$SPLINESEGS
 70
     8
  9
$ATTDIA
 70
     0
  9
$ATTREQ
 70
     1
  9
$HANDLING
 70
     1
  9
$HANDSEED
  5
8FF
  9
$SURFTAB1
 70
     6
  9
$SURFTAB2
 70
     6
  9
$SURFTYPE
 70
     6
  9
$SURFU
 70
     6
  9
$SURFV
 70
     6
  9
$UCSNAME
  2

  9
$UCSORG
 10
0.0
 20
0.0
 30
0.0
  9
$UCSXDIR
 10
1.0
 20
0.0
 30
0.0
  9
$UCSYDIR
 10
0.0
 20
1.0
 30
0.0
  9
$PUCSNAME
  2

  9
$PUCSORG
 10
0.0
 20
0.0
 30
0.0
  9
$PUCSXDIR
 10
1.0
 20
0.0
 30
0.0
  9
$PUCSYDIR
 10
0.0
 20
1.0
 30
0.0
  9
$USERI1
 70
     0
  9
$USERI2
 70
     1
  9
$USERI3
 70
     0
  9
$USERI4
 70
     0
  9
$USERI5
 70
     0
  9
$USERR1
 40
0.0
  9
$USERR2
 40
0.0
  9
$USERR3
 40
0.0
  9
$USERR4
 40
0.0
  9
$USERR5
 40
0.0
  9
$WORLDVIEW
 70
     1
  9
$SHADEDGE
 70
     3
  9
$SHADEDIF
 70
    70
  9
$TILEMODE
 70
     1
  9
$MAXACTVP
 70
    16
  9
$PLIMCHECK
 70
     0
  9
$PEXTMIN
 10
1.0000000000000000E+020
 20
1.0000000000000000E+020
 30
1.0000000000000000E+020
  9
$PEXTMAX
 10
-1.0000000000000000E+020
 20
-1.0000000000000000E+020
 30
-1.0000000000000000E+020
  9
$PLIMMIN
 10
0.0
 20
0.0
  9
$PLIMMAX
 10
12.0
 20
9.0
  9
$UNITMODE
 70
     0
  9
$VISRETAIN
 70
     0
  9
$PLINEGEN
 70
     0
  9
$PSLTSCALE
 70
     0
  0
ENDSEC
  0
SECTION
  2
TABLES
  0
TABLE
  2
VPORT
 70
     1
  0
VPORT
  2
*ACTIVE
 70
     0
 10
0.0
 20
0.0
 11
1.0
 21
1.0
 12
235.64523316739221
 22
135.0
 13
0.0
 23
0.0
 14
10.0
 24
10.0
 15
10.0
 25
10.0
 16
0.0
 26
0.0
 36
1.0
 17
0.0
 27
0.0
 37
0.0
 40
270.05212403129281
 41
1.7454798331015291
 42
50.0
 43
0.0
 44
0.0
 50
0.0
 51
0.0
 71
     0
 72
   500
 73
     1
 74
     0
 75
     0
 76
     0
 77
     0
 78
     2
  0
ENDTAB
  0
TABLE
  2
LTYPE
 70
     3
  0
LTYPE
  2
CONTINUOUS
 70
     0
  3
Solid Line
 72
    65
 73
     0
 40
0.0
  0
LTYPE
  2
CENTER
 70
     0
  3
____ _ ____ _ ____ _ ____ _ ____ _ ____ _ ____
 72
    65
 73
     4
 40
2.0
 49
1.25
 49
-0.25
 49
0.25
 49
-0.25
  0
LTYPE
  2
PHANTOM2
 70
     0
  3
___ _ _ ___ _ _ ___ _ _ ___ _ _
 72
    65
 73
     6
 40
1.25
 49
0.625
 49
-0.125
 49
0.125
 49
-0.125
 49
0.125
 49
-0.125
  0
ENDTAB
  0
TABLE
  2
LAYER
 70
     3
  0
LAYER
  2
0
 70
     0
 62
     7
  6
CONTINUOUS
  0
LAYER
  2
1
 70
     0
 62
     1
  6
CENTER
  0
LAYER
  2
3
 70
     0
 62
     3
  6
CONTINUOUS
  0
ENDTAB
  0
TABLE
  2
STYLE
 70
     2
  0
STYLE
  2
STANDARD
 70
     0
 40
0.0
 41
1.0
 50
0.0
 71
     0
 42
0.2
  3
TXT
  4
BIGFONT
  0
STYLE
  2
STANDARD1
 70
     0
 40
0.0
 41
1.0
 50
0.0
 71
     0
 42
3.0
  3
txt
  4

  0
ENDTAB
  0
TABLE
  2
VIEW
 70
     1
  0
VIEW
  2
ALL
 70
     0
 40
270.0
 10
220.99159663865549
 20
135.0
 41
0.0
 11
0.0
 21
0.0
 31
1.0
 12
0.0
 22
0.0
 32
0.0
 42
0.0
 43
0.0
 44
0.0
 50
0.0
 71
     0
  0
ENDTAB
  0
TABLE
  2
UCS
 70
     0
  0
ENDTAB
  0
TABLE
  2
APPID
 70
     5
  0
APPID
  2
ACAD
 70
     0
  0
APPID
  2
ACAD_MLEADERVER
 70
     0
  0
APPID
  2
ACAD_NAV_VCDISPLAY
 70
     0
  0
APPID
  2
ACAD_EXEMPT_FROM_CAD_STANDARDS
 70
     0
  0
APPID
  2
ACAD_DSTYLE_DIMRADIAL_EXTENSION
 70
     0
  0
ENDTAB
  0
TABLE
  2
DIMSTYLE
 70
     1
  0
DIMSTYLE
  2
STANDARD
 70
     0
  3

  4

  5

  6

  7

 40
1.0
 41
0.18
 42
0.0625
 43
0.38
 44
0.18
 45
0.0
 46
0.0
 47
0.0
 48
0.0
140
0.18
141
0.09
142
0.0
143
25.399999999999999
144
1.0
145
0.0
146
1.0
147
0.09
 71
     0
 72
     0
 73
     1
 74
     1
 75
     0
 76
     0
 77
     0
 78
     0
170
     0
171
     2
172
     0
173
     0
174
     0
175
     0
176
     0
177
     0
178
     0
  0
ENDTAB
  0
ENDSEC
  0
SECTION
  2
BLOCKS
  0
BLOCK
  8
0
  2
$MODEL_SPACE
 70
     0
 10
0.0
 20
0.0
 30
0.0
  3
$MODEL_SPACE
  1

  0
ENDBLK
  5
E2
  8
0
  0
BLOCK
 67
     1
  8
0
  2
$PAPER_SPACE
 70
     0
 10
0.0
 20
0.0
 30
0.0
  3
$PAPER_SPACE
  1

  0
ENDBLK
  5
E0
 67
     1
  8
0
  0
ENDSEC
  0
SECTION
  2
ENTITIES
  0
TEXT
  5
19B
  8
0
 62
     3
 10
0.0
 20
0.0
 30
0.0
 40
10.0
  1
BJ748-08060
  7
STANDARD1
  0
LINE
  5
48B
  8
0
 10
97.649891066762507
 20
39.999999999999893
 30
0.0
 11
107.50555349946519
 21
39.999999999999922
 31
0.0
  0
LINE
  5
48C
  8
0
 10
97.649891066762507
 20
52.999999999999901
 30
0.0
 11
107.50555349946519
 21
52.999999999999908
 31
0.0
  0
LINE
  5
48D
  8
0
 10
98.230447650364354
 20
46.499999999999908
 30
0.0
 11
107.50555349946519
 21
46.499999999999908
 31
0.0
  0
LINE
  5
48F
  8
0
 10
97.505553499465236
 20
40.250000000000028
 30
0.0
 11
97.505553499465023
 21
52.750000000000043
 31
0.0
  0
LINE
  5
490
  8
1
 10
92.505553499465236
 20
46.499999999999908
 30
0.0
 11
172.50555349946521
 21
46.499999999999908
 31
0.0
  0
LINE
  5
491
  8
1
 10
47.505553499465123
 20
35.0
 30
0.0
 11
47.505553499465123
 21
58.0
 31
0.0
  0
LINE
  5
492
  8
1
 10
59.005553499465123
 20
46.5
 30
0.0
 11
36.00555349946513
 21
46.5
 31
0.0
  0
LINE
  5
493
  8
0
 10
107.50555349946519
 20
39.999999999999922
 30
0.0
 11
107.50555349946519
 21
52.999999999999929
 31
0.0
  0
ARC
  5
496
  8
0
 10
107.0370432020048
 20
43.250000000000263
 30
0.0
 40
9.3871521352423244
 50
159.7438419995654
 51
200.2561580004346
  0
LINE
  5
499
  8
0
 10
108.1055534994652
 20
50.499999999999908
 30
0.0
 11
163.9282032302757
 21
50.499999999999908
 31
0.0
  0
LINE
  5
49A
  8
0
 10
108.1055534994652
 20
42.499999999999922
 30
0.0
 11
163.92820323027561
 21
42.499999999999922
 31
0.0
  0
LINE
  5
49B
  8
3
 10
110.50555349946519
 20
49.823499999999882
 30
0.0
 11
164.3187806873824
 21
49.823499999999882
 31
0.0
  0
LINE
  5
49C
  8
3
 10
110.50555349946519
 20
43.176499999999919
 30
0.0
 11
164.3187806873824
 21
43.176499999999933
 31
0.0
  0
LINE
  5
49D
  8
0
 10
110.50555349946519
 20
42.499999999999922
 30
0.0
 11
110.50555349946519
 21
50.499999999999908
 31
0.0
  0
LINE
  5
49E
  8
3
 10
110.50555349946519
 20
49.823499999999889
 30
0.0
 11
109.6261034994652
 21
50.499999999999929
 31
0.0
  0
LINE
  5
49F
  8
3
 10
110.50555349946519
 20
43.176499999999919
 30
0.0
 11
109.6261034994652
 21
42.499999999999922
 31
0.0
  0
ARC
  5
4A0
  8
0
 10
108.1055534994652
 20
51.099999999999909
 30
0.0
 40
0.6
 50
180.0
 51
270.0
  0
ARC
  5
4A1
  8
0
 10
108.1055534994652
 20
41.89999999999992
 30
0.0
 40
0.6
 50
90.0
 51
180.0
  0
LINE
  5
4A2
  8
0
 10
164.8808311744383
 20
49.249999999999908
 30
0.0
 11
166.83823575138999
 21
49.249999999999908
 31
0.0
  0
LINE
  5
4A3
  8
0
 10
166.83823575139041
 20
43.749999999999922
 30
0.0
 11
164.88083117443841
 21
43.749999999999922
 31
0.0
  0
LINE
  5
4A4
  8
0
 10
164.53442101292481
 20
43.549999999999841
 30
0.0
 11
163.92820323027561
 21
42.499999999999922
 31
0.0
  0
LINE
  5
4A5
  8
0
 10
164.53442101292441
 20
49.449999999999989
 30
0.0
 11
163.9282032302757
 21
50.499999999999908
 31
0.0
  0
LINE
  5
4A6
  8
0
 10
163.9282032302757
 20
50.499999999999908
 30
0.0
 11
163.92820323027561
 21
42.499999999999922
 31
0.0
  0
ARC
  5
4EE
  8
0
 10
164.88083117443841
 20
43.349999999999923
 30
0.0
 40
0.4
 50
90.0
 51
149.9999999999992
  0
ARC
  5
4F0
  8
0
 10
161.50555349946501
 20
46.499999999999908
 30
0.0
 40
6.0
 50
332.7203872640294
 51
27.27961273597754
  0
LINE
  5
4F1
  8
0
 10
166.83823575139041
 20
43.749999999999922
 30
0.0
 11
166.83823575138999
 21
49.249999999999908
 31
0.0
  0
LINE
  5
56D
  8
0
 10
164.50555349946521
 20
43.500000000000007
 30
0.0
 11
164.50555349946521
 21
49.499999999999851
 31
0.0
  0
ARC
  5
5B2
  8
0
 10
164.8808311744383
 20
49.64999999999992
 30
0.0
 40
0.4
 50
209.9999999999886
 51
270.0
  0
LINE
  5
5B3
  8
0
 10
164.8808311744383
 20
49.249999999999908
 30
0.0
 11
164.8808311744383
 21
43.749999999999922
 31
0.0
  0
CIRCLE
  5
717
  8
0
 10
47.505553499465123
 20
46.5
 30
0.0
 40
6.25
  0
LINE
  5
731
  8
0
 10
98.230447650363431
 20
95.494446500534735
 30
0.0
 11
107.50555349946519
 21
95.494446500534764
 31
0.0
  0
LINE
  5
732
  8
0
 10
98.230447650363431
 20
110.50555349946499
 30
0.0
 11
107.50555349946519
 21
110.50555349946499
 31
0.0
  0
LINE
  5
733
  8
0
 10
98.230447650363317
 20
106.7527767497324
 30
0.0
 11
107.50555349946529
 21
106.7527767497324
 31
0.0
  0
LINE
  5
734
  8
0
 10
98.230447650363317
 20
99.247223250267325
 30
0.0
 11
107.50555349946529
 21
99.247223250267353
 31
0.0
  0
LINE
  5
735
  8
0
 10
97.505553499465236
 20
96.749999999999901
 30
0.0
 11
97.505553499465123
 21
109.2499999999996
 31
0.0
  0
LINE
  5
736
  8
1
 10
92.505553499465236
 20
102.9999999999999
 30
0.0
 11
172.50555349946521
 21
102.9999999999999
 31
0.0
  0
LINE
  5
737
  8
0
 10
107.50555349946519
 20
95.494446500534764
 30
0.0
 11
107.50555349946519
 21
110.50555349946499
 31
0.0
  0
LINE
  5
738
  8
0
 10
97.505553499465236
 20
109.2499999999999
 30
0.0
 11
98.230447650363431
 21
110.50555349946499
 31
0.0
  0
LINE
  5
739
  8
0
 10
98.230447650363431
 20
95.494446500534735
 30
0.0
 11
97.505553499465236
 21
96.749999999999901
 31
0.0
  0
ARC
  5
73A
  8
0
 10
110.0693344831614
 20
102.9999999999997
 30
0.0
 40
12.419443416398931
 50
162.41204622600489
 51
197.58795377399409
  0
ARC
  5
73B
  8
0
 10
100.9724606397115
 20
97.370834875400874
 30
0.0
 40
3.3225695729489981
 50
145.61575253194729
 51
205.6157525319428
  0
ARC
  5
73C
  8
0
 10
100.972460639712
 20
108.6291651245986
 30
0.0
 40
3.322569572949579
 50
154.38424746804219
 51
214.3842474680464
  0
LINE
  5
73D
  8
0
 10
108.1055534994652
 20
106.9999999999999
 30
0.0
 11
163.9282032302757
 21
106.9999999999999
 31
0.0
  0
LINE
  5
73E
  8
0
 10
108.1055534994652
 20
98.999999999999886
 30
0.0
 11
163.92820323027561
 21
98.999999999999886
 31
0.0
  0
LINE
  5
73F
  8
3
 10
110.50555349946519
 20
106.3234999999998
 30
0.0
 11
164.3187806873824
 21
106.3234999999998
 31
0.0
  0
LINE
  5
740
  8
3
 10
110.50555349946519
 20
99.676499999999905
 30
0.0
 11
164.3187806873824
 21
99.676499999999905
 31
0.0
  0
LINE
  5
741
  8
0
 10
110.50555349946519
 20
98.999999999999886
 30
0.0
 11
110.50555349946519
 21
106.9999999999999
 31
0.0
  0
LINE
  5
742
  8
3
 10
110.50555349946519
 20
106.3234999999998
 30
0.0
 11
109.6261034994652
 21
106.9999999999999
 31
0.0
  0
LINE
  5
743
  8
3
 10
110.50555349946519
 20
99.676499999999905
 30
0.0
 11
109.6261034994652
 21
98.999999999999886
 31
0.0
  0
ARC
  5
744
  8
0
 10
108.1055534994652
 20
107.5999999999998
 30
0.0
 40
0.6
 50
180.0
 51
270.0
  0
ARC
  5
745
  8
0
 10
108.1055534994652
 20
98.399999999999892
 30
0.0
 40
0.6
 50
90.0
 51
180.0
  0
LINE
  5
746
  8
0
 10
164.8808311744383
 20
105.7499999999998
 30
0.0
 11
166.83823575138999
 21
105.7499999999998
 31
0.0
  0
ARC
  5
747
  8
0
 10
164.8808311744383
 20
106.14999999999991
 30
0.0
 40
0.4
 50
209.9999999999886
 51
270.0
  0
LINE
  5
748
  8
0
 10
166.83823575139041
 20
100.2499999999999
 30
0.0
 11
164.88083117443841
 21
100.2499999999999
 31
0.0
  0
LINE
  5
749
  8
0
 10
164.53442101292481
 20
100.0499999999998
 30
0.0
 11
163.92820323027561
 21
98.999999999999886
 31
0.0
  0
LINE
  5
74A
  8
0
 10
164.53442101292441
 20
105.9499999999999
 30
0.0
 11
163.9282032302757
 21
106.9999999999999
 31
0.0
  0
LINE
  5
74B
  8
0
 10
163.9282032302757
 20
106.9999999999999
 30
0.0
 11
163.92820323027561
 21
98.999999999999886
 31
0.0
  0
ARC
  5
74C
  8
0
 10
164.88083117443841
 20
99.849999999999923
 30
0.0
 40
0.4
 50
90.0
 51
149.9999999999992
  0
ARC
  5
74D
  8
0
 10
161.50555349946501
 20
102.9999999999999
 30
0.0
 40
6.0
 50
332.7203872640294
 51
27.27961273597754
  0
LINE
  5
74E
  8
0
 10
166.83823575139041
 20
100.2499999999999
 30
0.0
 11
166.83823575138999
 21
105.7499999999998
 31
0.0
  0
LINE
  5
74F
  8
0
 10
164.50555349946521
 20
100.0
 30
0.0
 11
164.50555349946521
 21
105.9999999999998
 31
0.0
  0
LINE
  5
750
  8
0
 10
164.8808311744383
 20
105.7499999999998
 30
0.0
 11
164.8808311744383
 21
100.2499999999999
 31
0.0
  0
LINE
  5
772
  8
0
 10
97.505553499465023
 20
52.749999999999908
 30
0.0
 11
97.649891066762507
 21
52.999999999999901
 31
0.0
  0
LINE
  5
773
  8
0
 10
97.505553499465236
 20
40.249999999999908
 30
0.0
 11
97.649891066762507
 21
39.999999999999901
 31
0.0
  0
ARC
  5
77E
  8
0
 10
107.03704320200529
 20
49.750000000002231
 30
0.0
 40
9.3871521352423244
 50
159.7438419995654
 51
200.2561580004346
  0
LINE
  5
79C
  8
0
 10
43.752776749732561
 20
40.0
 30
0.0
 11
51.258330249197677
 21
40.0
 31
0.0
  0
LINE
  5
79D
  8
0
 10
51.258330249197677
 20
40.0
 30
0.0
 11
55.011106998930252
 21
46.5
 31
0.0
  0
LINE
  5
79E
  8
0
 10
55.011106998930252
 20
46.5
 30
0.0
 11
51.258330249197677
 21
53.0
 31
0.0
  0
LINE
  5
79F
  8
0
 10
51.258330249197677
 20
53.0
 30
0.0
 11
43.752776749732561
 21
53.0
 31
0.0
  0
LINE
  5
7A0
  8
0
 10
43.752776749732561
 20
53.0
 30
0.0
 11
40.0
 21
46.5
 31
0.0
  0
LINE
  5
7A1
  8
0
 10
40.0
 20
46.5
 30
0.0
 11
43.752776749732561
 21
40.0
 31
0.0
  0
ENDSEC
  0
EOF
